  0
SECTION
  2
HEADER
  9
$ACADVER
  1
AC1003
  9
$EXTMIN
 10
-3.99250000E+02
 20
-2.76750000E+02
  9
$EXTMAX
 10
3.99799805E+02
 20
2.76250000E+02
  9
$LIMMIN
 10
-3.99251000E+02
 20
-2.76751000E+02
  9
$LIMMAX
 10
3.99800805E+02
 20
2.76251000E+02
  9
$SNAPUNIT
 10
1
 20
1
  9
$SNAPBASE
 10
0
 20
0
  9
$GRIDMODE
 70
0
  9
$GRIDUNIT
 10
0
 20
0
  9
$LTSCALE
 40
1.33174967E+01
  9
$TEXTSIZE
 40
3.2
  9
$DIMTAD
 70
0
  9
$LUNITS
 70
2
  9
$LUPREC
 70
4
  9
$FILLETRAD
 40
0
  9
$AUNITS
 70
0
  9
$AUPREC
 70
0
  0
ENDSEC
  0
SECTION
  2
TABLES
  0
TABLE
  2
LTYPE
 70
2
  0
LTYPE
  2
CONTINUOUS
 70
64
  3
Solid-Line
 72
65
 73
0
 40
0
  0
LTYPE
  2
DASHED
 70
64
  3
DASHED
 72
65
 73
2
 40
.75
 49
.5
 49
-.25
  0
LTYPE
  2
HIDDEN
 70
64
  3
HIDDEN
 72
65
 73
2
 40
.375
 49
.25
 49
-.125
  0
LTYPE
  2
CENTER
 70
64
  3
CENTER
 72
65
 73
4
 40
2
 49
1.25
 49
-.25
 49
.25
 49
-.25
  0
LTYPE
  2
PHANTOM
 70
64
  3
PHANTOM
 72
65
 73
6
 40
2.5
 49
1.25
 49
-.25
 49
.25
 49
-.25
 49
.25
 49
-.25
  0
ENDTAB
  0
TABLE
  2
LAYER
 70
1
  0
LAYER
  2
1
 70
0
 62
7
  6
CONTINUOUS
 0
ENDTAB
  0
TABLE
  2
STYLE
 70
2
  0
STYLE
  2
MONOTXT
 70
0
 40
0
 41
1
 50
0
 71
0
 42
.2
  3
monotxt
  0
STYLE
  2
BIGFONT
 70
0
 40
0
 41
1
 50
0
 71
0
 42
.2
  3
txt
  4
bigfont
  0
ENDTAB
  0
ENDSEC
  0
SECTION
  2
ENTITIES
  0
LINE
  8
0
  6
PHANTOM
 10
-9.25000000E+00
 20
1.45543841E+02
 11
-9.25000000E+00
 21
4.21367846E+01
  0
LINE
  8
0
 62
2
 10
-1.32249969E+02
 20
7.51894644E+01
 11
-1.23249969E+02
 21
7.51894644E+01
  0
LINE
  8
0
 62
7
 10
-1.32249969E+02
 20
7.43694723E+01
 11
-1.23249969E+02
 21
7.43694723E+01
  0
LINE
  8
0
 62
2
 10
-1.32249969E+02
 20
9.15494573E+01
 11
-1.23249969E+02
 21
9.15494573E+01
  0
LINE
  8
0
 62
7
 10
-1.32249969E+02
 20
9.23694647E+01
 11
-1.23249969E+02
 21
9.23694647E+01
  0
LINE
  8
0
 62
4
 10
-1.42044198E+02
 20
6.77810074E+01
 11
-1.33455741E+02
 21
6.77810074E+01
  0
LINE
  8
0
 62
4
 10
-1.42044198E+02
 20
7.55752360E+01
 11
-1.33455741E+02
 21
7.55752360E+01
  0
ARC
  8
0
 62
4
 10
-1.39150691E+02
 20
7.16781217E+01
 40
6.90072132E+00
 50
3.25615752E+02
 51
3.43842480E+01
  0
ARC
  8
0
 62
4
 10
-1.36349248E+02
 20
7.16781217E+01
 40
6.90072132E+00
 50
1.45615752E+02
 51
2.14384248E+02
  0
LINE
  8
0
 62
4
 10
-1.43249969E+02
 20
6.98694647E+01
 11
-1.42044198E+02
 21
6.77810074E+01
  0
LINE
  8
0
 62
4
 10
-1.32249969E+02
 20
6.98694647E+01
 11
-1.33455741E+02
 21
6.77810074E+01
  0
ARC
  8
0
 62
4
 10
-1.17455741E+02
 20
8.33694647E+01
 40
2.57942282E+01
 50
1.62412046E+02
 51
1.97587954E+02
  0
ARC
  8
0
 62
4
 10
-1.58044198E+02
 20
8.33694647E+01
 40
2.57942282E+01
 50
3.42412046E+02
 51
1.75879541E+01
  0
LINE
  8
0
 62
4
 10
-1.42044198E+02
 20
9.11636933E+01
 11
-1.33455741E+02
 21
9.11636933E+01
  0
LINE
  8
0
 62
4
 10
-1.42044198E+02
 20
9.89579219E+01
 11
-1.33455741E+02
 21
9.89579219E+01
  0
LINE
  8
0
 62
4
 10
-1.42044198E+02
 20
9.89579219E+01
 11
-1.43249969E+02
 21
9.68694647E+01
  0
LINE
  8
0
 62
4
 10
-1.33455741E+02
 20
9.89579219E+01
 11
-1.32249969E+02
 21
9.68694647E+01
  0
LINE
  8
0
 62
4
 10
-1.32249969E+02
 20
6.98694647E+01
 11
-1.32249969E+02
 21
9.68694647E+01
  0
LINE
  8
0
 62
4
 10
-1.43249969E+02
 20
6.98694647E+01
 11
-1.43249969E+02
 21
9.68694647E+01
  0
ARC
  8
0
 62
4
 10
-1.39150691E+02
 20
9.50608076E+01
 40
6.90072132E+00
 50
3.25615752E+02
 51
3.43842480E+01
  0
ARC
  8
0
 62
4
 10
-1.36349248E+02
 20
9.50608076E+01
 40
6.90072132E+00
 50
1.45615752E+02
 51
2.14384248E+02
  0
ARC
  8
0
 62
7
 10
-1.09750000E+02
 20
9.98694342E+01
 40
5.00000000E-01
 50
8.99999818E+01
 51
1.79999964E+02
  0
ARC
  8
0
 62
7
 10
-1.05000000E+02
 20
1.00378010E+02
 40
2.50000000E-01
 50
9.19988230E+01
 51
1.79999977E+02
  0
ARC
  8
0
 62
7
 10
-9.67500000E+01
 20
1.01869465E+02
 40
5.00000000E-01
 50
8.99999818E+01
 51
1.79999964E+02
  0
ARC
  8
0
 62
7
 10
-1.21749969E+02
 20
8.33694647E+01
 40
9.99998474E+00
 50
3.28211647E+02
 51
0.00000000E+00
  0
ARC
  8
0
 62
7
 10
-1.21749969E+02
 20
8.33694647E+01
 40
9.99998474E+00
 50
0.00000000E+00
 51
3.17883527E+01
  0
ARC
  8
0
 62
7
 10
7.42500000E+01
 20
1.01869465E+02
 40
5.00000000E-01
 50
5.46415133E-05
 51
9.00000369E+01
  0
ARC
  8
0
 62
7
 10
7.42500000E+01
 20
6.48694647E+01
 40
5.00000000E-01
 50
2.70000073E+02
 51
5.46415133E-05
  0
ARC
  8
0
 62
7
 10
-9.67500000E+01
 20
6.48694647E+01
 40
5.00000000E-01
 50
1.79999981E+02
 51
2.69999963E+02
  0
ARC
  8
0
 62
7
 10
-1.05000000E+02
 20
6.63609198E+01
 40
2.50000000E-01
 50
1.79999981E+02
 51
2.68001136E+02
  0
ARC
  8
0
 62
7
 10
-1.09750000E+02
 20
6.68694952E+01
 40
5.00000000E-01
 50
1.79999981E+02
 51
2.69999963E+02
  0
LINE
  8
0
 62
7
 10
-1.23249969E+02
 20
7.51894644E+01
 11
-1.20249969E+02
 21
7.51894644E+01
  0
LINE
  8
0
 62
7
 10
-1.23249969E+02
 20
9.15494573E+01
 11
-1.20249969E+02
 21
9.15494573E+01
  0
LINE
  8
0
 62
7
 10
-1.20249980E+02
 20
7.43694774E+01
 11
-1.17249994E+02
 21
7.33694846E+01
  0
LINE
  8
0
 62
7
 10
-1.20249970E+02
 20
8.02470106E+01
 11
-1.17249994E+02
 21
7.81016612E+01
  0
LINE
  8
0
 62
7
 10
-1.20249955E+02
 20
8.64919058E+01
 11
-1.17249963E+02
 21
8.86373120E+01
  0
LINE
  8
0
 62
7
 10
-1.20249980E+02
 20
9.23694619E+01
 11
-1.17249992E+02
 21
9.33694478E+01
  0
LINE
  8
0
  6
CENTER
 62
2
 10
-7.72501678E+01
 20
1.16554523E+02
 11
-7.72501678E+01
 21
1.04669254E+02
  0
LINE
  8
0
 62
7
 10
6.77500000E+01
 20
1.13714863E+02
 11
6.77500000E+01
 21
1.14369465E+02
  0
LINE
  8
0
 62
7
 10
6.77500000E+01
 20
1.14369465E+02
 11
4.17500000E+01
 21
1.14369465E+02
  0
LINE
  8
0
 62
7
 10
-1.17250076E+02
 20
9.33694494E+01
 11
-1.10250046E+02
 21
9.33694494E+01
  0
LINE
  8
0
 62
7
 10
4.17500000E+01
 20
1.10369434E+02
 11
3.52500000E+01
 21
1.10369434E+02
  0
LINE
  8
0
 62
7
 10
7.42500000E+01
 20
1.02369465E+02
 11
7.27500000E+01
 21
1.02369465E+02
  0
LINE
  8
0
 62
7
 10
-9.02500000E+01
 20
1.13714863E+02
 11
-9.02500000E+01
 21
1.14369465E+02
  0
LINE
  8
0
 62
7
 10
-9.52500386E+01
 20
1.13583969E+02
 11
-6.42499991E+01
 21
1.14395734E+02
  0
LINE
  8
0
 62
7
 10
-9.02500000E+01
 20
1.14369465E+02
 11
-6.42500000E+01
 21
1.14369465E+02
  0
LINE
  8
0
 62
7
 10
-1.05008737E+02
 20
1.00627962E+02
 11
-9.72500233E+01
 21
1.00898903E+02
  0
LINE
  8
0
 62
7
 10
-1.05250000E+02
 20
1.00369465E+02
 11
-1.05250000E+02
 21
1.00378010E+02
  0
LINE
  8
0
 62
7
 10
-1.09750000E+02
 20
1.00369465E+02
 11
-1.05241455E+02
 21
1.00369465E+02
  0
LINE
  8
0
 62
7
 10
-9.67500000E+01
 20
1.02369465E+02
 11
-9.52500000E+01
 21
1.02369465E+02
  0
LINE
  8
0
 62
7
 10
4.17500000E+01
 20
1.09519443E+02
 11
3.52500000E+01
 21
1.09519443E+02
  0
LINE
  8
0
  6
CENTER
 62
2
 10
7.49769897E+01
 20
1.06869449E+02
 11
-9.73534546E+01
 21
1.06869449E+02
  0
LINE
  8
0
 62
7
 10
4.17500000E+01
 20
1.04219456E+02
 11
2.02500000E+01
 21
1.04219456E+02
  0
LINE
  8
0
 62
7
 10
-1.52250000E+02
 20
7.58695437E+01
 11
-1.50749965E+02
 21
7.43695542E+01
  0
LINE
  8
0
 62
2
 10
-1.51569916E+02
 20
7.51894644E+01
 11
-1.43249969E+02
 21
7.51894644E+01
  0
LINE
  8
0
 62
7
 10
-1.50749908E+02
 20
7.43694723E+01
 11
-1.43249969E+02
 21
7.43694723E+01
  0
LINE
  8
0
 62
7
 10
-1.52249915E+02
 20
9.08693340E+01
 11
-1.50749869E+02
 21
9.23693343E+01
  0
LINE
  8
0
 62
2
 10
-1.51569916E+02
 20
9.15494573E+01
 11
-1.43249969E+02
 21
9.15494573E+01
  0
LINE
  8
0
 62
7
 10
-1.50749908E+02
 20
9.23694647E+01
 11
-1.43249969E+02
 21
9.23694647E+01
  0
LINE
  8
0
 62
7
 10
-1.50749969E+02
 20
7.43694723E+01
 11
-1.50749969E+02
 21
9.23694647E+01
  0
LINE
  8
0
 62
7
 10
-1.52249969E+02
 20
7.58694952E+01
 11
-1.52249969E+02
 21
9.08693121E+01
  0
LINE
  8
0
 62
7
 10
-1.23249969E+02
 20
7.43694723E+01
 11
-1.23249969E+02
 21
9.23694647E+01
  0
LINE
  8
0
  6
CENTER
 62
2
 10
5.47499237E+01
 20
1.16554523E+02
 11
5.47499237E+01
 21
1.04669254E+02
  0
LINE
  8
0
 62
7
 10
-1.13250015E+02
 20
8.86373175E+01
 11
-1.13250015E+02
 21
8.33694647E+01
  0
LINE
  8
0
 62
7
 10
-1.17249985E+02
 20
9.33694952E+01
 11
-1.17249985E+02
 21
8.86373175E+01
  0
LINE
  8
0
 62
7
 10
-1.17250076E+02
 20
7.33694799E+01
 11
-1.10250046E+02
 21
7.33694799E+01
  0
LINE
  8
0
 62
7
 10
4.17500000E+01
 20
5.63694876E+01
 11
-6.42500000E+01
 21
5.63694876E+01
  0
LINE
  8
0
 62
7
 10
4.17500000E+01
 20
5.72194860E+01
 11
-6.42500000E+01
 21
5.72194860E+01
  0
LINE
  8
0
 62
7
 10
4.17500000E+01
 20
6.25194738E+01
 11
-6.42500000E+01
 21
6.25194738E+01
  0
LINE
  8
0
  6
CENTER
 62
2
 10
7.49769897E+01
 20
5.98694799E+01
 11
-9.73534546E+01
 21
5.98694799E+01
  0
LINE
  8
0
 62
2
 10
-1.19283667E+02
 20
7.95559939E+01
 11
-1.13249985E+02
 21
8.86373136E+01
  0
LINE
  8
0
 62
2
 10
-1.19283655E+02
 20
8.71829487E+01
 11
-1.13250006E+02
 21
7.81016782E+01
  0
LINE
  8
0
 62
7
 10
-1.17249985E+02
 20
7.33694799E+01
 11
-1.17249985E+02
 21
7.81016577E+01
  0
LINE
  8
0
 62
7
 10
-1.17250076E+02
 20
7.81016577E+01
 11
-1.13250015E+02
 21
7.81016577E+01
  0
LINE
  8
0
 62
7
 10
-1.13250015E+02
 20
7.81016577E+01
 11
-1.13250015E+02
 21
8.33694647E+01
  0
LINE
  8
0
 62
7
 10
-1.17250076E+02
 20
8.86373175E+01
 11
-1.13250015E+02
 21
8.86373175E+01
  0
LINE
  8
0
 62
7
 10
-1.20249969E+02
 20
9.23694647E+01
 11
-1.20249969E+02
 21
7.43694723E+01
  0
LINE
  8
0
 62
7
 10
6.77500000E+01
 20
5.30240667E+01
 11
6.77500000E+01
 21
5.23694647E+01
  0
LINE
  8
0
 62
7
 10
7.27500211E+01
 20
5.31549703E+01
 11
4.17500196E+01
 21
5.23432067E+01
  0
LINE
  8
0
 62
7
 10
6.77500000E+01
 20
5.23694647E+01
 11
4.17500000E+01
 21
5.23694647E+01
  0
LINE
  8
0
 62
7
 10
4.17500000E+01
 20
1.14369465E+02
 11
4.17500000E+01
 21
5.23432043E+01
  0
LINE
  8
0
 62
7
 10
7.27500000E+01
 20
1.13583973E+02
 11
7.27500000E+01
 21
5.31550482E+01
  0
LINE
  8
0
 62
7
 10
7.47500000E+01
 20
1.01869465E+02
 11
7.47500000E+01
 21
6.48694647E+01
  0
LINE
  8
0
 62
7
 10
7.42500000E+01
 20
6.43694647E+01
 11
7.27500000E+01
 21
6.43694647E+01
  0
LINE
  8
0
 62
7
 10
-1.05250000E+02
 20
1.00369465E+02
 11
-1.05250000E+02
 21
6.63694647E+01
  0
LINE
  8
0
 62
7
 10
-9.02500000E+01
 20
5.30240667E+01
 11
-9.02500000E+01
 21
5.23694647E+01
  0
LINE
  8
0
 62
7
 10
-9.52500234E+01
 20
5.31549702E+01
 11
-6.42499991E+01
 21
5.23432060E+01
  0
LINE
  8
0
 62
7
 10
-9.02500000E+01
 20
5.23694647E+01
 11
-6.42500000E+01
 21
5.23694647E+01
  0
LINE
  8
0
 62
7
 10
-6.42500000E+01
 20
1.14369465E+02
 11
-6.42500000E+01
 21
5.23432043E+01
  0
LINE
  8
0
 62
7
 10
-9.52500000E+01
 20
1.13583973E+02
 11
-9.52500000E+01
 21
5.31550482E+01
  0
LINE
  8
0
 62
7
 10
-9.72500000E+01
 20
1.01869465E+02
 11
-9.72500000E+01
 21
6.48694647E+01
  0
LINE
  8
0
 62
7
 10
-1.05008742E+02
 20
6.61109856E+01
 11
-9.72500436E+01
 21
6.58400459E+01
  0
LINE
  8
0
 62
7
 10
-1.05250000E+02
 20
6.63694647E+01
 11
-1.05250000E+02
 21
6.63609198E+01
  0
LINE
  8
0
 62
7
 10
-1.09750000E+02
 20
6.63694647E+01
 11
-1.05241455E+02
 21
6.63694647E+01
  0
LINE
  8
0
 62
7
 10
-9.67500000E+01
 20
6.43694647E+01
 11
-9.52500000E+01
 21
6.43694647E+01
  0
LINE
  8
0
 62
7
 10
-1.10250000E+02
 20
9.98694342E+01
 11
-1.10250000E+02
 21
6.68694952E+01
  0
LINE
  8
0
  6
CENTER
 62
2
 10
-1.56023193E+02
 20
8.33694647E+01
 11
7.90549469E+01
 21
8.33694647E+01
  0
LINE
  8
0
 62
7
 10
7.27500211E+01
 20
1.13583959E+02
 11
4.17500196E+01
 21
1.14395723E+02
  0
LINE
  8
0
 62
4
 10
3.67500000E+01
 20
1.15168356E+02
 11
3.67500000E+01
 21
1.12544453E+02
  0
LINE
  8
0
 62
4
 10
3.67500000E+01
 20
1.12544453E+02
 11
3.52500000E+01
 21
1.11542389E+02
  0
LINE
  8
0
 62
4
 10
3.67500000E+01
 20
1.12937766E+02
 11
3.52500000E+01
 21
1.12236981E+02
  0
LINE
  8
0
 62
4
 10
3.52500000E+01
 20
1.16176212E+02
 11
3.67500000E+01
 21
1.15168356E+02
  0
LINE
  8
0
 62
4
 10
-3.58127552E+01
 20
1.16176212E+02
 11
-3.02500000E+01
 21
1.16176212E+02
  0
LINE
  8
0
 62
4
 10
-3.54128770E+01
 20
1.16633887E+02
 11
-2.37500000E+01
 21
1.16633887E+02
  0
LINE
  8
0
  6
CENTER
 62
6
 10
-2.87500000E+01
 20
1.22444252E+02
 11
-3.37500000E+01
 21
1.22444252E+02
  0
LINE
  8
0
  6
CENTER
 62
6
 10
-3.12500000E+01
 20
1.24944252E+02
 11
-3.12500000E+01
 21
1.19944252E+02
  0
LINE
  8
0
  6
CENTER
 62
6
 10
-3.62500000E+01
 20
1.18997425E+02
 11
-4.12500000E+01
 21
1.18997425E+02
  0
LINE
  8
0
  6
CENTER
 62
6
 10
-3.87500000E+01
 20
1.21497425E+02
 11
-3.87500000E+01
 21
1.16497425E+02
  0
LINE
  8
0
  6
CENTER
 62
6
 10
-4.37500000E+01
 20
1.22444252E+02
 11
-4.87500000E+01
 21
1.22444252E+02
  0
LINE
  8
0
  6
CENTER
 62
6
 10
-4.62500000E+01
 20
1.24944252E+02
 11
-4.62500000E+01
 21
1.19944252E+02
  0
POLYLINE
  8
0
 62
4
 66
1
  0
VERTEX
  8
0
 62
4
 10
-4.29000000E+01
 20
1.19063411E+02
  0
VERTEX
  8
0
 62
4
 10
-4.28832933E+01
 20
1.18697059E+02
  0
VERTEX
  8
0
 62
4
 10
-4.28333078E+01
 20
1.18333658E+02
  0
VERTEX
  8
0
 62
4
 10
-4.27504459E+01
 20
1.17976131E+02
  0
VERTEX
  8
0
 62
4
 10
-4.26353747E+01
 20
1.17627359E+02
  0
VERTEX
  8
0
 62
4
 10
-4.24890208E+01
 20
1.17290149E+02
  0
VERTEX
  8
0
 62
4
 10
-4.23125625E+01
 20
1.16967216E+02
  0
VERTEX
  8
0
 62
4
 10
-4.21074205E+01
 20
1.16661161E+02
  0
VERTEX
  8
0
 62
4
 10
-4.18752466E+01
 20
1.16374447E+02
  0
VERTEX
  8
0
 62
4
 10
-4.16179100E+01
 20
1.16109383E+02
  0
VERTEX
  8
0
 62
4
 10
-4.13374827E+01
 20
1.15868103E+02
  0
VERTEX
  8
0
 62
4
 10
-4.10362225E+01
 20
1.15652550E+02
  0
VERTEX
  8
0
 62
4
 10
-4.07165550E+01
 20
1.15464459E+02
  0
VERTEX
  8
0
 62
4
 10
-4.03810539E+01
 20
1.15305345E+02
  0
VERTEX
  8
0
 62
4
 10
-4.00324205E+01
 20
1.15176489E+02
  0
VERTEX
  8
0
 62
4
 10
-3.96734619E+01
 20
1.15078927E+02
  0
VERTEX
  8
0
 62
4
 10
-3.93070681E+01
 20
1.15013447E+02
  0
VERTEX
  8
0
 62
4
 10
-3.89361891E+01
 20
1.14980574E+02
  0
VERTEX
  8
0
 62
4
 10
-3.85638110E+01
 20
1.14980574E+02
  0
VERTEX
  8
0
 62
4
 10
-3.81929320E+01
 20
1.15013447E+02
  0
VERTEX
  8
0
 62
4
 10
-3.78265381E+01
 20
1.15078927E+02
  0
VERTEX
  8
0
 62
4
 10
-3.74675795E+01
 20
1.15176488E+02
  0
VERTEX
  8
0
 62
4
 10
-3.71189461E+01
 20
1.15305345E+02
  0
VERTEX
  8
0
 62
4
 10
-3.67834451E+01
 20
1.15464459E+02
  0
VERTEX
  8
0
 62
4
 10
-3.64637775E+01
 20
1.15652550E+02
  0
VERTEX
  8
0
 62
4
 10
-3.61625173E+01
 20
1.15868103E+02
  0
VERTEX
  8
0
 62
4
 10
-3.58820900E+01
 20
1.16109383E+02
  0
VERTEX
  8
0
 62
4
 10
-3.56247534E+01
 20
1.16374447E+02
  0
VERTEX
  8
0
 62
4
 10
-3.53925795E+01
 20
1.16661161E+02
  0
VERTEX
  8
0
 62
4
 10
-3.51874375E+01
 20
1.16967216E+02
  0
VERTEX
  8
0
 62
4
 10
-3.50109792E+01
 20
1.17290149E+02
  0
VERTEX
  8
0
 62
4
 10
-3.48646253E+01
 20
1.17627359E+02
  0
VERTEX
  8
0
 62
4
 10
-3.47495541E+01
 20
1.17976131E+02
  0
VERTEX
  8
0
 62
4
 10
-3.46666922E+01
 20
1.18333657E+02
  0
VERTEX
  8
0
 62
4
 10
-3.46167067E+01
 20
1.18697059E+02
  0
VERTEX
  8
0
 62
4
 10
-3.46000000E+01
 20
1.19063411E+02
  0
SEQEND
  8
0
  0
POLYLINE
  8
0
 62
4
 66
1
  0
VERTEX
  8
0
 62
4
 10
-3.46000000E+01
 20
1.19369032E+02
  0
VERTEX
  8
0
 62
4
 10
-3.46157920E+01
 20
1.19725233E+02
  0
VERTEX
  8
0
 62
4
 10
-3.46630478E+01
 20
1.20078724E+02
  0
VERTEX
  8
0
 62
4
 10
-3.47414078E+01
 20
1.20426813E+02
  0
VERTEX
  8
0
 62
4
 10
-3.48502756E+01
 20
1.20766852E+02
  0
VERTEX
  8
0
 62
4
 10
-3.49888227E+01
 20
1.21096253E+02
  0
VERTEX
  8
0
 62
4
 10
-3.51559946E+01
 20
1.21412508E+02
  0
VERTEX
  8
0
 62
4
 10
-3.53505190E+01
 20
1.21713211E+02
  0
VERTEX
  8
0
 62
4
 10
-3.55709156E+01
 20
1.21996074E+02
  0
VERTEX
  8
0
 62
4
 10
-3.58155069E+01
 20
1.22258944E+02
  0
VERTEX
  8
0
 62
4
 10
-3.60824314E+01
 20
1.22499819E+02
  0
VERTEX
  8
0
 62
4
 10
-3.63696578E+01
 20
1.22716867E+02
  0
VERTEX
  8
0
 62
4
 10
-3.66750000E+01
 20
1.22908436E+02
  0
VERTEX
  8
0
 62
4
 10
-3.69961342E+01
 20
1.23073069E+02
  0
VERTEX
  8
0
 62
4
 10
-3.73306164E+01
 20
1.23209511E+02
  0
VERTEX
  8
0
 62
4
 10
-3.76759010E+01
 20
1.23316725E+02
  0
VERTEX
  8
0
 62
4
 10
-3.80293601E+01
 20
1.23393894E+02
  0
VERTEX
  8
0
 62
4
 10
-3.83883037E+01
 20
1.23440432E+02
  0
VERTEX
  8
0
 62
4
 10
-3.87500000E+01
 20
1.23455984E+02
  0
VERTEX
  8
0
 62
4
 10
-3.91116963E+01
 20
1.23440432E+02
  0
VERTEX
  8
0
 62
4
 10
-3.94706399E+01
 20
1.23393894E+02
  0
VERTEX
  8
0
 62
4
 10
-3.98240990E+01
 20
1.23316725E+02
  0
VERTEX
  8
0
 62
4
 10
-4.01693836E+01
 20
1.23209511E+02
  0
VERTEX
  8
0
 62
4
 10
-4.05038658E+01
 20
1.23073069E+02
  0
VERTEX
  8
0
 62
4
 10
-4.08250000E+01
 20
1.22908436E+02
  0
VERTEX
  8
0
 62
4
 10
-4.11303422E+01
 20
1.22716867E+02
  0
VERTEX
  8
0
 62
4
 10
-4.14175686E+01
 20
1.22499819E+02
  0
VERTEX
  8
0
 62
4
 10
-4.16844931E+01
 20
1.22258944E+02
  0
VERTEX
  8
0
 62
4
 10
-4.19290844E+01
 20
1.21996074E+02
  0
VERTEX
  8
0
 62
4
 10
-4.21494810E+01
 20
1.21713211E+02
  0
VERTEX
  8
0
 62
4
 10
-4.23440054E+01
 20
1.21412508E+02
  0
VERTEX
  8
0
 62
4
 10
-4.25111773E+01
 20
1.21096253E+02
  0
VERTEX
  8
0
 62
4
 10
-4.26497244E+01
 20
1.20766852E+02
  0
VERTEX
  8
0
 62
4
 10
-4.27585922E+01
 20
1.20426813E+02
  0
VERTEX
  8
0
 62
4
 10
-4.28369522E+01
 20
1.20078724E+02
  0
VERTEX
  8
0
 62
4
 10
-4.28842080E+01
 20
1.19725233E+02
  0
VERTEX
  8
0
 62
4
 10
-4.29000000E+01
 20
1.19369032E+02
  0
VERTEX
  8
0
 62
4
 10
-4.28842080E+01
 20
1.19012831E+02
  0
VERTEX
  8
0
 62
4
 10
-4.28369522E+01
 20
1.18659340E+02
  0
VERTEX
  8
0
 62
4
 10
-4.27585922E+01
 20
1.18311251E+02
  0
VERTEX
  8
0
 62
4
 10
-4.26497244E+01
 20
1.17971212E+02
  0
VERTEX
  8
0
 62
4
 10
-4.25111773E+01
 20
1.17641811E+02
  0
VERTEX
  8
0
 62
4
 10
-4.23440054E+01
 20
1.17325556E+02
  0
VERTEX
  8
0
 62
4
 10
-4.21494810E+01
 20
1.17024853E+02
  0
VERTEX
  8
0
 62
4
 10
-4.19290844E+01
 20
1.16741990E+02
  0
VERTEX
  8
0
 62
4
 10
-4.16844931E+01
 20
1.16479120E+02
  0
VERTEX
  8
0
 62
4
 10
-4.14175686E+01
 20
1.16238245E+02
  0
VERTEX
  8
0
 62
4
 10
-4.11303422E+01
 20
1.16021197E+02
  0
VERTEX
  8
0
 62
4
 10
-4.08250000E+01
 20
1.15829628E+02
  0
VERTEX
  8
0
 62
4
 10
-4.05038658E+01
 20
1.15664995E+02
  0
VERTEX
  8
0
 62
4
 10
-4.01693836E+01
 20
1.15528553E+02
  0
VERTEX
  8
0
 62
4
 10
-3.98240990E+01
 20
1.15421339E+02
  0
VERTEX
  8
0
 62
4
 10
-3.94706399E+01
 20
1.15344170E+02
  0
VERTEX
  8
0
 62
4
 10
-3.91116963E+01
 20
1.15297632E+02
  0
VERTEX
  8
0
 62
4
 10
-3.87500000E+01
 20
1.15282080E+02
  0
VERTEX
  8
0
 62
4
 10
-3.83883037E+01
 20
1.15297632E+02
  0
VERTEX
  8
0
 62
4
 10
-3.80293601E+01
 20
1.15344170E+02
  0
VERTEX
  8
0
 62
4
 10
-3.76759010E+01
 20
1.15421339E+02
  0
VERTEX
  8
0
 62
4
 10
-3.73306164E+01
 20
1.15528553E+02
  0
VERTEX
  8
0
 62
4
 10
-3.69961342E+01
 20
1.15664995E+02
  0
VERTEX
  8
0
 62
4
 10
-3.66750000E+01
 20
1.15829628E+02
  0
VERTEX
  8
0
 62
4
 10
-3.63696578E+01
 20
1.16021197E+02
  0
VERTEX
  8
0
 62
4
 10
-3.60824314E+01
 20
1.16238245E+02
  0
VERTEX
  8
0
 62
4
 10
-3.58155069E+01
 20
1.16479120E+02
  0
VERTEX
  8
0
 62
4
 10
-3.55709156E+01
 20
1.16741990E+02
  0
VERTEX
  8
0
 62
4
 10
-3.53505190E+01
 20
1.17024853E+02
  0
VERTEX
  8
0
 62
4
 10
-3.51559946E+01
 20
1.17325556E+02
  0
VERTEX
  8
0
 62
4
 10
-3.49888227E+01
 20
1.17641811E+02
  0
VERTEX
  8
0
 62
4
 10
-3.48502756E+01
 20
1.17971212E+02
  0
VERTEX
  8
0
 62
4
 10
-3.47414078E+01
 20
1.18311251E+02
  0
VERTEX
  8
0
 62
4
 10
-3.46630478E+01
 20
1.18659340E+02
  0
VERTEX
  8
0
 62
4
 10
-3.46157920E+01
 20
1.19012831E+02
  0
VERTEX
  8
0
 62
4
 10
-3.46000000E+01
 20
1.19369032E+02
  0
SEQEND
  8
0
  0
LINE
  8
0
 62
4
 10
-4.29000000E+01
 20
1.19063411E+02
 11
-4.29000000E+01
 21
1.19369032E+02
  0
LINE
  8
0
 62
4
 10
-3.46000000E+01
 20
1.19063411E+02
 11
-3.46000000E+01
 21
1.19369032E+02
  0
ARC
  8
0
 62
4
 10
9.36228232E+01
 20
-1.49304607E+01
 40
1.88658103E+02
 50
1.33811210E+02
 51
1.35318357E+02
  0
ARC
  8
0
 62
4
 10
-1.71122535E+02
 20
-1.49301677E+01
 40
1.88657692E+02
 50
4.46816411E+01
 51
4.61887918E+01
  0
LINE
  8
0
 62
4
 10
-3.50500000E+01
 20
1.22444252E+02
 11
-3.50500000E+01
 21
1.22617900E+02
  0
POLYLINE
  8
0
 62
4
 66
1
  0
VERTEX
  8
0
 62
4
 10
-3.50500000E+01
 20
1.22444252E+02
  0
VERTEX
  8
0
 62
4
 10
-3.50347023E+01
 20
1.22108798E+02
  0
VERTEX
  8
0
 62
4
 10
-3.49889325E+01
 20
1.21776044E+02
  0
VERTEX
  8
0
 62
4
 10
-3.49130589E+01
 20
1.21448670E+02
  0
VERTEX
  8
0
 62
4
 10
-3.48076925E+01
 20
1.21129313E+02
  0
VERTEX
  8
0
 62
4
 10
-3.46736817E+01
 20
1.20820542E+02
  0
VERTEX
  8
0
 62
4
 10
-3.45121054E+01
 20
1.20524845E+02
  0
VERTEX
  8
0
 62
4
 10
-3.43242646E+01
 20
1.20244601E+02
  0
VERTEX
  8
0
 62
4
 10
-3.41116716E+01
 20
1.19982068E+02
  0
VERTEX
  8
0
 62
4
 10
-3.38760381E+01
 20
1.19739359E+02
  0
VERTEX
  8
0
 62
4
 10
-3.36192613E+01
 20
1.19518428E+02
  0
VERTEX
  8
0
 62
4
 10
-3.33434086E+01
 20
1.19321054E+02
  0
VERTEX
  8
0
 62
4
 10
-3.30507009E+01
 20
1.19148826E+02
  0
VERTEX
  8
0
 62
4
 10
-3.27434951E+01
 20
1.19003131E+02
  0
VERTEX
  8
0
 62
4
 10
-3.24242646E+01
 20
1.18885142E+02
  0
VERTEX
  8
0
 62
4
 10
-3.20955796E+01
 20
1.18795809E+02
  0
VERTEX
  8
0
 62
4
 10
-3.17600864E+01
 20
1.18735851E+02
  0
VERTEX
  8
0
 62
4
 10
-3.14204864E+01
 20
1.18705751E+02
  0
VERTEX
  8
0
 62
4
 10
-3.10795137E+01
 20
1.18705751E+02
  0
VERTEX
  8
0
 62
4
 10
-3.07399136E+01
 20
1.18735851E+02
  0
VERTEX
  8
0
 62
4
 10
-3.04044205E+01
 20
1.18795809E+02
  0
VERTEX
  8
0
 62
4
 10
-3.00757354E+01
 20
1.18885142E+02
  0
VERTEX
  8
0
 62
4
 10
-2.97565049E+01
 20
1.19003131E+02
  0
VERTEX
  8
0
 62
4
 10
-2.94492991E+01
 20
1.19148826E+02
  0
VERTEX
  8
0
 62
4
 10
-2.91565915E+01
 20
1.19321054E+02
  0
VERTEX
  8
0
 62
4
 10
-2.88807388E+01
 20
1.19518428E+02
  0
VERTEX
  8
0
 62
4
 10
-2.86239619E+01
 20
1.19739359E+02
  0
VERTEX
  8
0
 62
4
 10
-2.83883284E+01
 20
1.19982068E+02
  0
VERTEX
  8
0
 62
4
 10
-2.81757354E+01
 20
1.20244601E+02
  0
VERTEX
  8
0
 62
4
 10
-2.79878946E+01
 20
1.20524845E+02
  0
VERTEX
  8
0
 62
4
 10
-2.78263183E+01
 20
1.20820542E+02
  0
VERTEX
  8
0
 62
4
 10
-2.76923075E+01
 20
1.21129313E+02
  0
VERTEX
  8
0
 62
4
 10
-2.75869411E+01
 20
1.21448670E+02
  0
VERTEX
  8
0
 62
4
 10
-2.75110675E+01
 20
1.21776044E+02
  0
VERTEX
  8
0
 62
4
 10
-2.74652977E+01
 20
1.22108798E+02
  0
VERTEX
  8
0
 62
4
 10
-2.74500000E+01
 20
1.22444252E+02
  0
SEQEND
  8
0
  0
POLYLINE
  8
0
 62
4
 66
1
  0
VERTEX
  8
0
 62
4
 10
-3.50500000E+01
 20
1.22617900E+02
  0
VERTEX
  8
0
 62
4
 10
-3.50355399E+01
 20
1.22291740E+02
  0
VERTEX
  8
0
 62
4
 10
-3.49922695E+01
 20
1.21968062E+02
  0
VERTEX
  8
0
 62
4
 10
-3.49205182E+01
 20
1.21649329E+02
  0
VERTEX
  8
0
 62
4
 10
-3.48208320E+01
 20
1.21337968E+02
  0
VERTEX
  8
0
 62
4
 10
-3.46939696E+01
 20
1.21036349E+02
  0
VERTEX
  8
0
 62
4
 10
-3.45408966E+01
 20
1.20746765E+02
  0
VERTEX
  8
0
 62
4
 10
-3.43627778E+01
 20
1.20471422E+02
  0
VERTEX
  8
0
 62
4
 10
-3.41609689E+01
 20
1.20212416E+02
  0
VERTEX
  8
0
 62
4
 10
-3.39370058E+01
 20
1.19971716E+02
  0
VERTEX
  8
0
 62
4
 10
-3.36925929E+01
 20
1.19751155E+02
  0
VERTEX
  8
0
 62
4
 10
-3.34295905E+01
 20
1.19552412E+02
  0
VERTEX
  8
0
 62
4
 10
-3.31500000E+01
 20
1.19377000E+02
  0
VERTEX
  8
0
 62
4
 10
-3.28559494E+01
 20
1.19226252E+02
  0
VERTEX
  8
0
 62
4
 10
-3.25496766E+01
 20
1.19101317E+02
  0
VERTEX
  8
0
 62
4
 10
-3.22335124E+01
 20
1.19003145E+02
  0
VERTEX
  8
0
 62
4
 10
-3.19098631E+01
 20
1.18932484E+02
  0
VERTEX
  8
0
 62
4
 10
-3.15811918E+01
 20
1.18889871E+02
  0
VERTEX
  8
0
 62
4
 10
-3.12500000E+01
 20
1.18875631E+02
  0
VERTEX
  8
0
 62
4
 10
-3.09188082E+01
 20
1.18889871E+02
  0
VERTEX
  8
0
 62
4
 10
-3.05901369E+01
 20
1.18932484E+02
  0
VERTEX
  8
0
 62
4
 10
-3.02664876E+01
 20
1.19003145E+02
  0
VERTEX
  8
0
 62
4
 10
-2.99503235E+01
 20
1.19101317E+02
  0
VERTEX
  8
0
 62
4
 10
-2.96440506E+01
 20
1.19226252E+02
  0
VERTEX
  8
0
 62
4
 10
-2.93500000E+01
 20
1.19377000E+02
  0
VERTEX
  8
0
 62
4
 10
-2.90704095E+01
 20
1.19552412E+02
  0
VERTEX
  8
0
 62
4
 10
-2.88074071E+01
 20
1.19751155E+02
  0
VERTEX
  8
0
 62
4
 10
-2.85629942E+01
 20
1.19971716E+02
  0
VERTEX
  8
0
 62
4
 10
-2.83390311E+01
 20
1.20212416E+02
  0
VERTEX
  8
0
 62
4
 10
-2.81372222E+01
 20
1.20471422E+02
  0
VERTEX
  8
0
 62
4
 10
-2.79591034E+01
 20
1.20746765E+02
  0
VERTEX
  8
0
 62
4
 10
-2.78060304E+01
 20
1.21036349E+02
  0
VERTEX
  8
0
 62
4
 10
-2.76791680E+01
 20
1.21337968E+02
  0
VERTEX
  8
0
 62
4
 10
-2.75794818E+01
 20
1.21649329E+02
  0
VERTEX
  8
0
 62
4
 10
-2.75077305E+01
 20
1.21968062E+02
  0
VERTEX
  8
0
 62
4
 10
-2.74644601E+01
 20
1.22291740E+02
  0
VERTEX
  8
0
 62
4
 10
-2.74500000E+01
 20
1.22617900E+02
  0
VERTEX
  8
0
 62
4
 10
-2.74644601E+01
 20
1.22944060E+02
  0
VERTEX
  8
0
 62
4
 10
-2.75077305E+01
 20
1.23267738E+02
  0
VERTEX
  8
0
 62
4
 10
-2.75794818E+01
 20
1.23586471E+02
  0
VERTEX
  8
0
 62
4
 10
-2.76791680E+01
 20
1.23897832E+02
  0
VERTEX
  8
0
 62
4
 10
-2.78060304E+01
 20
1.24199451E+02
  0
VERTEX
  8
0
 62
4
 10
-2.79591034E+01
 20
1.24489035E+02
  0
VERTEX
  8
0
 62
4
 10
-2.81372222E+01
 20
1.24764378E+02
  0
VERTEX
  8
0
 62
4
 10
-2.83390311E+01
 20
1.25023384E+02
  0
VERTEX
  8
0
 62
4
 10
-2.85629942E+01
 20
1.25264084E+02
  0
VERTEX
  8
0
 62
4
 10
-2.88074071E+01
 20
1.25484645E+02
  0
VERTEX
  8
0
 62
4
 10
-2.90704095E+01
 20
1.25683388E+02
  0
VERTEX
  8
0
 62
4
 10
-2.93500000E+01
 20
1.25858800E+02
  0
VERTEX
  8
0
 62
4
 10
-2.96440506E+01
 20
1.26009548E+02
  0
VERTEX
  8
0
 62
4
 10
-2.99503234E+01
 20
1.26134483E+02
  0
VERTEX
  8
0
 62
4
 10
-3.02664876E+01
 20
1.26232655E+02
  0
VERTEX
  8
0
 62
4
 10
-3.05901369E+01
 20
1.26303316E+02
  0
VERTEX
  8
0
 62
4
 10
-3.09188082E+01
 20
1.26345929E+02
  0
VERTEX
  8
0
 62
4
 10
-3.12500000E+01
 20
1.26360169E+02
  0
VERTEX
  8
0
 62
4
 10
-3.15811918E+01
 20
1.26345929E+02
  0
VERTEX
  8
0
 62
4
 10
-3.19098631E+01
 20
1.26303316E+02
  0
VERTEX
  8
0
 62
4
 10
-3.22335124E+01
 20
1.26232655E+02
  0
VERTEX
  8
0
 62
4
 10
-3.25496766E+01
 20
1.26134483E+02
  0
VERTEX
  8
0
 62
4
 10
-3.28559494E+01
 20
1.26009548E+02
  0
VERTEX
  8
0
 62
4
 10
-3.31500000E+01
 20
1.25858800E+02
  0
VERTEX
  8
0
 62
4
 10
-3.34295905E+01
 20
1.25683388E+02
  0
VERTEX
  8
0
 62
4
 10
-3.36925929E+01
 20
1.25484645E+02
  0
VERTEX
  8
0
 62
4
 10
-3.39370058E+01
 20
1.25264084E+02
  0
VERTEX
  8
0
 62
4
 10
-3.41609689E+01
 20
1.25023384E+02
  0
VERTEX
  8
0
 62
4
 10
-3.43627778E+01
 20
1.24764378E+02
  0
VERTEX
  8
0
 62
4
 10
-3.45408966E+01
 20
1.24489035E+02
  0
VERTEX
  8
0
 62
4
 10
-3.46939696E+01
 20
1.24199451E+02
  0
VERTEX
  8
0
 62
4
 10
-3.48208320E+01
 20
1.23897832E+02
  0
VERTEX
  8
0
 62
4
 10
-3.49205182E+01
 20
1.23586471E+02
  0
VERTEX
  8
0
 62
4
 10
-3.49922695E+01
 20
1.23267738E+02
  0
VERTEX
  8
0
 62
4
 10
-3.50355399E+01
 20
1.22944060E+02
  0
VERTEX
  8
0
 62
4
 10
-3.50500000E+01
 20
1.22617900E+02
  0
SEQEND
  8
0
  0
LINE
  8
0
 62
4
 10
-2.74500000E+01
 20
1.22444252E+02
 11
-2.74500000E+01
 21
1.22617900E+02
  0
LINE
  8
0
 62
4
 10
-3.46500000E+01
 20
1.22617900E+02
 11
-3.46500000E+01
 21
1.22814262E+02
  0
POLYLINE
  8
0
 62
4
 66
1
  0
VERTEX
  8
0
 62
4
 10
-3.46500000E+01
 20
1.22617900E+02
  0
VERTEX
  8
0
 62
4
 10
-3.46363126E+01
 20
1.22317757E+02
  0
VERTEX
  8
0
 62
4
 10
-3.45953606E+01
 20
1.22020030E+02
  0
VERTEX
  8
0
 62
4
 10
-3.45274738E+01
 20
1.21727117E+02
  0
VERTEX
  8
0
 62
4
 10
-3.44331986E+01
 20
1.21441375E+02
  0
VERTEX
  8
0
 62
4
 10
-3.43132942E+01
 20
1.21165107E+02
  0
VERTEX
  8
0
 62
4
 10
-3.41687259E+01
 20
1.20900536E+02
  0
VERTEX
  8
0
 62
4
 10
-3.40006578E+01
 20
1.20649791E+02
  0
VERTEX
  8
0
 62
4
 10
-3.38104430E+01
 20
1.20414893E+02
  0
VERTEX
  8
0
 62
4
 10
-3.35996130E+01
 20
1.20197732E+02
  0
VERTEX
  8
0
 62
4
 10
-3.33698654E+01
 20
1.20000057E+02
  0
VERTEX
  8
0
 62
4
 10
-3.31230498E+01
 20
1.19823460E+02
  0
VERTEX
  8
0
 62
4
 10
-3.28611535E+01
 20
1.19669361E+02
  0
VERTEX
  8
0
 62
4
 10
-3.25862851E+01
 20
1.19539003E+02
  0
VERTEX
  8
0
 62
4
 10
-3.23006578E+01
 20
1.19433433E+02
  0
VERTEX
  8
0
 62
4
 10
-3.20065712E+01
 20
1.19353504E+02
  0
VERTEX
  8
0
 62
4
 10
-3.17063931E+01
 20
1.19299857E+02
  0
VERTEX
  8
0
 62
4
 10
-3.14025404E+01
 20
1.19272925E+02
  0
VERTEX
  8
0
 62
4
 10
-3.10974596E+01
 20
1.19272925E+02
  0
VERTEX
  8
0
 62
4
 10
-3.07936069E+01
 20
1.19299857E+02
  0
VERTEX
  8
0
 62
4
 10
-3.04934288E+01
 20
1.19353504E+02
  0
VERTEX
  8
0
 62
4
 10
-3.01993422E+01
 20
1.19433433E+02
  0
VERTEX
  8
0
 62
4
 10
-2.99137149E+01
 20
1.19539003E+02
  0
VERTEX
  8
0
 62
4
 10
-2.96388466E+01
 20
1.19669361E+02
  0
VERTEX
  8
0
 62
4
 10
-2.93769503E+01
 20
1.19823460E+02
  0
VERTEX
  8
0
 62
4
 10
-2.91301347E+01
 20
1.20000057E+02
  0
VERTEX
  8
0
 62
4
 10
-2.89003870E+01
 20
1.20197732E+02
  0
VERTEX
  8
0
 62
4
 10
-2.86895570E+01
 20
1.20414893E+02
  0
VERTEX
  8
0
 62
4
 10
-2.84993422E+01
 20
1.20649791E+02
  0
VERTEX
  8
0
 62
4
 10
-2.83312741E+01
 20
1.20900536E+02
  0
VERTEX
  8
0
 62
4
 10
-2.81867058E+01
 20
1.21165107E+02
  0
VERTEX
  8
0
 62
4
 10
-2.80668014E+01
 20
1.21441375E+02
  0
VERTEX
  8
0
 62
4
 10
-2.79725263E+01
 20
1.21727116E+02
  0
VERTEX
  8
0
 62
4
 10
-2.79046394E+01
 20
1.22020030E+02
  0
VERTEX
  8
0
 62
4
 10
-2.78636874E+01
 20
1.22317757E+02
  0
VERTEX
  8
0
 62
4
 10
-2.78500000E+01
 20
1.22617900E+02
  0
SEQEND
  8
0
  0
POLYLINE
  8
0
 62
4
 66
1
  0
VERTEX
  8
0
 62
4
 10
-3.46500000E+01
 20
1.22814262E+02
  0
VERTEX
  8
0
 62
4
 10
-3.46370620E+01
 20
1.22522434E+02
  0
VERTEX
  8
0
 62
4
 10
-3.45983464E+01
 20
1.22232828E+02
  0
VERTEX
  8
0
 62
4
 10
-3.45341478E+01
 20
1.21947646E+02
  0
VERTEX
  8
0
 62
4
 10
-3.44449549E+01
 20
1.21669060E+02
  0
VERTEX
  8
0
 62
4
 10
-3.43314465E+01
 20
1.21399190E+02
  0
VERTEX
  8
0
 62
4
 10
-3.41944864E+01
 20
1.21140089E+02
  0
VERTEX
  8
0
 62
4
 10
-3.40351170E+01
 20
1.20893729E+02
  0
VERTEX
  8
0
 62
4
 10
-3.38545511E+01
 20
1.20661986E+02
  0
VERTEX
  8
0
 62
4
 10
-3.36541631E+01
 20
1.20446623E+02
  0
VERTEX
  8
0
 62
4
 10
-3.34354779E+01
 20
1.20249280E+02
  0
VERTEX
  8
0
 62
4
 10
-3.32001599E+01
 20
1.20071457E+02
  0
VERTEX
  8
0
 62
4
 10
-3.29500000E+01
 20
1.19914509E+02
  0
VERTEX
  8
0
 62
4
 10
-3.26869021E+01
 20
1.19779629E+02
  0
VERTEX
  8
0
 62
4
 10
-3.24128685E+01
 20
1.19667845E+02
  0
VERTEX
  8
0
 62
4
 10
-3.21299848E+01
 20
1.19580007E+02
  0
VERTEX
  8
0
 62
4
 10
-3.18404038E+01
 20
1.19516784E+02
  0
VERTEX
  8
0
 62
4
 10
-3.15463295E+01
 20
1.19478657E+02
  0
VERTEX
  8
0
 62
4
 10
-3.12500000E+01
 20
1.19465915E+02
  0
VERTEX
  8
0
 62
4
 10
-3.09536705E+01
 20
1.19478657E+02
  0
VERTEX
  8
0
 62
4
 10
-3.06595962E+01
 20
1.19516784E+02
  0
VERTEX
  8
0
 62
4
 10
-3.03700152E+01
 20
1.19580007E+02
  0
VERTEX
  8
0
 62
4
 10
-3.00871315E+01
 20
1.19667845E+02
  0
VERTEX
  8
0
 62
4
 10
-2.98130979E+01
 20
1.19779629E+02
  0
VERTEX
  8
0
 62
4
 10
-2.95500000E+01
 20
1.19914509E+02
  0
VERTEX
  8
0
 62
4
 10
-2.92998401E+01
 20
1.20071457E+02
  0
VERTEX
  8
0
 62
4
 10
-2.90645221E+01
 20
1.20249280E+02
  0
VERTEX
  8
0
 62
4
 10
-2.88458369E+01
 20
1.20446623E+02
  0
VERTEX
  8
0
 62
4
 10
-2.86454489E+01
 20
1.20661986E+02
  0
VERTEX
  8
0
 62
4
 10
-2.84648830E+01
 20
1.20893729E+02
  0
VERTEX
  8
0
 62
4
 10
-2.83055136E+01
 20
1.21140089E+02
  0
VERTEX
  8
0
 62
4
 10
-2.81685535E+01
 20
1.21399190E+02
  0
VERTEX
  8
0
 62
4
 10
-2.80550451E+01
 20
1.21669060E+02
  0
VERTEX
  8
0
 62
4
 10
-2.79658522E+01
 20
1.21947646E+02
  0
VERTEX
  8
0
 62
4
 10
-2.79016536E+01
 20
1.22232828E+02
  0
VERTEX
  8
0
 62
4
 10
-2.78629380E+01
 20
1.22522434E+02
  0
VERTEX
  8
0
 62
4
 10
-2.78500000E+01
 20
1.22814262E+02
  0
VERTEX
  8
0
 62
4
 10
-2.78629380E+01
 20
1.23106090E+02
  0
VERTEX
  8
0
 62
4
 10
-2.79016536E+01
 20
1.23395696E+02
  0
VERTEX
  8
0
 62
4
 10
-2.79658522E+01
 20
1.23680878E+02
  0
VERTEX
  8
0
 62
4
 10
-2.80550451E+01
 20
1.23959464E+02
  0
VERTEX
  8
0
 62
4
 10
-2.81685535E+01
 20
1.24229334E+02
  0
VERTEX
  8
0
 62
4
 10
-2.83055136E+01
 20
1.24488435E+02
  0
VERTEX
  8
0
 62
4
 10
-2.84648830E+01
 20
1.24734795E+02
  0
VERTEX
  8
0
 62
4
 10
-2.86454489E+01
 20
1.24966538E+02
  0
VERTEX
  8
0
 62
4
 10
-2.88458369E+01
 20
1.25181901E+02
  0
VERTEX
  8
0
 62
4
 10
-2.90645221E+01
 20
1.25379244E+02
  0
VERTEX
  8
0
 62
4
 10
-2.92998401E+01
 20
1.25557067E+02
  0
VERTEX
  8
0
 62
4
 10
-2.95500000E+01
 20
1.25714015E+02
  0
VERTEX
  8
0
 62
4
 10
-2.98130979E+01
 20
1.25848895E+02
  0
VERTEX
  8
0
 62
4
 10
-3.00871315E+01
 20
1.25960679E+02
  0
VERTEX
  8
0
 62
4
 10
-3.03700152E+01
 20
1.26048517E+02
  0
VERTEX
  8
0
 62
4
 10
-3.06595962E+01
 20
1.26111740E+02
  0
VERTEX
  8
0
 62
4
 10
-3.09536705E+01
 20
1.26149867E+02
  0
VERTEX
  8
0
 62
4
 10
-3.12500000E+01
 20
1.26162609E+02
  0
VERTEX
  8
0
 62
4
 10
-3.15463295E+01
 20
1.26149867E+02
  0
VERTEX
  8
0
 62
4
 10
-3.18404038E+01
 20
1.26111740E+02
  0
VERTEX
  8
0
 62
4
 10
-3.21299848E+01
 20
1.26048517E+02
  0
VERTEX
  8
0
 62
4
 10
-3.24128685E+01
 20
1.25960679E+02
  0
VERTEX
  8
0
 62
4
 10
-3.26869021E+01
 20
1.25848895E+02
  0
VERTEX
  8
0
 62
4
 10
-3.29500000E+01
 20
1.25714015E+02
  0
VERTEX
  8
0
 62
4
 10
-3.32001599E+01
 20
1.25557067E+02
  0
VERTEX
  8
0
 62
4
 10
-3.34354779E+01
 20
1.25379244E+02
  0
VERTEX
  8
0
 62
4
 10
-3.36541631E+01
 20
1.25181901E+02
  0
VERTEX
  8
0
 62
4
 10
-3.38545511E+01
 20
1.24966538E+02
  0
VERTEX
  8
0
 62
4
 10
-3.40351170E+01
 20
1.24734795E+02
  0
VERTEX
  8
0
 62
4
 10
-3.41944864E+01
 20
1.24488435E+02
  0
VERTEX
  8
0
 62
4
 10
-3.43314465E+01
 20
1.24229334E+02
  0
VERTEX
  8
0
 62
4
 10
-3.44449549E+01
 20
1.23959464E+02
  0
VERTEX
  8
0
 62
4
 10
-3.45341478E+01
 20
1.23680878E+02
  0
VERTEX
  8
0
 62
4
 10
-3.45983464E+01
 20
1.23395696E+02
  0
VERTEX
  8
0
 62
4
 10
-3.46370620E+01
 20
1.23106090E+02
  0
VERTEX
  8
0
 62
4
 10
-3.46500000E+01
 20
1.22814262E+02
  0
SEQEND
  8
0
  0
LINE
  8
0
 62
4
 10
-2.78500000E+01
 20
1.22617900E+02
 11
-2.78500000E+01
 21
1.22814262E+02
  0
ARC
  8
0
 62
4
 10
9.99314687E+01
 20
-1.01935003E+01
 40
1.86971513E+02
 50
1.33801123E+02
 51
1.35321779E+02
  0
ARC
  8
0
 62
4
 10
-1.62431469E+02
 20
-1.01935003E+01
 40
1.86971513E+02
 50
4.46782203E+01
 51
4.61988768E+01
  0
LINE
  8
0
 62
4
 10
-5.37500000E+01
 20
1.12103771E+02
 11
-5.37500000E+01
 21
1.10369434E+02
  0
LINE
  8
0
 62
4
 10
-5.37500000E+01
 20
1.16176212E+02
 11
-5.37500000E+01
 21
1.12103771E+02
  0
LINE
  8
0
 62
4
 10
-5.37500000E+01
 20
1.16633887E+02
 11
-4.20871230E+01
 21
1.16633887E+02
  0
LINE
  8
0
 62
4
 10
-5.37500000E+01
 20
1.12236981E+02
 11
-3.02500000E+01
 21
1.12236981E+02
  0
LINE
  8
0
 62
4
 10
-5.37500000E+01
 20
1.16176212E+02
 11
-4.16872448E+01
 21
1.16176212E+02
  0
LINE
  8
0
 62
4
 10
-5.52500000E+01
 20
1.12544453E+02
 11
-5.37500000E+01
 21
1.11542389E+02
  0
LINE
  8
0
 62
4
 10
-5.52500000E+01
 20
1.12937766E+02
 11
-5.37500000E+01
 21
1.12236981E+02
  0
LINE
  8
0
 62
4
 10
-5.52500000E+01
 20
1.15168356E+02
 11
-5.52500000E+01
 21
1.12544453E+02
  0
LINE
  8
0
 62
4
 10
-5.37500000E+01
 20
1.16176212E+02
 11
-5.52500000E+01
 21
1.15168356E+02
  0
LINE
  8
0
 62
4
 10
-5.37500000E+01
 20
1.12103771E+02
 11
-2.37500000E+01
 21
1.12103771E+02
  0
LINE
  8
0
 62
4
 10
-5.37500000E+01
 20
1.11118963E+02
 11
-2.37500000E+01
 21
1.11118963E+02
  0
LINE
  8
0
 62
4
 10
-5.37500000E+01
 20
1.26875887E+02
 11
-2.37500000E+01
 21
1.26875887E+02
  0
POLYLINE
  8
0
 62
4
 66
1
  0
VERTEX
  8
0
 62
4
 10
1.07500000E+01
 20
1.02699609E+02
  0
VERTEX
  8
0
 62
4
 10
1.07419486E+01
 20
1.02876164E+02
  0
VERTEX
  8
0
 62
4
 10
1.07178592E+01
 20
1.03051297E+02
  0
VERTEX
  8
0
 62
4
 10
1.06779257E+01
 20
1.03223599E+02
  0
VERTEX
  8
0
 62
4
 10
1.06224697E+01
 20
1.03391682E+02
  0
VERTEX
  8
0
 62
4
 10
1.05519377E+01
 20
1.03554193E+02
  0
VERTEX
  8
0
 62
4
 10
1.04668976E+01
 20
1.03709823E+02
  0
VERTEX
  8
0
 62
4
 10
1.03680340E+01
 20
1.03857320E+02
  0
VERTEX
  8
0
 62
4
 10
1.02561429E+01
 20
1.03995495E+02
  0
VERTEX
  8
0
 62
4
 10
1.01321253E+01
 20
1.04123237E+02
  0
VERTEX
  8
0
 62
4
 10
9.99697962E+00
 20
1.04239516E+02
  0
VERTEX
  8
0
 62
4
 10
9.85179398E+00
 20
1.04343397E+02
  0
VERTEX
  8
0
 62
4
 10
9.69773734E+00
 20
1.04434044E+02
  0
VERTEX
  8
0
 62
4
 10
9.53605008E+00
 20
1.04510725E+02
  0
VERTEX
  8
0
 62
4
 10
9.36803401E+00
 20
1.04572825E+02
  0
VERTEX
  8
0
 62
4
 10
9.19504188E+00
 20
1.04619842E+02
  0
VERTEX
  8
0
 62
4
 10
9.01846655E+00
 20
1.04651399E+02
  0
VERTEX
  8
0
 62
4
 10
8.83972968E+00
 20
1.04667241E+02
  0
VERTEX
  8
0
 62
4
 10
8.66027036E+00
 20
1.04667241E+02
  0
VERTEX
  8
0
 62
4
 10
8.48153349E+00
 20
1.04651399E+02
  0
VERTEX
  8
0
 62
4
 10
8.30495815E+00
 20
1.04619842E+02
  0
VERTEX
  8
0
 62
4
 10
8.13196603E+00
 20
1.04572825E+02
  0
VERTEX
  8
0
 62
4
 10
7.96394995E+00
 20
1.04510725E+02
  0
VERTEX
  8
0
 62
4
 10
7.80226269E+00
 20
1.04434044E+02
  0
VERTEX
  8
0
 62
4
 10
7.64820605E+00
 20
1.04343397E+02
  0
VERTEX
  8
0
 62
4
 10
7.50302041E+00
 20
1.04239516E+02
  0
VERTEX
  8
0
 62
4
 10
7.36787472E+00
 20
1.04123237E+02
  0
VERTEX
  8
0
 62
4
 10
7.24385708E+00
 20
1.03995495E+02
  0
VERTEX
  8
0
 62
4
 10
7.13196602E+00
 20
1.03857320E+02
  0
VERTEX
  8
0
 62
4
 10
7.03310242E+00
 20
1.03709823E+02
  0
VERTEX
  8
0
 62
4
 10
6.94806227E+00
 20
1.03554193E+02
  0
VERTEX
  8
0
 62
4
 10
6.87753027E+00
 20
1.03391682E+02
  0
VERTEX
  8
0
 62
4
 10
6.82207428E+00
 20
1.03223599E+02
  0
VERTEX
  8
0
 62
4
 10
6.78214083E+00
 20
1.03051297E+02
  0
VERTEX
  8
0
 62
4
 10
6.75805141E+00
 20
1.02876164E+02
  0
VERTEX
  8
0
 62
4
 10
6.75000000E+00
 20
1.02699609E+02
  0
SEQEND
  8
0
  0
POLYLINE
  8
0
 62
4
 66
1
  0
VERTEX
  8
0
 62
4
 10
6.75000000E+00
 20
1.02163970E+02
  0
VERTEX
  8
0
 62
4
 10
6.75761060E+00
 20
1.01992307E+02
  0
VERTEX
  8
0
 62
4
 10
6.78038449E+00
 20
1.01821950E+02
  0
VERTEX
  8
0
 62
4
 10
6.81814835E+00
 20
1.01654196E+02
  0
VERTEX
  8
0
 62
4
 10
6.87061476E+00
 20
1.01490322E+02
  0
VERTEX
  8
0
 62
4
 10
6.93738442E+00
 20
1.01331575E+02
  0
VERTEX
  8
0
 62
4
 10
7.01794919E+00
 20
1.01179162E+02
  0
VERTEX
  8
0
 62
4
 10
7.11169591E+00
 20
1.01034245E+02
  0
VERTEX
  8
0
 62
4
 10
7.21791111E+00
 20
1.00897926E+02
  0
VERTEX
  8
0
 62
4
 10
7.33578643E+00
 20
1.00771242E+02
  0
VERTEX
  8
0
 62
4
 10
7.46442478E+00
 20
1.00655157E+02
  0
VERTEX
  8
0
 62
4
 10
7.60284712E+00
 20
1.00550555E+02
  0
VERTEX
  8
0
 62
4
 10
7.74999999E+00
 20
1.00458233E+02
  0
VERTEX
  8
0
 62
4
 10
7.90476347E+00
 20
1.00378892E+02
  0
VERTEX
  8
0
 62
4
 10
8.06595971E+00
 20
1.00313137E+02
  0
VERTEX
  8
0
 62
4
 10
8.23236190E+00
 20
1.00261468E+02
  0
VERTEX
  8
0
 62
4
 10
8.40270364E+00
 20
1.00224277E+02
  0
VERTEX
  8
0
 62
4
 10
8.57568851E+00
 20
1.00201849E+02
  0
VERTEX
  8
0
 62
4
 10
8.74999999E+00
 20
1.00194354E+02
  0
VERTEX
  8
0
 62
4
 10
8.92431148E+00
 20
1.00201849E+02
  0
VERTEX
  8
0
 62
4
 10
9.09729635E+00
 20
1.00224277E+02
  0
VERTEX
  8
0
 62
4
 10
9.26763808E+00
 20
1.00261468E+02
  0
VERTEX
  8
0
 62
4
 10
9.43404028E+00
 20
1.00313137E+02
  0
VERTEX
  8
0
 62
4
 10
9.59523652E+00
 20
1.00378892E+02
  0
VERTEX
  8
0
 62
4
 10
9.75000000E+00
 20
1.00458233E+02
  0
VERTEX
  8
0
 62
4
 10
9.89715287E+00
 20
1.00550555E+02
  0
VERTEX
  8
0
 62
4
 10
1.00355752E+01
 20
1.00655157E+02
  0
VERTEX
  8
0
 62
4
 10
1.01642136E+01
 20
1.00771242E+02
  0
VERTEX
  8
0
 62
4
 10
1.02820889E+01
 20
1.00897926E+02
  0
VERTEX
  8
0
 62
4
 10
1.03883041E+01
 20
1.01034245E+02
  0
VERTEX
  8
0
 62
4
 10
1.04820508E+01
 20
1.01179162E+02
  0
VERTEX
  8
0
 62
4
 10
1.05626156E+01
 20
1.01331575E+02
  0
VERTEX
  8
0
 62
4
 10
1.06293852E+01
 20
1.01490322E+02
  0
VERTEX
  8
0
 62
4
 10
1.06818517E+01
 20
1.01654196E+02
  0
VERTEX
  8
0
 62
4
 10
1.07196155E+01
 20
1.01821950E+02
  0
VERTEX
  8
0
 62
4
 10
1.07423894E+01
 20
1.01992307E+02
  0
VERTEX
  8
0
 62
4
 10
1.07500000E+01
 20
1.02163970E+02
  0
VERTEX
  8
0
 62
4
 10
1.07423894E+01
 20
1.02335633E+02
  0
VERTEX
  8
0
 62
4
 10
1.07196155E+01
 20
1.02505990E+02
  0
VERTEX
  8
0
 62
4
 10
1.06818517E+01
 20
1.02673744E+02
  0
VERTEX
  8
0
 62
4
 10
1.06293852E+01
 20
1.02837618E+02
  0
VERTEX
  8
0
 62
4
 10
1.05626156E+01
 20
1.02996365E+02
  0
VERTEX
  8
0
 62
4
 10
1.04820508E+01
 20
1.03148778E+02
  0
VERTEX
  8
0
 62
4
 10
1.03883041E+01
 20
1.03293695E+02
  0
VERTEX
  8
0
 62
4
 10
1.02820889E+01
 20
1.03430014E+02
  0
VERTEX
  8
0
 62
4
 10
1.01642136E+01
 20
1.03556698E+02
  0
VERTEX
  8
0
 62
4
 10
1.00355752E+01
 20
1.03672783E+02
  0
VERTEX
  8
0
 62
4
 10
9.89715288E+00
 20
1.03777385E+02
  0
VERTEX
  8
0
 62
4
 10
9.75000000E+00
 20
1.03869707E+02
  0
VERTEX
  8
0
 62
4
 10
9.59523653E+00
 20
1.03949048E+02
  0
VERTEX
  8
0
 62
4
 10
9.43404029E+00
 20
1.04014803E+02
  0
VERTEX
  8
0
 62
4
 10
9.26763809E+00
 20
1.04066472E+02
  0
VERTEX
  8
0
 62
4
 10
9.09729636E+00
 20
1.04103663E+02
  0
VERTEX
  8
0
 62
4
 10
8.92431149E+00
 20
1.04126091E+02
  0
VERTEX
  8
0
 62
4
 10
8.75000000E+00
 20
1.04133586E+02
  0
VERTEX
  8
0
 62
4
 10
8.57568852E+00
 20
1.04126091E+02
  0
VERTEX
  8
0
 62
4
 10
8.40270365E+00
 20
1.04103663E+02
  0
VERTEX
  8
0
 62
4
 10
8.23236191E+00
 20
1.04066472E+02
  0
VERTEX
  8
0
 62
4
 10
8.06595972E+00
 20
1.04014803E+02
  0
VERTEX
  8
0
 62
4
 10
7.90476348E+00
 20
1.03949048E+02
  0
VERTEX
  8
0
 62
4
 10
7.75000000E+00
 20
1.03869707E+02
  0
VERTEX
  8
0
 62
4
 10
7.60284713E+00
 20
1.03777385E+02
  0
VERTEX
  8
0
 62
4
 10
7.46442478E+00
 20
1.03672783E+02
  0
VERTEX
  8
0
 62
4
 10
7.33578644E+00
 20
1.03556698E+02
  0
VERTEX
  8
0
 62
4
 10
7.21791112E+00
 20
1.03430014E+02
  0
VERTEX
  8
0
 62
4
 10
7.11169591E+00
 20
1.03293695E+02
  0
VERTEX
  8
0
 62
4
 10
7.01794919E+00
 20
1.03148778E+02
  0
VERTEX
  8
0
 62
4
 10
6.93738443E+00
 20
1.02996365E+02
  0
VERTEX
  8
0
 62
4
 10
6.87061476E+00
 20
1.02837618E+02
  0
VERTEX
  8
0
 62
4
 10
6.81814835E+00
 20
1.02673744E+02
  0
VERTEX
  8
0
 62
4
 10
6.78038449E+00
 20
1.02505990E+02
  0
VERTEX
  8
0
 62
4
 10
6.75761060E+00
 20
1.02335633E+02
  0
VERTEX
  8
0
 62
4
 10
6.75000000E+00
 20
1.02163970E+02
  0
SEQEND
  8
0
  0
LINE
  8
0
 62
4
 10
6.75000000E+00
 20
1.02163970E+02
 11
6.75000000E+00
 21
1.02699609E+02
  0
LINE
  8
0
 62
4
 10
1.07500000E+01
 20
1.02163970E+02
 11
1.07500000E+01
 21
1.02699609E+02
  0
POLYLINE
  8
0
 62
6
 66
1
  0
VERTEX
  8
0
 62
6
 10
1.02500000E+01
 20
1.02163970E+02
  0
VERTEX
  8
0
 62
6
 10
1.02442920E+01
 20
1.02292717E+02
  0
VERTEX
  8
0
 62
6
 10
1.02272116E+01
 20
1.02420485E+02
  0
VERTEX
  8
0
 62
6
 10
1.01988887E+01
 20
1.02546301E+02
  0
VERTEX
  8
0
 62
6
 10
1.01595389E+01
 20
1.02669206E+02
  0
VERTEX
  8
0
 62
6
 10
1.01094617E+01
 20
1.02788267E+02
  0
VERTEX
  8
0
 62
6
 10
1.00490381E+01
 20
1.02902576E+02
  0
VERTEX
  8
0
 62
6
 10
9.97872807E+00
 20
1.03011264E+02
  0
VERTEX
  8
0
 62
6
 10
9.89906666E+00
 20
1.03113503E+02
  0
VERTEX
  8
0
 62
6
 10
9.81066017E+00
 20
1.03208516E+02
  0
VERTEX
  8
0
 62
6
 10
9.71418141E+00
 20
1.03295580E+02
  0
VERTEX
  8
0
 62
6
 10
9.61036465E+00
 20
1.03374031E+02
  0
VERTEX
  8
0
 62
6
 10
9.50000000E+00
 20
1.03443273E+02
  0
VERTEX
  8
0
 62
6
 10
9.38392739E+00
 20
1.03502778E+02
  0
VERTEX
  8
0
 62
6
 10
9.26303021E+00
 20
1.03552095E+02
  0
VERTEX
  8
0
 62
6
 10
9.13822857E+00
 20
1.03590847E+02
  0
VERTEX
  8
0
 62
6
 10
9.01047227E+00
 20
1.03618739E+02
  0
VERTEX
  8
0
 62
6
 10
8.88073361E+00
 20
1.03635560E+02
  0
VERTEX
  8
0
 62
6
 10
8.75000000E+00
 20
1.03641182E+02
  0
VERTEX
  8
0
 62
6
 10
8.61926638E+00
 20
1.03635560E+02
  0
VERTEX
  8
0
 62
6
 10
8.48952773E+00
 20
1.03618739E+02
  0
VERTEX
  8
0
 62
6
 10
8.36177143E+00
 20
1.03590847E+02
  0
VERTEX
  8
0
 62
6
 10
8.23696978E+00
 20
1.03552095E+02
  0
VERTEX
  8
0
 62
6
 10
8.11607261E+00
 20
1.03502778E+02
  0
VERTEX
  8
0
 62
6
 10
8.00000000E+00
 20
1.03443273E+02
  0
VERTEX
  8
0
 62
6
 10
7.88963534E+00
 20
1.03374031E+02
  0
VERTEX
  8
0
 62
6
 10
7.78581858E+00
 20
1.03295580E+02
  0
VERTEX
  8
0
 62
6
 10
7.68933983E+00
 20
1.03208516E+02
  0
VERTEX
  8
0
 62
6
 10
7.60093333E+00
 20
1.03113503E+02
  0
VERTEX
  8
0
 62
6
 10
7.52127193E+00
 20
1.03011264E+02
  0
VERTEX
  8
0
 62
6
 10
7.45096189E+00
 20
1.02902576E+02
  0
VERTEX
  8
0
 62
6
 10
7.39053832E+00
 20
1.02788267E+02
  0
VERTEX
  8
0
 62
6
 10
7.34046107E+00
 20
1.02669206E+02
  0
VERTEX
  8
0
 62
6
 10
7.30111126E+00
 20
1.02546301E+02
  0
VERTEX
  8
0
 62
6
 10
7.27278837E+00
 20
1.02420485E+02
  0
VERTEX
  8
0
 62
6
 10
7.25570795E+00
 20
1.02292717E+02
  0
VERTEX
  8
0
 62
6
 10
7.25000000E+00
 20
1.02163970E+02
  0
VERTEX
  8
0
 62
6
 10
7.25570795E+00
 20
1.02035223E+02
  0
VERTEX
  8
0
 62
6
 10
7.27278837E+00
 20
1.01907455E+02
  0
VERTEX
  8
0
 62
6
 10
7.30111126E+00
 20
1.01781639E+02
  0
VERTEX
  8
0
 62
6
 10
7.34046107E+00
 20
1.01658734E+02
  0
VERTEX
  8
0
 62
6
 10
7.39053832E+00
 20
1.01539673E+02
  0
VERTEX
  8
0
 62
6
 10
7.45096190E+00
 20
1.01425364E+02
  0
VERTEX
  8
0
 62
6
 10
7.52127194E+00
 20
1.01316676E+02
  0
VERTEX
  8
0
 62
6
 10
7.60093334E+00
 20
1.01214437E+02
  0
VERTEX
  8
0
 62
6
 10
7.68933983E+00
 20
1.01119424E+02
  0
VERTEX
  8
0
 62
6
 10
7.78581859E+00
 20
1.01032360E+02
  0
VERTEX
  8
0
 62
6
 10
7.88963535E+00
 20
1.00953909E+02
  0
VERTEX
  8
0
 62
6
 10
8.00000000E+00
 20
1.00884667E+02
  0
VERTEX
  8
0
 62
6
 10
8.11607261E+00
 20
1.00825162E+02
  0
VERTEX
  8
0
 62
6
 10
8.23696979E+00
 20
1.00775845E+02
  0
VERTEX
  8
0
 62
6
 10
8.36177144E+00
 20
1.00737093E+02
  0
VERTEX
  8
0
 62
6
 10
8.48952774E+00
 20
1.00709201E+02
  0
VERTEX
  8
0
 62
6
 10
8.61926639E+00
 20
1.00692380E+02
  0
VERTEX
  8
0
 62
6
 10
8.75000000E+00
 20
1.00686758E+02
  0
VERTEX
  8
0
 62
6
 10
8.88073362E+00
 20
1.00692380E+02
  0
VERTEX
  8
0
 62
6
 10
9.01047227E+00
 20
1.00709201E+02
  0
VERTEX
  8
0
 62
6
 10
9.13822857E+00
 20
1.00737093E+02
  0
VERTEX
  8
0
 62
6
 10
9.26303022E+00
 20
1.00775845E+02
  0
VERTEX
  8
0
 62
6
 10
9.38392740E+00
 20
1.00825162E+02
  0
VERTEX
  8
0
 62
6
 10
9.50000000E+00
 20
1.00884667E+02
  0
VERTEX
  8
0
 62
6
 10
9.61036466E+00
 20
1.00953909E+02
  0
VERTEX
  8
0
 62
6
 10
9.71418142E+00
 20
1.01032360E+02
  0
VERTEX
  8
0
 62
6
 10
9.81066017E+00
 20
1.01119424E+02
  0
VERTEX
  8
0
 62
6
 10
9.89906667E+00
 20
1.01214437E+02
  0
VERTEX
  8
0
 62
6
 10
9.97872807E+00
 20
1.01316676E+02
  0
VERTEX
  8
0
 62
6
 10
1.00490381E+01
 20
1.01425364E+02
  0
VERTEX
  8
0
 62
6
 10
1.01094617E+01
 20
1.01539673E+02
  0
VERTEX
  8
0
 62
6
 10
1.01595389E+01
 20
1.01658734E+02
  0
VERTEX
  8
0
 62
6
 10
1.01988887E+01
 20
1.01781640E+02
  0
VERTEX
  8
0
 62
6
 10
1.02272116E+01
 20
1.01907455E+02
  0
VERTEX
  8
0
 62
6
 10
1.02442920E+01
 20
1.02035223E+02
  0
VERTEX
  8
0
 62
6
 10
1.02500000E+01
 20
1.02163970E+02
  0
SEQEND
  8
0
  0
LINE
  8
0
 62
4
 10
7.75000000E+00
 20
1.02735158E+02
 11
7.75000000E+00
 21
1.01592781E+02
  0
LINE
  8
0
 62
4
 10
9.75000000E+00
 20
1.02735158E+02
 11
9.75000000E+00
 21
1.01592781E+02
  0
LINE
  8
0
 62
4
 10
8.75000000E+00
 20
1.03296499E+02
 11
7.75000000E+00
 21
1.02735158E+02
  0
LINE
  8
0
 62
4
 10
8.75000000E+00
 20
1.03296499E+02
 11
9.75000000E+00
 21
1.02735158E+02
  0
LINE
  8
0
 62
4
 10
9.75000000E+00
 20
1.01592781E+02
 11
8.75000000E+00
 21
1.01021593E+02
  0
LINE
  8
0
 62
4
 10
7.75000000E+00
 20
1.01592781E+02
 11
8.75000000E+00
 21
1.01021593E+02
  0
LINE
  8
0
 62
4
 10
1.57500000E+01
 20
1.01592781E+02
 11
1.67500000E+01
 21
1.01021593E+02
  0
LINE
  8
0
 62
4
 10
1.77500000E+01
 20
1.01592781E+02
 11
1.67500000E+01
 21
1.01021593E+02
  0
LINE
  8
0
 62
4
 10
1.67500000E+01
 20
1.03296499E+02
 11
1.77500000E+01
 21
1.02735158E+02
  0
LINE
  8
0
 62
4
 10
1.67500000E+01
 20
1.03296499E+02
 11
1.57500000E+01
 21
1.02735158E+02
  0
LINE
  8
0
 62
4
 10
1.77500000E+01
 20
1.02735158E+02
 11
1.77500000E+01
 21
1.01592781E+02
  0
LINE
  8
0
 62
4
 10
1.57500000E+01
 20
1.02735158E+02
 11
1.57500000E+01
 21
1.01592781E+02
  0
POLYLINE
  8
0
 62
6
 66
1
  0
VERTEX
  8
0
 62
6
 10
1.82500000E+01
 20
1.02163970E+02
  0
VERTEX
  8
0
 62
6
 10
1.82442920E+01
 20
1.02292717E+02
  0
VERTEX
  8
0
 62
6
 10
1.82272116E+01
 20
1.02420485E+02
  0
VERTEX
  8
0
 62
6
 10
1.81988887E+01
 20
1.02546301E+02
  0
VERTEX
  8
0
 62
6
 10
1.81595389E+01
 20
1.02669206E+02
  0
VERTEX
  8
0
 62
6
 10
1.81094617E+01
 20
1.02788267E+02
  0
VERTEX
  8
0
 62
6
 10
1.80490381E+01
 20
1.02902576E+02
  0
VERTEX
  8
0
 62
6
 10
1.79787281E+01
 20
1.03011264E+02
  0
VERTEX
  8
0
 62
6
 10
1.78990667E+01
 20
1.03113503E+02
  0
VERTEX
  8
0
 62
6
 10
1.78106602E+01
 20
1.03208516E+02
  0
VERTEX
  8
0
 62
6
 10
1.77141814E+01
 20
1.03295580E+02
  0
VERTEX
  8
0
 62
6
 10
1.76103647E+01
 20
1.03374031E+02
  0
VERTEX
  8
0
 62
6
 10
1.75000000E+01
 20
1.03443273E+02
  0
VERTEX
  8
0
 62
6
 10
1.73839274E+01
 20
1.03502778E+02
  0
VERTEX
  8
0
 62
6
 10
1.72630302E+01
 20
1.03552095E+02
  0
VERTEX
  8
0
 62
6
 10
1.71382286E+01
 20
1.03590847E+02
  0
VERTEX
  8
0
 62
6
 10
1.70104723E+01
 20
1.03618739E+02
  0
VERTEX
  8
0
 62
6
 10
1.68807336E+01
 20
1.03635560E+02
  0
VERTEX
  8
0
 62
6
 10
1.67500000E+01
 20
1.03641182E+02
  0
VERTEX
  8
0
 62
6
 10
1.66192664E+01
 20
1.03635560E+02
  0
VERTEX
  8
0
 62
6
 10
1.64895277E+01
 20
1.03618739E+02
  0
VERTEX
  8
0
 62
6
 10
1.63617714E+01
 20
1.03590847E+02
  0
VERTEX
  8
0
 62
6
 10
1.62369698E+01
 20
1.03552095E+02
  0
VERTEX
  8
0
 62
6
 10
1.61160726E+01
 20
1.03502778E+02
  0
VERTEX
  8
0
 62
6
 10
1.60000000E+01
 20
1.03443273E+02
  0
VERTEX
  8
0
 62
6
 10
1.58896353E+01
 20
1.03374031E+02
  0
VERTEX
  8
0
 62
6
 10
1.57858186E+01
 20
1.03295580E+02
  0
VERTEX
  8
0
 62
6
 10
1.56893398E+01
 20
1.03208516E+02
  0
VERTEX
  8
0
 62
6
 10
1.56009333E+01
 20
1.03113503E+02
  0
VERTEX
  8
0
 62
6
 10
1.55212719E+01
 20
1.03011264E+02
  0
VERTEX
  8
0
 62
6
 10
1.54509619E+01
 20
1.02902576E+02
  0
VERTEX
  8
0
 62
6
 10
1.53905383E+01
 20
1.02788267E+02
  0
VERTEX
  8
0
 62
6
 10
1.53404611E+01
 20
1.02669206E+02
  0
VERTEX
  8
0
 62
6
 10
1.53011113E+01
 20
1.02546301E+02
  0
VERTEX
  8
0
 62
6
 10
1.52727884E+01
 20
1.02420485E+02
  0
VERTEX
  8
0
 62
6
 10
1.52557080E+01
 20
1.02292717E+02
  0
VERTEX
  8
0
 62
6
 10
1.52500000E+01
 20
1.02163970E+02
  0
VERTEX
  8
0
 62
6
 10
1.52557080E+01
 20
1.02035223E+02
  0
VERTEX
  8
0
 62
6
 10
1.52727884E+01
 20
1.01907455E+02
  0
VERTEX
  8
0
 62
6
 10
1.53011113E+01
 20
1.01781639E+02
  0
VERTEX
  8
0
 62
6
 10
1.53404611E+01
 20
1.01658734E+02
  0
VERTEX
  8
0
 62
6
 10
1.53905383E+01
 20
1.01539673E+02
  0
VERTEX
  8
0
 62
6
 10
1.54509619E+01
 20
1.01425364E+02
  0
VERTEX
  8
0
 62
6
 10
1.55212719E+01
 20
1.01316676E+02
  0
VERTEX
  8
0
 62
6
 10
1.56009333E+01
 20
1.01214437E+02
  0
VERTEX
  8
0
 62
6
 10
1.56893398E+01
 20
1.01119424E+02
  0
VERTEX
  8
0
 62
6
 10
1.57858186E+01
 20
1.01032360E+02
  0
VERTEX
  8
0
 62
6
 10
1.58896353E+01
 20
1.00953909E+02
  0
VERTEX
  8
0
 62
6
 10
1.60000000E+01
 20
1.00884667E+02
  0
VERTEX
  8
0
 62
6
 10
1.61160726E+01
 20
1.00825162E+02
  0
VERTEX
  8
0
 62
6
 10
1.62369698E+01
 20
1.00775845E+02
  0
VERTEX
  8
0
 62
6
 10
1.63617714E+01
 20
1.00737093E+02
  0
VERTEX
  8
0
 62
6
 10
1.64895277E+01
 20
1.00709201E+02
  0
VERTEX
  8
0
 62
6
 10
1.66192664E+01
 20
1.00692380E+02
  0
VERTEX
  8
0
 62
6
 10
1.67500000E+01
 20
1.00686758E+02
  0
VERTEX
  8
0
 62
6
 10
1.68807336E+01
 20
1.00692380E+02
  0
VERTEX
  8
0
 62
6
 10
1.70104723E+01
 20
1.00709201E+02
  0
VERTEX
  8
0
 62
6
 10
1.71382286E+01
 20
1.00737093E+02
  0
VERTEX
  8
0
 62
6
 10
1.72630302E+01
 20
1.00775845E+02
  0
VERTEX
  8
0
 62
6
 10
1.73839274E+01
 20
1.00825162E+02
  0
VERTEX
  8
0
 62
6
 10
1.75000000E+01
 20
1.00884667E+02
  0
VERTEX
  8
0
 62
6
 10
1.76103647E+01
 20
1.00953909E+02
  0
VERTEX
  8
0
 62
6
 10
1.77141814E+01
 20
1.01032360E+02
  0
VERTEX
  8
0
 62
6
 10
1.78106602E+01
 20
1.01119424E+02
  0
VERTEX
  8
0
 62
6
 10
1.78990667E+01
 20
1.01214437E+02
  0
VERTEX
  8
0
 62
6
 10
1.79787281E+01
 20
1.01316676E+02
  0
VERTEX
  8
0
 62
6
 10
1.80490381E+01
 20
1.01425364E+02
  0
VERTEX
  8
0
 62
6
 10
1.81094617E+01
 20
1.01539673E+02
  0
VERTEX
  8
0
 62
6
 10
1.81595389E+01
 20
1.01658734E+02
  0
VERTEX
  8
0
 62
6
 10
1.81988887E+01
 20
1.01781640E+02
  0
VERTEX
  8
0
 62
6
 10
1.82272116E+01
 20
1.01907455E+02
  0
VERTEX
  8
0
 62
6
 10
1.82442920E+01
 20
1.02035223E+02
  0
VERTEX
  8
0
 62
6
 10
1.82500000E+01
 20
1.02163970E+02
  0
SEQEND
  8
0
  0
LINE
  8
0
 62
4
 10
1.87500000E+01
 20
1.02163970E+02
 11
1.87500000E+01
 21
1.02699609E+02
  0
LINE
  8
0
 62
4
 10
1.47500000E+01
 20
1.02163970E+02
 11
1.47500000E+01
 21
1.02699609E+02
  0
POLYLINE
  8
0
 62
4
 66
1
  0
VERTEX
  8
0
 62
4
 10
1.47500000E+01
 20
1.02163970E+02
  0
VERTEX
  8
0
 62
4
 10
1.47576106E+01
 20
1.01992307E+02
  0
VERTEX
  8
0
 62
4
 10
1.47803845E+01
 20
1.01821950E+02
  0
VERTEX
  8
0
 62
4
 10
1.48181483E+01
 20
1.01654196E+02
  0
VERTEX
  8
0
 62
4
 10
1.48706148E+01
 20
1.01490322E+02
  0
VERTEX
  8
0
 62
4
 10
1.49373844E+01
 20
1.01331575E+02
  0
VERTEX
  8
0
 62
4
 10
1.50179492E+01
 20
1.01179162E+02
  0
VERTEX
  8
0
 62
4
 10
1.51116959E+01
 20
1.01034245E+02
  0
VERTEX
  8
0
 62
4
 10
1.52179111E+01
 20
1.00897926E+02
  0
VERTEX
  8
0
 62
4
 10
1.53357864E+01
 20
1.00771242E+02
  0
VERTEX
  8
0
 62
4
 10
1.54644248E+01
 20
1.00655157E+02
  0
VERTEX
  8
0
 62
4
 10
1.56028471E+01
 20
1.00550555E+02
  0
VERTEX
  8
0
 62
4
 10
1.57500000E+01
 20
1.00458233E+02
  0
VERTEX
  8
0
 62
4
 10
1.59047635E+01
 20
1.00378892E+02
  0
VERTEX
  8
0
 62
4
 10
1.60659597E+01
 20
1.00313137E+02
  0
VERTEX
  8
0
 62
4
 10
1.62323619E+01
 20
1.00261468E+02
  0
VERTEX
  8
0
 62
4
 10
1.64027036E+01
 20
1.00224277E+02
  0
VERTEX
  8
0
 62
4
 10
1.65756885E+01
 20
1.00201849E+02
  0
VERTEX
  8
0
 62
4
 10
1.67500000E+01
 20
1.00194354E+02
  0
VERTEX
  8
0
 62
4
 10
1.69243115E+01
 20
1.00201849E+02
  0
VERTEX
  8
0
 62
4
 10
1.70972963E+01
 20
1.00224277E+02
  0
VERTEX
  8
0
 62
4
 10
1.72676381E+01
 20
1.00261468E+02
  0
VERTEX
  8
0
 62
4
 10
1.74340403E+01
 20
1.00313137E+02
  0
VERTEX
  8
0
 62
4
 10
1.75952365E+01
 20
1.00378892E+02
  0
VERTEX
  8
0
 62
4
 10
1.77500000E+01
 20
1.00458233E+02
  0
VERTEX
  8
0
 62
4
 10
1.78971529E+01
 20
1.00550555E+02
  0
VERTEX
  8
0
 62
4
 10
1.80355752E+01
 20
1.00655157E+02
  0
VERTEX
  8
0
 62
4
 10
1.81642136E+01
 20
1.00771242E+02
  0
VERTEX
  8
0
 62
4
 10
1.82820889E+01
 20
1.00897926E+02
  0
VERTEX
  8
0
 62
4
 10
1.83883041E+01
 20
1.01034245E+02
  0
VERTEX
  8
0
 62
4
 10
1.84820508E+01
 20
1.01179162E+02
  0
VERTEX
  8
0
 62
4
 10
1.85626156E+01
 20
1.01331575E+02
  0
VERTEX
  8
0
 62
4
 10
1.86293852E+01
 20
1.01490322E+02
  0
VERTEX
  8
0
 62
4
 10
1.86818517E+01
 20
1.01654196E+02
  0
VERTEX
  8
0
 62
4
 10
1.87196155E+01
 20
1.01821950E+02
  0
VERTEX
  8
0
 62
4
 10
1.87423894E+01
 20
1.01992307E+02
  0
VERTEX
  8
0
 62
4
 10
1.87500000E+01
 20
1.02163970E+02
  0
VERTEX
  8
0
 62
4
 10
1.87423894E+01
 20
1.02335633E+02
  0
VERTEX
  8
0
 62
4
 10
1.87196155E+01
 20
1.02505990E+02
  0
VERTEX
  8
0
 62
4
 10
1.86818517E+01
 20
1.02673744E+02
  0
VERTEX
  8
0
 62
4
 10
1.86293852E+01
 20
1.02837618E+02
  0
VERTEX
  8
0
 62
4
 10
1.85626156E+01
 20
1.02996365E+02
  0
VERTEX
  8
0
 62
4
 10
1.84820508E+01
 20
1.03148778E+02
  0
VERTEX
  8
0
 62
4
 10
1.83883041E+01
 20
1.03293695E+02
  0
VERTEX
  8
0
 62
4
 10
1.82820889E+01
 20
1.03430014E+02
  0
VERTEX
  8
0
 62
4
 10
1.81642136E+01
 20
1.03556698E+02
  0
VERTEX
  8
0
 62
4
 10
1.80355752E+01
 20
1.03672783E+02
  0
VERTEX
  8
0
 62
4
 10
1.78971529E+01
 20
1.03777385E+02
  0
VERTEX
  8
0
 62
4
 10
1.77500000E+01
 20
1.03869707E+02
  0
VERTEX
  8
0
 62
4
 10
1.75952365E+01
 20
1.03949048E+02
  0
VERTEX
  8
0
 62
4
 10
1.74340403E+01
 20
1.04014803E+02
  0
VERTEX
  8
0
 62
4
 10
1.72676381E+01
 20
1.04066472E+02
  0
VERTEX
  8
0
 62
4
 10
1.70972964E+01
 20
1.04103663E+02
  0
VERTEX
  8
0
 62
4
 10
1.69243115E+01
 20
1.04126091E+02
  0
VERTEX
  8
0
 62
4
 10
1.67500000E+01
 20
1.04133586E+02
  0
VERTEX
  8
0
 62
4
 10
1.65756885E+01
 20
1.04126091E+02
  0
VERTEX
  8
0
 62
4
 10
1.64027036E+01
 20
1.04103663E+02
  0
VERTEX
  8
0
 62
4
 10
1.62323619E+01
 20
1.04066472E+02
  0
VERTEX
  8
0
 62
4
 10
1.60659597E+01
 20
1.04014803E+02
  0
VERTEX
  8
0
 62
4
 10
1.59047635E+01
 20
1.03949048E+02
  0
VERTEX
  8
0
 62
4
 10
1.57500000E+01
 20
1.03869707E+02
  0
VERTEX
  8
0
 62
4
 10
1.56028471E+01
 20
1.03777385E+02
  0
VERTEX
  8
0
 62
4
 10
1.54644248E+01
 20
1.03672783E+02
  0
VERTEX
  8
0
 62
4
 10
1.53357864E+01
 20
1.03556698E+02
  0
VERTEX
  8
0
 62
4
 10
1.52179111E+01
 20
1.03430014E+02
  0
VERTEX
  8
0
 62
4
 10
1.51116959E+01
 20
1.03293695E+02
  0
VERTEX
  8
0
 62
4
 10
1.50179492E+01
 20
1.03148778E+02
  0
VERTEX
  8
0
 62
4
 10
1.49373844E+01
 20
1.02996365E+02
  0
VERTEX
  8
0
 62
4
 10
1.48706148E+01
 20
1.02837618E+02
  0
VERTEX
  8
0
 62
4
 10
1.48181483E+01
 20
1.02673744E+02
  0
VERTEX
  8
0
 62
4
 10
1.47803845E+01
 20
1.02505990E+02
  0
VERTEX
  8
0
 62
4
 10
1.47576106E+01
 20
1.02335633E+02
  0
VERTEX
  8
0
 62
4
 10
1.47500000E+01
 20
1.02163970E+02
  0
SEQEND
  8
0
  0
POLYLINE
  8
0
 62
4
 66
1
  0
VERTEX
  8
0
 62
4
 10
1.87500000E+01
 20
1.02699609E+02
  0
VERTEX
  8
0
 62
4
 10
1.87419486E+01
 20
1.02876164E+02
  0
VERTEX
  8
0
 62
4
 10
1.87178592E+01
 20
1.03051297E+02
  0
VERTEX
  8
0
 62
4
 10
1.86779257E+01
 20
1.03223599E+02
  0
VERTEX
  8
0
 62
4
 10
1.86224697E+01
 20
1.03391682E+02
  0
VERTEX
  8
0
 62
4
 10
1.85519377E+01
 20
1.03554193E+02
  0
VERTEX
  8
0
 62
4
 10
1.84668976E+01
 20
1.03709823E+02
  0
VERTEX
  8
0
 62
4
 10
1.83680340E+01
 20
1.03857320E+02
  0
VERTEX
  8
0
 62
4
 10
1.82561429E+01
 20
1.03995495E+02
  0
VERTEX
  8
0
 62
4
 10
1.81321253E+01
 20
1.04123237E+02
  0
VERTEX
  8
0
 62
4
 10
1.79969796E+01
 20
1.04239516E+02
  0
VERTEX
  8
0
 62
4
 10
1.78517940E+01
 20
1.04343397E+02
  0
VERTEX
  8
0
 62
4
 10
1.76977373E+01
 20
1.04434044E+02
  0
VERTEX
  8
0
 62
4
 10
1.75360501E+01
 20
1.04510725E+02
  0
VERTEX
  8
0
 62
4
 10
1.73680340E+01
 20
1.04572825E+02
  0
VERTEX
  8
0
 62
4
 10
1.71950419E+01
 20
1.04619842E+02
  0
VERTEX
  8
0
 62
4
 10
1.70184665E+01
 20
1.04651399E+02
  0
VERTEX
  8
0
 62
4
 10
1.68397297E+01
 20
1.04667241E+02
  0
VERTEX
  8
0
 62
4
 10
1.66602704E+01
 20
1.04667241E+02
  0
VERTEX
  8
0
 62
4
 10
1.64815335E+01
 20
1.04651399E+02
  0
VERTEX
  8
0
 62
4
 10
1.63049581E+01
 20
1.04619842E+02
  0
VERTEX
  8
0
 62
4
 10
1.61319660E+01
 20
1.04572825E+02
  0
VERTEX
  8
0
 62
4
 10
1.59639500E+01
 20
1.04510725E+02
  0
VERTEX
  8
0
 62
4
 10
1.58022627E+01
 20
1.04434044E+02
  0
VERTEX
  8
0
 62
4
 10
1.56482061E+01
 20
1.04343397E+02
  0
VERTEX
  8
0
 62
4
 10
1.55030204E+01
 20
1.04239516E+02
  0
VERTEX
  8
0
 62
4
 10
1.53678747E+01
 20
1.04123237E+02
  0
VERTEX
  8
0
 62
4
 10
1.52438571E+01
 20
1.03995495E+02
  0
VERTEX
  8
0
 62
4
 10
1.51319660E+01
 20
1.03857320E+02
  0
VERTEX
  8
0
 62
4
 10
1.50331024E+01
 20
1.03709823E+02
  0
VERTEX
  8
0
 62
4
 10
1.49480623E+01
 20
1.03554193E+02
  0
VERTEX
  8
0
 62
4
 10
1.48775303E+01
 20
1.03391682E+02
  0
VERTEX
  8
0
 62
4
 10
1.48220743E+01
 20
1.03223599E+02
  0
VERTEX
  8
0
 62
4
 10
1.47821408E+01
 20
1.03051297E+02
  0
VERTEX
  8
0
 62
4
 10
1.47580514E+01
 20
1.02876164E+02
  0
VERTEX
  8
0
 62
4
 10
1.47500000E+01
 20
1.02699609E+02
  0
SEQEND
  8
0
  0
POLYLINE
  8
0
 62
4
 66
1
  0
VERTEX
  8
0
 62
4
 10
2.55000000E+01
 20
1.20655676E+02
  0
VERTEX
  8
0
 62
4
 10
2.55085619E+01
 20
1.20462555E+02
  0
VERTEX
  8
0
 62
4
 10
2.55341826E+01
 20
1.20270903E+02
  0
VERTEX
  8
0
 62
4
 10
2.55766669E+01
 20
1.20082180E+02
  0
VERTEX
  8
0
 62
4
 10
2.56356916E+01
 20
1.19897822E+02
  0
VERTEX
  8
0
 62
4
 10
2.57108075E+01
 20
1.19719231E+02
  0
VERTEX
  8
0
 62
4
 10
2.58014428E+01
 20
1.19547767E+02
  0
VERTEX
  8
0
 62
4
 10
2.59069079E+01
 20
1.19384735E+02
  0
VERTEX
  8
0
 62
4
 10
2.60264000E+01
 20
1.19231376E+02
  0
VERTEX
  8
0
 62
4
 10
2.61590097E+01
 20
1.19088856E+02
  0
VERTEX
  8
0
 62
4
 10
2.63037279E+01
 20
1.18958261E+02
  0
VERTEX
  8
0
 62
4
 10
2.64594530E+01
 20
1.18840585E+02
  0
VERTEX
  8
0
 62
4
 10
2.66250000E+01
 20
1.18736722E+02
  0
VERTEX
  8
0
 62
4
 10
2.67991089E+01
 20
1.18647463E+02
  0
VERTEX
  8
0
 62
4
 10
2.69804547E+01
 20
1.18573489E+02
  0
VERTEX
  8
0
 62
4
 10
2.71676571E+01
 20
1.18515361E+02
  0
VERTEX
  8
0
 62
4
 10
2.73592916E+01
 20
1.18473522E+02
  0
VERTEX
  8
0
 62
4
 10
2.75538996E+01
 20
1.18448290E+02
  0
VERTEX
  8
0
 62
4
 10
2.77500000E+01
 20
1.18439859E+02
  0
VERTEX
  8
0
 62
4
 10
2.79461004E+01
 20
1.18448290E+02
  0
VERTEX
  8
0
 62
4
 10
2.81407084E+01
 20
1.18473522E+02
  0
VERTEX
  8
0
 62
4
 10
2.83323428E+01
 20
1.18515361E+02
  0
VERTEX
  8
0
 62
4
 10
2.85195453E+01
 20
1.18573489E+02
  0
VERTEX
  8
0
 62
4
 10
2.87008911E+01
 20
1.18647463E+02
  0
VERTEX
  8
0
 62
4
 10
2.88750000E+01
 20
1.18736722E+02
  0
VERTEX
  8
0
 62
4
 10
2.90405470E+01
 20
1.18840585E+02
  0
VERTEX
  8
0
 62
4
 10
2.91962721E+01
 20
1.18958261E+02
  0
VERTEX
  8
0
 62
4
 10
2.93409903E+01
 20
1.19088856E+02
  0
VERTEX
  8
0
 62
4
 10
2.94736000E+01
 20
1.19231376E+02
  0
VERTEX
  8
0
 62
4
 10
2.95930921E+01
 20
1.19384735E+02
  0
VERTEX
  8
0
 62
4
 10
2.96985572E+01
 20
1.19547767E+02
  0
VERTEX
  8
0
 62
4
 10
2.97891925E+01
 20
1.19719231E+02
  0
VERTEX
  8
0
 62
4
 10
2.98643084E+01
 20
1.19897822E+02
  0
VERTEX
  8
0
 62
4
 10
2.99233331E+01
 20
1.20082180E+02
  0
VERTEX
  8
0
 62
4
 10
2.99658174E+01
 20
1.20270903E+02
  0
VERTEX
  8
0
 62
4
 10
2.99914381E+01
 20
1.20462555E+02
  0
VERTEX
  8
0
 62
4
 10
3.00000000E+01
 20
1.20655676E+02
  0
VERTEX
  8
0
 62
4
 10
2.99914381E+01
 20
1.20848797E+02
  0
VERTEX
  8
0
 62
4
 10
2.99658174E+01
 20
1.21040449E+02
  0
VERTEX
  8
0
 62
4
 10
2.99233331E+01
 20
1.21229172E+02
  0
VERTEX
  8
0
 62
4
 10
2.98643084E+01
 20
1.21413530E+02
  0
VERTEX
  8
0
 62
4
 10
2.97891925E+01
 20
1.21592121E+02
  0
VERTEX
  8
0
 62
4
 10
2.96985572E+01
 20
1.21763585E+02
  0
VERTEX
  8
0
 62
4
 10
2.95930921E+01
 20
1.21926617E+02
  0
VERTEX
  8
0
 62
4
 10
2.94736000E+01
 20
1.22079976E+02
  0
VERTEX
  8
0
 62
4
 10
2.93409903E+01
 20
1.22222496E+02
  0
VERTEX
  8
0
 62
4
 10
2.91962721E+01
 20
1.22353091E+02
  0
VERTEX
  8
0
 62
4
 10
2.90405470E+01
 20
1.22470767E+02
  0
VERTEX
  8
0
 62
4
 10
2.88750000E+01
 20
1.22574630E+02
  0
VERTEX
  8
0
 62
4
 10
2.87008911E+01
 20
1.22663889E+02
  0
VERTEX
  8
0
 62
4
 10
2.85195453E+01
 20
1.22737863E+02
  0
VERTEX
  8
0
 62
4
 10
2.83323429E+01
 20
1.22795991E+02
  0
VERTEX
  8
0
 62
4
 10
2.81407084E+01
 20
1.22837830E+02
  0
VERTEX
  8
0
 62
4
 10
2.79461004E+01
 20
1.22863062E+02
  0
VERTEX
  8
0
 62
4
 10
2.77500000E+01
 20
1.22871493E+02
  0
VERTEX
  8
0
 62
4
 10
2.75538996E+01
 20
1.22863062E+02
  0
VERTEX
  8
0
 62
4
 10
2.73592916E+01
 20
1.22837830E+02
  0
VERTEX
  8
0
 62
4
 10
2.71676572E+01
 20
1.22795991E+02
  0
VERTEX
  8
0
 62
4
 10
2.69804547E+01
 20
1.22737863E+02
  0
VERTEX
  8
0
 62
4
 10
2.67991089E+01
 20
1.22663889E+02
  0
VERTEX
  8
0
 62
4
 10
2.66250000E+01
 20
1.22574630E+02
  0
VERTEX
  8
0
 62
4
 10
2.64594530E+01
 20
1.22470767E+02
  0
VERTEX
  8
0
 62
4
 10
2.63037279E+01
 20
1.22353091E+02
  0
VERTEX
  8
0
 62
4
 10
2.61590097E+01
 20
1.22222496E+02
  0
VERTEX
  8
0
 62
4
 10
2.60264000E+01
 20
1.22079976E+02
  0
VERTEX
  8
0
 62
4
 10
2.59069079E+01
 20
1.21926617E+02
  0
VERTEX
  8
0
 62
4
 10
2.58014428E+01
 20
1.21763585E+02
  0
VERTEX
  8
0
 62
4
 10
2.57108075E+01
 20
1.21592121E+02
  0
VERTEX
  8
0
 62
4
 10
2.56356916E+01
 20
1.21413530E+02
  0
VERTEX
  8
0
 62
4
 10
2.55766669E+01
 20
1.21229172E+02
  0
VERTEX
  8
0
 62
4
 10
2.55341826E+01
 20
1.21040449E+02
  0
VERTEX
  8
0
 62
4
 10
2.55085619E+01
 20
1.20848797E+02
  0
VERTEX
  8
0
 62
4
 10
2.55000000E+01
 20
1.20655676E+02
  0
SEQEND
  8
0
  0
LINE
  8
0
 62
4
 10
2.02500000E+01
 20
1.16646986E+02
 11
3.52500000E+01
 21
1.16646986E+02
  0
LINE
  8
0
 62
4
 10
2.02500000E+01
 20
1.16716445E+02
 11
3.52500000E+01
 21
1.16716445E+02
  0
LINE
  8
0
 62
4
 10
2.02500000E+01
 20
1.09260928E+02
 11
3.52500000E+01
 21
1.09260928E+02
  0
LINE
  8
0
 62
4
 10
5.24999999E+00
 20
9.75208504E+01
 11
2.02500000E+01
 21
9.75208504E+01
  0
LINE
  8
0
 62
4
 10
6.41156398E+00
 20
1.07896999E+02
 11
1.89907473E+01
 21
1.07896999E+02
  0
LINE
  8
0
 62
4
 10
5.24999999E+00
 20
1.23871774E+02
 11
2.02500000E+01
 21
1.23871774E+02
  0
LINE
  8
0
 62
4
 10
5.24999999E+00
 20
1.25087311E+02
 11
3.52500000E+01
 21
1.25087311E+02
  0
LINE
  8
0
 62
4
 10
5.24999999E+00
 20
1.26875887E+02
 11
3.52500000E+01
 21
1.26875887E+02
  0
LINE
  8
0
  6
CENTER
 62
6
 10
3.13245969E+01
 20
1.20655676E+02
 11
2.41754031E+01
 21
1.20655676E+02
  0
LINE
  8
0
  6
CENTER
 62
6
 10
2.77500000E+01
 20
1.24230273E+02
 11
2.77500000E+01
 21
1.17081079E+02
  0
LINE
  8
0
 62
4
 10
3.52500000E+01
 20
1.26875887E+02
 11
3.52500000E+01
 21
1.09260928E+02
  0
LINE
  8
0
 62
4
 10
5.25000000E+00
 20
1.26875887E+02
 11
5.25000000E+00
 21
9.75208504E+01
  0
LINE
  8
0
 62
4
 10
2.02500000E+01
 20
1.25087311E+02
 11
2.02500000E+01
 21
9.75208504E+01
  0
LINE
  8
0
  6
CENTER
 62
6
 10
1.92500000E+01
 20
1.02699609E+02
 11
1.42500000E+01
 21
1.02699609E+02
  0
LINE
  8
0
  6
CENTER
 62
6
 10
1.67500000E+01
 20
1.05199609E+02
 11
1.67500000E+01
 21
1.00199609E+02
  0
LINE
  8
0
  6
CENTER
 62
6
 10
8.75000000E+00
 20
1.05199609E+02
 11
8.75000000E+00
 21
1.00199609E+02
  0
LINE
  8
0
  6
CENTER
 62
6
 10
1.12500000E+01
 20
1.02699609E+02
 11
6.25000000E+00
 21
1.02699609E+02
  0
LINE
  8
0
 62
4
 10
-3.02500000E+01
 20
1.16176212E+02
 11
-3.02500000E+01
 21
1.12103771E+02
  0
LINE
  8
0
 62
4
 10
-5.37500000E+01
 20
1.26875887E+02
 11
-5.37500000E+01
 21
1.16176212E+02
  0
LINE
  8
0
 62
4
 10
-2.37500000E+01
 20
1.10369434E+02
 11
-2.37500000E+01
 21
1.12359300E+02
  0
LINE
  8
0
 62
7
 10
5.25000000E+00
 20
1.10369434E+02
 11
-6.42500000E+01
 21
1.10369434E+02
  0
LINE
  8
0
 62
7
 10
5.25000000E+00
 20
1.09519443E+02
 11
-6.42500000E+01
 21
1.09519443E+02
  0
LINE
  8
0
 62
7
 10
5.25000000E+00
 20
1.04219456E+02
 11
-6.42500000E+01
 21
1.04219456E+02
  0
LINE
  8
0
 62
4
 10
-3.02500000E+01
 20
1.15359300E+02
 11
-1.28839746E+01
 21
1.15359300E+02
  0
LINE
  8
0
  6
CENTER
 62
6
 10
-5.87500000E+01
 20
1.13859300E+02
 11
-1.17500000E+01
 21
1.13859300E+02
  0
LINE
  8
0
 62
4
 10
-3.02500000E+01
 20
1.12359300E+02
 11
-1.46160254E+01
 21
1.12359300E+02
  0
LINE
  8
0
 62
4
 10
5.25006104E+00
 20
1.12359300E+02
 11
-5.61596437E+00
 21
1.12359300E+02
  0
LINE
  8
0
  6
CENTER
 62
6
 10
4.02500610E+01
 20
1.13859300E+02
 11
-6.74993896E+00
 21
1.13859300E+02
  0
LINE
  8
0
 62
4
 10
5.25006104E+00
 20
1.15359300E+02
 11
-3.88391357E+00
 21
1.15359300E+02
  0
LINE
  8
0
 62
6
 10
-3.01788813E+00
 20
1.16859300E+02
 11
-6.48198975E+00
 21
1.10859300E+02
  0
LINE
  8
0
 62
6
 10
-1.54820508E+01
 20
1.10859300E+02
 11
-1.20179492E+01
 21
1.16859300E+02
  0
LINE
  8
0
 62
4
 10
-2.37500000E+01
 20
1.15359300E+02
 11
-2.37500000E+01
 21
1.26875887E+02
  0
CIRCLE
  8
0
 62
7
 10
-2.29250000E+02
 20
1.06869465E+02
 40
2.45850000E+00
  0
CIRCLE
  8
0
 62
7
 10
-2.29249969E+02
 20
5.98694952E+01
 40
2.45850000E+00
  0
CIRCLE
  8
0
 62
7
 10
-2.76249939E+02
 20
5.98694647E+01
 40
2.45850000E+00
  0
CIRCLE
  8
0
 62
7
 10
-2.76249969E+02
 20
1.06869434E+02
 40
2.45850000E+00
  0
LINE
  8
0
 62
4
 10
-2.39249969E+02
 20
7.55752360E+01
 11
-2.39249969E+02
 21
9.11636933E+01
  0
LINE
  8
0
 62
4
 10
-2.52749969E+02
 20
6.77810074E+01
 11
-2.39249969E+02
 21
7.55752360E+01
  0
LINE
  8
0
 62
4
 10
-2.66249969E+02
 20
7.55752360E+01
 11
-2.52749969E+02
 21
6.77810074E+01
  0
LINE
  8
0
 62
4
 10
-2.66249969E+02
 20
9.11636933E+01
 11
-2.66249969E+02
 21
7.55752360E+01
  0
LINE
  8
0
 62
4
 10
-2.52749969E+02
 20
9.89579219E+01
 11
-2.66249969E+02
 21
9.11636933E+01
  0
CIRCLE
  8
0
 62
4
 10
-2.52749969E+02
 20
8.33694647E+01
 40
1.35000000E+01
  0
LINE
  8
0
 62
4
 10
-2.39249969E+02
 20
9.11636933E+01
 11
-2.52749969E+02
 21
9.89579219E+01
  0
CIRCLE
  8
0
 62
7
 10
-2.52749969E+02
 20
8.33694647E+01
 40
7.49999237E+00
  0
CIRCLE
  8
0
 62
2
 10
-2.52749969E+02
 20
8.33694647E+01
 40
8.18000031E+00
  0
CIRCLE
  8
0
 62
7
 10
-2.52749969E+02
 20
8.33694647E+01
 40
8.99999237E+00
  0
CIRCLE
  8
0
 62
2
 10
-2.29249969E+02
 20
1.06869434E+02
 40
3.00000000E+00
  0
CIRCLE
  8
0
 62
2
 10
-2.29250031E+02
 20
5.98694189E+01
 40
3.00000000E+00
  0
CIRCLE
  8
0
 62
2
 10
-2.76250031E+02
 20
5.98694189E+01
 40
3.00000000E+00
  0
CIRCLE
  8
0
 62
2
 10
-2.76249969E+02
 20
1.06869434E+02
 40
3.00000000E+00
  0
CIRCLE
  8
0
 62
7
 10
-2.52749969E+02
 20
8.33694647E+01
 40
1.70000000E+01
  0
CIRCLE
  8
0
 62
7
 10
-2.52749969E+02
 20
8.33694647E+01
 40
1.90000000E+01
  0
CIRCLE
  8
0
 62
7
 10
-2.52749969E+02
 20
8.33694647E+01
 40
1.75294495E+01
  0
ARC
  8
0
 62
7
 10
-2.25750031E+02
 20
7.28381079E+01
 40
1.00000000E+00
 50
2.77180808E+02
 51
0.00000000E+00
  0
ARC
  8
0
 62
7
 10
-2.25250031E+02
 20
6.88694799E+01
 40
3.00000000E+00
 50
9.71807782E+01
 51
1.79999964E+02
  0
ARC
  8
0
 62
7
 10
-2.29218658E+02
 20
6.78693884E+01
 40
1.00000000E+00
 50
2.69774478E+02
 51
3.52821034E+02
  0
ARC
  8
0
 62
7
 10
-2.29250031E+02
 20
5.98694494E+01
 40
7.00000000E+00
 50
8.97754328E+01
 51
1.80224705E+02
  0
ARC
  8
0
 62
7
 10
-2.37249969E+02
 20
5.98380773E+01
 40
1.00000000E+00
 50
2.77180808E+02
 51
2.24685903E-01
  0
ARC
  8
0
 62
7
 10
-2.38249969E+02
 20
5.58694494E+01
 40
3.00000000E+00
 50
8.99999818E+01
 51
1.72818977E+02
  0
ARC
  8
0
 62
7
 10
-2.42218597E+02
 20
5.63694799E+01
 40
1.00000000E+00
 50
2.70000018E+02
 51
3.52818438E+02
  0
CIRCLE
  8
0
 62
7
 10
-2.29250031E+02
 20
5.98694342E+01
 40
4.50000000E+00
  0
ARC
  8
0
 62
7
 10
-2.25249969E+02
 20
5.58694952E+01
 40
3.50000000E+00
 50
2.70000018E+02
 51
3.59999986E+02
  0
ARC
  8
0
 62
7
 10
-2.33313019E+02
 20
6.67608831E+01
 40
1.00000000E+00
 50
2.25000628E+02
 51
3.00522440E+02
  0
ARC
  8
0
 62
7
 10
-2.36141449E+02
 20
6.39324530E+01
 40
1.00000000E+00
 50
3.29477756E+02
 51
4.49993490E+01
  0
CIRCLE
  8
0
 62
7
 10
-2.29250031E+02
 20
5.98694342E+01
 40
5.00000000E+00
  0
ARC
  8
0
 62
7
 10
-2.25750031E+02
 20
8.13694647E+01
 40
1.00000000E+00
 50
3.59999986E+02
 51
8.99999681E+01
  0
ARC
  8
0
 62
7
 10
-2.25250031E+02
 20
5.58694952E+01
 40
3.00000000E+00
 50
2.70000018E+02
 51
3.59999986E+02
  0
ARC
  8
0
 62
7
 10
-2.50749969E+02
 20
5.63694952E+01
 40
1.00000000E+00
 50
1.79999951E+02
 51
2.70000001E+02
  0
ARC
  8
0
 62
7
 10
-2.32850250E+02
 20
8.13694647E+01
 40
1.00000000E+00
 50
8.99999681E+01
 51
1.74260502E+02
  0
ARC
  8
0
 62
7
 10
-2.37264496E+02
 20
7.07124365E+01
 40
1.00000000E+00
 50
1.40738985E+02
 51
2.24999982E+02
  0
ARC
  8
0
 62
7
 10
-2.40092926E+02
 20
6.78840063E+01
 40
1.00000000E+00
 50
4.49999637E+01
 51
1.29260961E+02
  0
ARC
  8
0
 62
7
 10
-2.50749969E+02
 20
6.34697149E+01
 40
1.00000000E+00
 50
9.57394445E+01
 51
1.79999951E+02
  0
ARC
  8
0
 62
7
 10
-2.79749969E+02
 20
9.39008215E+01
 40
1.00000000E+00
 50
9.71807714E+01
 51
1.79999964E+02
  0
ARC
  8
0
 62
7
 10
-2.76281342E+02
 20
9.88695410E+01
 40
1.00000000E+00
 50
8.97744422E+01
 51
1.72820998E+02
  0
ARC
  8
0
 62
7
 10
-2.68250031E+02
 20
1.06900852E+02
 40
1.00000000E+00
 50
9.71807714E+01
 51
1.80224650E+02
  0
ARC
  8
0
 62
7
 10
-2.63281342E+02
 20
1.10369449E+02
 40
1.00000000E+00
 50
8.99999818E+01
 51
1.72818402E+02
  0
ARC
  8
0
 62
7
 10
-2.67249969E+02
 20
1.10869480E+02
 40
3.00000000E+00
 50
2.70000018E+02
 51
3.52818957E+02
  0
ARC
  8
0
 62
7
 10
-2.80249969E+02
 20
9.78694494E+01
 40
3.00000000E+00
 50
2.77180753E+02
 51
0.00000000E+00
  0
CIRCLE
  8
0
 62
7
 10
-2.76249969E+02
 20
1.06869480E+02
 40
4.50000000E+00
  0
ARC
  8
0
 62
7
 10
-2.80249969E+02
 20
1.10869419E+02
 40
3.50000000E+00
 50
9.00000231E+01
 51
1.79999977E+02
  0
ARC
  8
0
 62
7
 10
-2.79749969E+02
 20
8.13694647E+01
 40
1.00000000E+00
 50
8.99999549E+01
 51
1.79999991E+02
  0
ARC
  8
0
 62
7
 10
-2.80249969E+02
 20
1.10869419E+02
 40
3.00000000E+00
 50
9.00000231E+01
 51
1.79999977E+02
  0
ARC
  8
0
 62
7
 10
-2.72186920E+02
 20
9.99780310E+01
 40
1.00000000E+00
 50
4.50006194E+01
 51
1.20522431E+02
  0
ARC
  8
0
 62
7
 10
-2.76249969E+02
 20
1.06869480E+02
 40
7.00000000E+00
 50
2.69775421E+02
 51
2.24686703E-01
  0
ARC
  8
0
 62
7
 10
-2.79749969E+02
 20
8.53694647E+01
 40
1.00000000E+00
 50
1.79999964E+02
 51
2.69999946E+02
  0
ARC
  8
0
 62
7
 10
-2.54749969E+02
 20
1.10369434E+02
 40
1.00000000E+00
 50
3.59999959E+02
 51
8.99999956E+01
  0
ARC
  8
0
 62
7
 10
-2.69358551E+02
 20
1.02806461E+02
 40
1.00000000E+00
 50
1.49477747E+02
 51
2.24999340E+02
  0
CIRCLE
  8
0
 62
7
 10
-2.76249969E+02
 20
1.06869480E+02
 40
5.00000000E+00
  0
ARC
  8
0
 62
7
 10
-2.72649750E+02
 20
8.13694647E+01
 40
1.00000000E+00
 50
5.73944893E+00
 51
8.99999549E+01
  0
ARC
  8
0
 62
7
 10
-2.72649750E+02
 20
8.53694647E+01
 40
1.00000000E+00
 50
2.69999963E+02
 51
3.54260510E+02
  0
ARC
  8
0
 62
7
 10
-2.54749969E+02
 20
1.03269214E+02
 40
1.00000000E+00
 50
2.75739453E+02
 51
3.59999959E+02
  0
ARC
  8
0
 62
7
 10
-2.65407013E+02
 20
9.88549230E+01
 40
1.00000000E+00
 50
2.24999972E+02
 51
3.09260983E+02
  0
ARC
  8
0
 62
7
 10
-2.68235443E+02
 20
9.60264929E+01
 40
1.00000000E+00
 50
3.20738994E+02
 51
4.49999910E+01
  0
ARC
  8
0
 62
7
 10
-2.63281342E+02
 20
5.63694799E+01
 40
1.00000000E+00
 50
1.87181597E+02
 51
2.70000018E+02
  0
ARC
  8
0
 62
7
 10
-2.67249969E+02
 20
5.58694494E+01
 40
3.00000000E+00
 50
7.18104317E+00
 51
8.99999818E+01
  0
ARC
  8
0
 62
7
 10
-2.68250031E+02
 20
5.98380773E+01
 40
1.00000000E+00
 50
1.79775333E+02
 51
2.62819204E+02
  0
ARC
  8
0
 62
7
 10
-2.76249969E+02
 20
5.98694494E+01
 40
7.00000000E+00
 50
3.59775313E+02
 51
9.02245790E+01
  0
ARC
  8
0
 62
7
 10
-2.76281342E+02
 20
6.78693884E+01
 40
1.00000000E+00
 50
1.87179002E+02
 51
2.70225557E+02
  0
ARC
  8
0
 62
7
 10
-2.80249969E+02
 20
6.88694799E+01
 40
3.00000000E+00
 50
0.00000000E+00
 51
8.28192405E+01
  0
ARC
  8
0
 62
7
 10
-2.79749969E+02
 20
7.28381079E+01
 40
1.00000000E+00
 50
1.80000036E+02
 51
2.62819228E+02
  0
ARC
  8
0
 62
7
 10
-2.42218597E+02
 20
1.10369449E+02
 40
1.00000000E+00
 50
7.18156141E+00
 51
8.99999818E+01
  0
ARC
  8
0
 62
7
 10
-2.38249969E+02
 20
1.10869480E+02
 40
3.00000000E+00
 50
1.87181024E+02
 51
2.70000018E+02
  0
ARC
  8
0
 62
7
 10
-2.37249969E+02
 20
1.06900852E+02
 40
1.00000000E+00
 50
3.59775314E+02
 51
8.28191923E+01
  0
ARC
  8
0
 62
7
 10
-2.29250031E+02
 20
1.06869480E+02
 40
7.00000000E+00
 50
1.79775278E+02
 51
2.70224550E+02
  0
ARC
  8
0
 62
7
 10
-2.29218658E+02
 20
9.88695410E+01
 40
1.00000000E+00
 50
7.17896597E+00
 51
9.02255215E+01
  0
ARC
  8
0
 62
7
 10
-2.25250031E+02
 20
9.78694494E+01
 40
3.00000000E+00
 50
1.79999981E+02
 51
2.62819221E+02
  0
ARC
  8
0
 62
7
 10
-2.25750031E+02
 20
9.39008215E+01
 40
1.00000000E+00
 50
0.00000000E+00
 51
8.28191923E+01
  0
CIRCLE
  8
0
 62
7
 10
-2.76250031E+02
 20
5.98694952E+01
 40
4.50000000E+00
  0
ARC
  8
0
 62
7
 10
-2.80249969E+02
 20
5.58694647E+01
 40
3.50000000E+00
 50
1.80000036E+02
 51
2.69999991E+02
  0
CIRCLE
  8
0
 62
7
 10
-2.29249969E+02
 20
1.06869434E+02
 40
4.50000000E+00
  0
ARC
  8
0
 62
7
 10
-2.25250031E+02
 20
1.10869465E+02
 40
3.50000000E+00
 50
0.00000000E+00
 51
8.99999818E+01
  0
ARC
  8
0
 62
7
 10
-2.69358551E+02
 20
6.39325140E+01
 40
1.00000000E+00
 50
1.35000615E+02
 51
2.10522426E+02
  0
ARC
  8
0
 62
7
 10
-2.72186981E+02
 20
6.67609136E+01
 40
1.00000000E+00
 50
2.39477760E+02
 51
3.14999353E+02
  0
CIRCLE
  8
0
 62
7
 10
-2.76250031E+02
 20
5.98694952E+01
 40
5.00000000E+00
  0
ARC
  8
0
 62
7
 10
-2.54749969E+02
 20
5.63694952E+01
 40
1.00000000E+00
 50
2.69999991E+02
 51
3.59999973E+02
  0
ARC
  8
0
 62
7
 10
-2.80249969E+02
 20
5.58694952E+01
 40
3.00000000E+00
 50
1.80000036E+02
 51
2.69999991E+02
  0
ARC
  8
0
 62
7
 10
-2.36141388E+02
 20
1.02806415E+02
 40
1.00000000E+00
 50
3.15000624E+02
 51
3.05224488E+01
  0
ARC
  8
0
 62
7
 10
-2.33312958E+02
 20
9.99780157E+01
 40
1.00000000E+00
 50
5.94777518E+01
 51
1.34999345E+02
  0
CIRCLE
  8
0
 62
7
 10
-2.29249969E+02
 20
1.06869434E+02
 40
5.00000000E+00
  0
ARC
  8
0
 62
7
 10
-2.50749969E+02
 20
1.10369434E+02
 40
1.00000000E+00
 50
8.99999818E+01
 51
1.79999964E+02
  0
ARC
  8
0
 62
7
 10
-2.25250031E+02
 20
1.10869434E+02
 40
3.00000000E+00
 50
0.00000000E+00
 51
8.99999818E+01
  0
ARC
  8
0
 62
7
 10
-2.25750031E+02
 20
8.53694647E+01
 40
1.00000000E+00
 50
2.69999963E+02
 51
0.00000000E+00
  0
ARC
  8
0
 62
7
 10
-2.32850250E+02
 20
8.53694494E+01
 40
1.00000000E+00
 50
1.85739458E+02
 51
2.69999963E+02
  0
ARC
  8
0
 62
7
 10
-2.40092926E+02
 20
9.88549383E+01
 40
1.00000000E+00
 50
2.30738998E+02
 51
3.14999995E+02
  0
ARC
  8
0
 62
7
 10
-2.37264496E+02
 20
9.60265081E+01
 40
1.00000000E+00
 50
1.34999959E+02
 51
2.19260957E+02
  0
ARC
  8
0
 62
7
 10
-2.54749969E+02
 20
6.34697149E+01
 40
1.00000000E+00
 50
3.59999973E+02
 51
8.42604992E+01
  0
ARC
  8
0
 62
7
 10
-2.50749969E+02
 20
1.03269214E+02
 40
1.00000000E+00
 50
1.79999964E+02
 51
2.64260484E+02
  0
ARC
  8
0
 62
7
 10
-2.65407013E+02
 20
6.78839910E+01
 40
1.00000000E+00
 50
5.07389892E+01
 51
1.34999987E+02
  0
ARC
  8
0
 62
7
 10
-2.68235443E+02
 20
7.07124212E+01
 40
1.00000000E+00
 50
3.14999968E+02
 51
3.92609655E+01
  0
LINE
  8
0
  6
CENTER
 62
2
 10
-2.59750092E+02
 20
1.16554523E+02
 11
-2.59750092E+02
 21
1.04669254E+02
  0
LINE
  8
0
  6
CENTER
 62
2
 10
-2.67212677E+02
 20
5.98694189E+01
 11
-2.85982574E+02
 21
5.98694189E+01
  0
LINE
  8
0
  6
CENTER
 62
2
 10
-2.66862885E+02
 20
1.06869434E+02
 11
-2.85982574E+02
 21
1.06869434E+02
  0
LINE
  8
0
  6
CENTER
 62
2
 10
-2.18102081E+02
 20
8.33694647E+01
 11
-2.87265045E+02
 21
8.33694647E+01
  0
LINE
  8
0
 62
7
 10
-2.28250031E+02
 20
6.76207464E+01
 11
-2.28250031E+02
 21
6.88694799E+01
  0
LINE
  8
0
 62
7
 10
-2.37001556E+02
 20
5.88694189E+01
 11
-2.38249969E+02
 21
5.88694189E+01
  0
LINE
  8
0
 62
7
 10
-2.68498749E+02
 20
5.88695104E+01
 11
-2.67249969E+02
 21
5.88695104E+01
  0
LINE
  8
0
 62
7
 10
-2.77250031E+02
 20
6.76212347E+01
 11
-2.77250031E+02
 21
6.88694799E+01
  0
LINE
  8
0
 62
7
 10
-2.28249969E+02
 20
9.91178167E+01
 11
-2.28249969E+02
 21
9.78694494E+01
  0
LINE
  8
0
 62
7
 10
-2.37001251E+02
 20
1.07869434E+02
 11
-2.38249969E+02
 21
1.07869434E+02
  0
LINE
  8
0
 62
7
 10
-2.68498383E+02
 20
1.07869510E+02
 11
-2.67249969E+02
 21
1.07869510E+02
  0
LINE
  8
0
 62
7
 10
-2.77249969E+02
 20
9.91180609E+01
 11
-2.77249969E+02
 21
9.78694494E+01
  0
LINE
  8
0
  6
CENTER
 62
2
 10
-2.29250031E+02
 20
5.02083929E+01
 11
-2.29250031E+02
 21
6.90654562E+01
  0
LINE
  8
0
 62
7
 10
-2.30749969E+02
 20
5.28694799E+01
 11
-2.30749969E+02
 21
5.23694799E+01
  0
LINE
  8
0
 62
7
 10
-2.74749969E+02
 20
5.28695104E+01
 11
-2.74749969E+02
 21
5.23694799E+01
  0
LINE
  8
0
 62
7
 10
-2.74749969E+02
 20
1.14369465E+02
 11
-2.74749969E+02
 21
1.13869465E+02
  0
LINE
  8
0
 62
7
 10
-2.30749969E+02
 20
1.14369465E+02
 11
-2.30749969E+02
 21
1.13869434E+02
  0
LINE
  8
0
 62
7
 10
-2.35749784E+02
 20
1.13869401E+02
 11
-2.35249772E+02
 21
1.14369412E+02
  0
LINE
  8
0
 62
7
 10
-2.45749827E+02
 20
1.13869455E+02
 11
-2.46249860E+02
 21
1.14369488E+02
  0
LINE
  8
0
 62
7
 10
-2.63281342E+02
 20
5.53694799E+01
 11
-2.42218597E+02
 21
5.53694799E+01
  0
LINE
  8
0
 62
7
 10
-2.24750031E+02
 20
7.28381079E+01
 11
-2.24750031E+02
 21
9.39008215E+01
  0
LINE
  8
0
  6
CENTER
 62
2
 10
-2.19063629E+02
 20
5.98694189E+01
 11
-2.38766266E+02
 21
5.98694189E+01
  0
LINE
  8
0
  6
CENTER
 62
2
 10
-2.52749969E+02
 20
1.18130115E+02
 11
-2.52749969E+02
 21
5.00425909E+01
  0
LINE
  8
0
 62
7
 10
-2.80249969E+02
 20
5.23694799E+01
 11
-2.25249969E+02
 21
5.23694799E+01
  0
LINE
  8
0
 62
7
 10
-2.21750031E+02
 20
5.58694952E+01
 11
-2.21750031E+02
 21
1.10869465E+02
  0
LINE
  8
0
 62
7
 10
-2.80249969E+02
 20
5.28695104E+01
 11
-2.25250031E+02
 21
5.28694799E+01
  0
LINE
  8
0
 62
7
 10
-2.22250031E+02
 20
5.58694952E+01
 11
-2.22250031E+02
 21
1.10869434E+02
  0
LINE
  8
0
 62
7
 10
-2.25750031E+02
 20
8.23694647E+01
 11
-2.32850250E+02
 21
8.23694647E+01
  0
LINE
  8
0
 62
7
 10
-2.39385877E+02
 20
6.85911368E+01
 11
-2.35434340E+02
 21
6.46395988E+01
  0
LINE
  8
0
 62
7
 10
-2.37971663E+02
 20
7.00053934E+01
 11
-2.34020148E+02
 21
6.60538769E+01
  0
LINE
  8
0
 62
7
 10
-2.51750031E+02
 20
5.63694952E+01
 11
-2.51750031E+02
 21
6.34697149E+01
  0
LINE
  8
0
  6
CENTER
 62
2
 10
-2.76249969E+02
 20
1.16423145E+02
 11
-2.76249969E+02
 21
9.89850958E+01
  0
LINE
  8
0
 62
7
 10
-2.83749969E+02
 20
5.58694647E+01
 11
-2.83749969E+02
 21
1.10869434E+02
  0
LINE
  8
0
 62
7
 10
-2.80249969E+02
 20
1.14369465E+02
 11
-2.25250031E+02
 21
1.14369465E+02
  0
LINE
  8
0
 62
7
 10
-2.80749969E+02
 20
7.28381079E+01
 11
-2.80749969E+02
 21
9.39008215E+01
  0
LINE
  8
0
 62
7
 10
-2.83249969E+02
 20
5.58694952E+01
 11
-2.83249969E+02
 21
1.10869434E+02
  0
LINE
  8
0
 62
7
 10
-2.79749969E+02
 20
8.23694952E+01
 11
-2.72649750E+02
 21
8.23694952E+01
  0
LINE
  8
0
 62
7
 10
-2.79749969E+02
 20
8.43694952E+01
 11
-2.72649750E+02
 21
8.43694952E+01
  0
LINE
  8
0
 62
7
 10
-2.67528415E+02
 20
9.67335108E+01
 11
-2.71479952E+02
 21
1.00685048E+02
  0
LINE
  8
0
 62
7
 10
-2.66114201E+02
 20
9.81477245E+01
 11
-2.70065782E+02
 21
1.02099305E+02
  0
LINE
  8
0
 62
7
 10
-2.63281342E+02
 20
1.11369449E+02
 11
-2.42218597E+02
 21
1.11369449E+02
  0
LINE
  8
0
  6
CENTER
 62
2
 10
-2.19296844E+02
 20
1.06869434E+02
 11
-2.38999420E+02
 21
1.06869434E+02
  0
LINE
  8
0
  6
CENTER
 62
2
 10
-2.29249969E+02
 20
1.16847706E+02
 11
-2.29249969E+02
 21
9.71450842E+01
  0
LINE
  8
0
  6
CENTER
 62
2
 10
-2.76250031E+02
 20
5.02785070E+01
 11
-2.76250031E+02
 21
6.91650427E+01
  0
LINE
  8
0
 62
7
 10
-2.80249969E+02
 20
1.13869465E+02
 11
-2.25250031E+02
 21
1.13869434E+02
  0
LINE
  8
0
 62
7
 10
-2.25750031E+02
 20
8.43694494E+01
 11
-2.32850250E+02
 21
8.43694494E+01
  0
LINE
  8
0
 62
7
 10
-2.37971767E+02
 20
9.67337587E+01
 11
-2.34020250E+02
 21
1.00685274E+02
  0
LINE
  8
0
 62
7
 10
-2.39386002E+02
 20
9.81479942E+01
 11
-2.35434485E+02
 21
1.02099509E+02
  0
LINE
  8
0
 62
7
 10
-2.53750031E+02
 20
5.63694952E+01
 11
-2.53750031E+02
 21
6.34697149E+01
  0
LINE
  8
0
 62
7
 10
-2.51749969E+02
 20
1.10369434E+02
 11
-2.51749969E+02
 21
1.03269214E+02
  0
LINE
  8
0
 62
7
 10
-2.67528437E+02
 20
7.00054419E+01
 11
-2.71479996E+02
 21
6.60538829E+01
  0
LINE
  8
0
 62
7
 10
-2.66114212E+02
 20
6.85912390E+01
 11
-2.70065772E+02
 21
6.46396801E+01
  0
LINE
  8
0
 62
7
 10
-2.53749969E+02
 20
1.10369434E+02
 11
-2.53749969E+02
 21
1.03269214E+02
  0
LINE
  8
0
  6
CENTER
 62
6
 10
-2.85283922E+02
 20
1.02382539E+02
 11
-2.77817918E+02
 21
1.03698997E+02
  0
LINE
  8
0
  6
CENTER
 62
6
 10
-2.61173287E+02
 20
1.14369465E+02
 11
-2.60562384E+02
 21
1.10904862E+02
  0
LINE
  8
0
 62
4
 10
-2.62325797E+02
 20
1.14369465E+02
 11
-2.62397308E+02
 21
1.14775027E+02
  0
LINE
  8
0
  6
CENTER
 62
6
 10
-2.44326652E+02
 20
1.14369465E+02
 11
-2.44937554E+02
 21
1.10904862E+02
  0
LINE
  8
0
  6
CENTER
 62
6
 10
-2.47309982E+02
 20
1.14369465E+02
 11
-2.47371033E+02
 21
1.14380230E+02
  0
LINE
  8
0
 62
4
 10
-2.21750031E+02
 20
1.09689286E+02
 11
-2.21097686E+02
 21
1.07896984E+02
  0
LINE
  8
0
 62
4
 10
-2.83749969E+02
 20
1.09689118E+02
 11
-2.84402253E+02
 21
1.07896984E+02
  0
LINE
  8
0
 62
4
 10
-2.46032981E+02
 20
1.15058179E+02
 11
-2.43949202E+02
 21
1.26875872E+02
  0
ARC
  8
0
 62
4
 10
-2.36555506E+02
 20
1.17440893E+02
 40
1.18100000E+01
 50
1.70000000E+02
 51
1.90532699E+02
  0
ARC
  8
0
 62
4
 10
-2.36552819E+02
 20
1.17456135E+02
 40
1.18100000E+01
 50
1.67900933E+02
 51
1.70000000E+02
  0
LINE
  8
0
 62
4
 10
-2.46433255E+02
 20
1.14976444E+02
 11
-2.48166516E+02
 21
1.15282065E+02
  0
LINE
  8
0
 62
4
 10
-2.46032981E+02
 20
1.15058179E+02
 11
-2.46407207E+02
 21
1.15124165E+02
  0
LINE
  8
0
 62
4
 10
-2.46433255E+02
 20
1.14976444E+02
 11
-2.45764709E+02
 21
1.18767954E+02
  0
LINE
  8
0
 62
4
 10
-2.46375290E+02
 20
1.18875616E+02
 11
-2.45055564E+02
 21
1.26360155E+02
  0
LINE
  8
0
 62
4
 10
-2.45125023E+02
 20
1.25966232E+02
 11
-2.46237856E+02
 21
1.26162454E+02
  0
LINE
  8
0
 62
4
 10
-2.46305831E+02
 20
1.19269539E+02
 11
-2.47418664E+02
 21
1.19465761E+02
  0
ARC
  8
0
 62
4
 10
-2.36448966E+02
 20
1.20983958E+02
 40
1.18100000E+01
 50
1.57172490E+02
 51
1.82827510E+02
  0
ARC
  8
0
 62
4
 10
-2.46412294E+02
 20
1.25177786E+02
 40
1.00000000E+00
 50
7.99999999E+01
 51
1.57172490E+02
  0
ARC
  8
0
 62
4
 10
-2.47245806E+02
 20
1.20450708E+02
 40
1.00000000E+00
 50
1.82827510E+02
 51
2.60000000E+02
  0
LINE
  8
0
 62
4
 10
-2.44070756E+02
 20
1.26186506E+02
 11
-2.45055564E+02
 21
1.26360155E+02
  0
LINE
  8
0
 62
4
 10
-2.45390482E+02
 20
1.18701968E+02
 11
-2.46375290E+02
 21
1.18875616E+02
  0
ARC
  8
0
 62
4
 10
-2.44286374E+02
 20
1.14597891E+02
 40
5.00000000E-01
 50
3.32815800E+02
 51
2.07184200E+02
  0
ARC
  8
0
 62
4
 10
-2.44286374E+02
 20
1.14597891E+02
 40
3.00000000E-01
 50
3.10410364E+02
 51
2.29589636E+02
  0
ARC
  8
0
 62
4
 10
-2.44416610E+02
 20
1.13859285E+02
 40
1.50000000E+00
 50
1.98841649E+01
 51
1.60115835E+02
  0
LINE
  8
0
 62
4
 10
-2.21097686E+02
 20
1.07896984E+02
 11
-2.21750031E+02
 21
1.04197353E+02
  0
LINE
  8
0
 62
4
 10
-2.33805683E+02
 20
1.25087296E+02
 11
-2.26912028E+02
 21
1.23871758E+02
  0
LINE
  8
0
 62
4
 10
-2.26912028E+02
 20
1.23871758E+02
 11
-2.23216366E+02
 21
1.13718010E+02
  0
LINE
  8
0
 62
4
 10
-2.35281692E+02
 20
1.16716430E+02
 11
-2.34789288E+02
 21
1.16629606E+02
  0
LINE
  8
0
 62
4
 10
-2.34383708E+02
 20
1.16050378E+02
 11
-2.34680099E+02
 21
1.14369465E+02
  0
ARC
  8
0
 62
4
 10
-2.34876112E+02
 20
1.16137202E+02
 40
5.00000000E-01
 50
3.50000000E+02
 51
7.99999999E+01
  0
LINE
  8
0
  6
CENTER
 62
6
 10
-2.27682021E+02
 20
1.03698997E+02
 11
-2.20216017E+02
 21
1.02382539E+02
  0
LINE
  8
0
  6
CENTER
 62
6
 10
-2.33656429E+02
 20
1.16937565E+02
 11
-2.46506934E+02
 21
1.19203456E+02
  0
LINE
  8
0
  6
CENTER
 62
6
 10
-2.23814793E+02
 20
1.18756213E+02
 11
-2.45899166E+02
 21
1.22650283E+02
  0
LINE
  8
0
 62
4
 10
-2.42574737E+02
 20
1.15666909E+02
 11
-2.42899201E+02
 21
1.16130292E+02
  0
LINE
  8
0
 62
4
 10
-2.42899201E+02
 20
1.16130292E+02
 11
-2.45755143E+02
 21
1.16633871E+02
  0
LINE
  8
0
 62
4
 10
-2.42082333E+02
 20
1.15580085E+02
 11
-2.42295798E+02
 21
1.14369465E+02
  0
LINE
  8
0
 62
4
 10
-2.42082333E+02
 20
1.15580085E+02
 11
-2.42574737E+02
 21
1.15666909E+02
  0
LINE
  8
0
 62
4
 10
-2.33805683E+02
 20
1.25087296E+02
 11
-2.35281692E+02
 21
1.16716430E+02
  0
LINE
  8
0
 62
4
 10
-2.43949202E+02
 20
1.26875872E+02
 11
-2.33805683E+02
 21
1.25087296E+02
  0
LINE
  8
0
 62
4
 10
-2.34887769E+02
 20
1.16646971E+02
 11
-2.35289355E+02
 21
1.14369465E+02
  0
LINE
  8
0
 62
4
 10
-2.42099698E+02
 20
1.15481604E+02
 11
-2.46038929E+02
 21
1.16176197E+02
  0
LINE
  8
0
 62
4
 10
-2.46038929E+02
 20
1.16176197E+02
 11
-2.46357505E+02
 21
1.14369465E+02
  0
LINE
  8
0
  6
CENTER
 62
6
 10
-2.43895665E+02
 20
1.16813708E+02
 11
-2.44326652E+02
 21
1.14369465E+02
  0
LINE
  8
0
  6
CENTER
 62
6
 10
-2.41462187E+02
 20
1.13338341E+02
 11
-2.47309982E+02
 21
1.14369465E+02
  0
LINE
  8
0
 62
4
 10
-2.18629068E+02
 20
1.04133570E+02
 11
-2.21666830E+02
 21
1.04669209E+02
  0
LINE
  8
0
 62
4
 10
-2.19323661E+02
 20
1.00194339E+02
 11
-2.21750031E+02
 21
1.00622173E+02
  0
LINE
  8
0
 62
6
 10
-2.18715892E+02
 20
1.03641166E+02
 11
-2.21753654E+02
 21
1.04176805E+02
  0
LINE
  8
0
 62
6
 10
-2.19236837E+02
 20
1.00686743E+02
 11
-2.21750031E+02
 21
1.01129887E+02
  0
LINE
  8
0
 62
4
 10
-2.19323661E+02
 20
1.00194339E+02
 11
-2.18629068E+02
 21
1.04133570E+02
  0
LINE
  8
0
 62
4
 10
-2.59657971E+02
 20
1.16141467E+02
 11
-2.61550737E+02
 21
1.26875872E+02
  0
ARC
  8
0
 62
4
 10
-2.68944433E+02
 20
1.17440893E+02
 40
1.18100000E+01
 50
3.49467301E+02
 51
9.99999999E+00
  0
ARC
  8
0
 62
4
 10
-2.68947120E+02
 20
1.17456135E+02
 40
1.18100000E+01
 50
9.99999999E+00
 51
3.05326991E+01
  0
LINE
  8
0
 62
4
 10
-2.59066684E+02
 20
1.14976444E+02
 11
-2.57333423E+02
 21
1.15282065E+02
  0
LINE
  8
0
 62
4
 10
-2.60507964E+02
 20
1.23150348E+02
 11
-2.58774702E+02
 21
1.23455969E+02
  0
LINE
  8
0
 62
4
 10
-2.59269997E+02
 20
1.15092909E+02
 11
-2.59092731E+02
 21
1.15124165E+02
  0
LINE
  8
0
 62
4
 10
-2.60856144E+02
 20
1.22936641E+02
 11
-2.60481917E+02
 21
1.23002627E+02
  0
LINE
  8
0
 62
4
 10
-2.59066684E+02
 20
1.14976444E+02
 11
-2.60507964E+02
 21
1.23150348E+02
  0
LINE
  8
0
 62
4
 10
-2.59897383E+02
 20
1.23258010E+02
 11
-2.60444375E+02
 21
1.26360155E+02
  0
LINE
  8
0
 62
4
 10
-2.60374916E+02
 20
1.25966232E+02
 11
-2.59262083E+02
 21
1.26162454E+02
  0
ARC
  8
0
 62
4
 10
-2.69050973E+02
 20
1.20983958E+02
 40
1.18100000E+01
 50
3.57172490E+02
 51
2.28275100E+01
  0
ARC
  8
0
 62
4
 10
-2.59087645E+02
 20
1.25177786E+02
 40
1.00000000E+00
 50
2.28275100E+01
 51
9.99999999E+01
  0
ARC
  8
0
 62
4
 10
-2.58254133E+02
 20
1.20450708E+02
 40
1.00000000E+00
 50
3.28723662E+02
 51
3.57172490E+02
  0
LINE
  8
0
 62
4
 10
-2.61429183E+02
 20
1.26186506E+02
 11
-2.60444375E+02
 21
1.26360155E+02
  0
LINE
  8
0
  6
CENTER
 62
6
 10
-2.64037752E+02
 20
1.13338341E+02
 11
-2.58128906E+02
 21
1.14380230E+02
  0
LINE
  8
0
  6
CENTER
 62
6
 10
-2.61604274E+02
 20
1.16813708E+02
 11
-2.61173287E+02
 21
1.14369465E+02
  0
LINE
  8
0
 62
4
 10
-2.59461010E+02
 20
1.16176197E+02
 11
-2.59142434E+02
 21
1.14369465E+02
  0
LINE
  8
0
 62
4
 10
-2.63400241E+02
 20
1.15481604E+02
 11
-2.59461010E+02
 21
1.16176197E+02
  0
LINE
  8
0
 62
4
 10
-2.62397308E+02
 20
1.14775027E+02
 11
-2.60166719E+02
 21
1.15168340E+02
  0
LINE
  8
0
 62
4
 10
-2.63400241E+02
 20
1.15481604E+02
 11
-2.62397308E+02
 21
1.14775027E+02
  0
LINE
  8
0
 62
4
 10
-2.59461010E+02
 20
1.16176197E+02
 11
-2.60166719E+02
 21
1.15168340E+02
  0
LINE
  8
0
 62
4
 10
-2.60166719E+02
 20
1.15168340E+02
 11
-2.60025855E+02
 21
1.14369465E+02
  0
LINE
  8
0
 62
4
 10
-2.70612170E+02
 20
1.16646971E+02
 11
-2.70210584E+02
 21
1.14369465E+02
  0
LINE
  8
0
 62
4
 10
-2.61550737E+02
 20
1.26875872E+02
 11
-2.71694256E+02
 21
1.25087296E+02
  0
LINE
  8
0
 62
4
 10
-2.71694256E+02
 20
1.25087296E+02
 11
-2.70218247E+02
 21
1.16716430E+02
  0
LINE
  8
0
 62
4
 10
-2.63417606E+02
 20
1.15580085E+02
 11
-2.62925202E+02
 21
1.15666909E+02
  0
LINE
  8
0
 62
4
 10
-2.63417606E+02
 20
1.15580085E+02
 11
-2.63204141E+02
 21
1.14369465E+02
  0
LINE
  8
0
 62
4
 10
-2.62600738E+02
 20
1.16130292E+02
 11
-2.59744796E+02
 21
1.16633871E+02
  0
LINE
  8
0
 62
4
 10
-2.62925202E+02
 20
1.15666909E+02
 11
-2.62600738E+02
 21
1.16130292E+02
  0
LINE
  8
0
  6
CENTER
 62
6
 10
-2.81685146E+02
 20
1.18756213E+02
 11
-2.59600773E+02
 21
1.22650283E+02
  0
LINE
  8
0
  6
CENTER
 62
6
 10
-2.71843510E+02
 20
1.16937565E+02
 11
-2.58993005E+02
 21
1.19203456E+02
  0
ARC
  8
0
 62
4
 10
-2.70623827E+02
 20
1.16137202E+02
 40
5.00000000E-01
 50
9.99999999E+01
 51
1.90000000E+02
  0
LINE
  8
0
 62
4
 10
-2.71116231E+02
 20
1.16050378E+02
 11
-2.70819840E+02
 21
1.14369465E+02
  0
LINE
  8
0
 62
4
 10
-2.70218247E+02
 20
1.16716430E+02
 11
-2.70710651E+02
 21
1.16629606E+02
  0
LINE
  8
0
 62
4
 10
-2.78587911E+02
 20
1.23871758E+02
 11
-2.82283574E+02
 21
1.13718007E+02
  0
LINE
  8
0
 62
4
 10
-2.71694256E+02
 20
1.25087296E+02
 11
-2.78587911E+02
 21
1.23871758E+02
  0
LINE
  8
0
 62
4
 10
-2.84402253E+02
 20
1.07896984E+02
 11
-2.83749969E+02
 21
1.04197700E+02
  0
LINE
  8
0
 62
4
 10
-2.86870871E+02
 20
1.04133570E+02
 11
-2.83833109E+02
 21
1.04669209E+02
  0
LINE
  8
0
 62
4
 10
-2.86176278E+02
 20
1.00194339E+02
 11
-2.83749969E+02
 21
1.00622163E+02
  0
LINE
  8
0
 62
4
 10
-2.86176278E+02
 20
1.00194339E+02
 11
-2.86870871E+02
 21
1.04133570E+02
  0
LINE
  8
0
 62
6
 10
-2.86784047E+02
 20
1.03641166E+02
 11
-2.83746285E+02
 21
1.04176805E+02
  0
LINE
  8
0
 62
6
 10
-2.86263102E+02
 20
1.00686743E+02
 11
-2.83749969E+02
 21
1.01129876E+02
  0
CIRCLE
  8
0
 62
7
 10
2.05094391E+02
 20
5.98694952E+01
 40
2.45850000E+00
  0
CIRCLE
  8
0
 62
7
 10
1.58094421E+02
 20
5.98694647E+01
 40
2.45850000E+00
  0
CIRCLE
  8
0
 62
7
 10
1.58094391E+02
 20
1.06869434E+02
 40
2.45850000E+00
  0
CIRCLE
  8
0
 62
7
 10
2.05094360E+02
 20
1.06869465E+02
 40
2.45850000E+00
  0
CIRCLE
  8
0
 62
2
 10
1.58094391E+02
 20
1.06869434E+02
 40
3.00000000E+00
  0
CIRCLE
  8
0
 62
2
 10
1.58094452E+02
 20
5.98694189E+01
 40
3.00000000E+00
  0
CIRCLE
  8
0
 62
2
 10
2.05094452E+02
 20
5.98694189E+01
 40
3.00000000E+00
  0
CIRCLE
  8
0
 62
2
 10
2.05094391E+02
 20
1.06869434E+02
 40
3.00000000E+00
  0
CIRCLE
  8
0
 62
7
 10
1.81594391E+02
 20
8.33694647E+01
 40
1.90000000E+01
  0
ARC
  8
0
 62
7
 10
1.54594452E+02
 20
7.28381079E+01
 40
1.00000000E+00
 50
1.79999995E+02
 51
2.62819194E+02
  0
ARC
  8
0
 62
7
 10
1.54094452E+02
 20
6.88694799E+01
 40
3.00000000E+00
 50
3.59721781E-05
 51
8.28192198E+01
  0
ARC
  8
0
 62
7
 10
1.58063080E+02
 20
6.78693884E+01
 40
1.00000000E+00
 50
1.87178961E+02
 51
2.70225524E+02
  0
ARC
  8
0
 62
7
 10
1.58094452E+02
 20
5.98694494E+01
 40
7.00000000E+00
 50
3.59775295E+02
 51
9.02245653E+01
  0
ARC
  8
0
 62
7
 10
1.66094391E+02
 20
5.98380773E+01
 40
1.00000000E+00
 50
1.79775319E+02
 51
2.62819204E+02
  0
ARC
  8
0
 62
7
 10
1.67094391E+02
 20
5.58694494E+01
 40
3.00000000E+00
 50
7.18102357E+00
 51
9.00000162E+01
  0
ARC
  8
0
 62
7
 10
1.71063019E+02
 20
5.63694799E+01
 40
1.00000000E+00
 50
1.87181557E+02
 51
2.69999984E+02
  0
CIRCLE
  8
0
 62
7
 10
1.58094452E+02
 20
5.98694342E+01
 40
4.50000000E+00
  0
ARC
  8
0
 62
7
 10
1.54094391E+02
 20
5.58694952E+01
 40
3.50000000E+00
 50
1.80000008E+02
 51
2.69999984E+02
  0
ARC
  8
0
 62
7
 10
1.62157440E+02
 20
6.67608831E+01
 40
1.00000000E+00
 50
2.39477556E+02
 51
3.14999370E+02
  0
ARC
  8
0
 62
7
 10
1.64985870E+02
 20
6.39324530E+01
 40
1.00000000E+00
 50
1.35000656E+02
 51
2.10522249E+02
  0
CIRCLE
  8
0
 62
7
 10
1.58094452E+02
 20
5.98694342E+01
 40
5.00000000E+00
  0
ARC
  8
0
 62
7
 10
1.54594452E+02
 20
8.13694647E+01
 40
1.00000000E+00
 50
9.00000300E+01
 51
1.80000019E+02
  0
ARC
  8
0
 62
7
 10
1.54094452E+02
 20
5.58694952E+01
 40
3.00000000E+00
 50
1.80000008E+02
 51
2.69999984E+02
  0
ARC
  8
0
 62
7
 10
1.79594391E+02
 20
5.63694952E+01
 40
1.00000000E+00
 50
2.69999998E+02
 51
4.96325564E-05
  0
ARC
  8
0
 62
7
 10
1.61694672E+02
 20
8.13694647E+01
 40
1.00000000E+00
 50
5.73949849E+00
 51
9.00000300E+01
  0
ARC
  8
0
 62
7
 10
1.66108917E+02
 20
7.07124365E+01
 40
1.00000000E+00
 50
3.15000019E+02
 51
3.92610168E+01
  0
ARC
  8
0
 62
7
 10
1.68937347E+02
 20
6.78840063E+01
 40
1.00000000E+00
 50
5.07390404E+01
 51
1.35000041E+02
  0
ARC
  8
0
 62
7
 10
1.79594391E+02
 20
6.34697149E+01
 40
1.00000000E+00
 50
4.96325564E-05
 51
8.42605536E+01
  0
ARC
  8
0
 62
7
 10
2.08594391E+02
 20
9.39008215E+01
 40
1.00000000E+00
 50
3.59721781E-05
 51
8.28192267E+01
  0
ARC
  8
0
 62
7
 10
2.05125763E+02
 20
9.88695410E+01
 40
1.00000000E+00
 50
7.17900183E+00
 51
9.02255559E+01
  0
ARC
  8
0
 62
7
 10
1.97094452E+02
 20
1.06900852E+02
 40
1.00000000E+00
 50
3.59775350E+02
 51
8.28192267E+01
  0
ARC
  8
0
 62
7
 10
1.92125763E+02
 20
1.10369449E+02
 40
1.00000000E+00
 50
7.18159727E+00
 51
9.00000162E+01
  0
ARC
  8
0
 62
7
 10
1.96094391E+02
 20
1.10869480E+02
 40
3.00000000E+00
 50
1.87181037E+02
 51
2.69999984E+02
  0
ARC
  8
0
 62
7
 10
2.09094391E+02
 20
9.78694494E+01
 40
3.00000000E+00
 50
1.79999995E+02
 51
2.62819249E+02
  0
CIRCLE
  8
0
 62
7
 10
2.05094391E+02
 20
1.06869480E+02
 40
4.50000000E+00
  0
ARC
  8
0
 62
7
 10
2.09094391E+02
 20
1.10869419E+02
 40
3.50000000E+00
 50
2.23117997E-05
 51
8.99999750E+01
  0
ARC
  8
0
 62
7
 10
2.08594391E+02
 20
8.13694647E+01
 40
1.00000000E+00
 50
8.65142224E-06
 51
9.00000437E+01
  0
ARC
  8
0
 62
7
 10
2.09094391E+02
 20
1.10869419E+02
 40
3.00000000E+00
 50
2.23117997E-05
 51
8.99999750E+01
  0
ARC
  8
0
 62
7
 10
2.05094391E+02
 20
1.06869480E+02
 40
7.00000000E+00
 50
1.79775319E+02
 51
2.70224577E+02
  0
ARC
  8
0
 62
7
 10
2.08594391E+02
 20
8.53694647E+01
 40
1.00000000E+00
 50
2.70000052E+02
 51
3.59721781E-05
  0
ARC
  8
0
 62
7
 10
1.83594391E+02
 20
1.10369434E+02
 40
1.00000000E+00
 50
9.00000025E+01
 51
1.80000046E+02
  0
ARC
  8
0
 62
7
 10
1.98202972E+02
 20
1.02806461E+02
 40
1.00000000E+00
 50
3.15000662E+02
 51
3.05222541E+01
  0
CIRCLE
  8
0
 62
7
 10
2.05094391E+02
 20
1.06869480E+02
 40
5.00000000E+00
  0
ARC
  8
0
 62
7
 10
2.01494171E+02
 20
8.13694647E+01
 40
1.00000000E+00
 50
9.00000437E+01
 51
1.74260556E+02
  0
ARC
  8
0
 62
7
 10
2.01494171E+02
 20
8.53694647E+01
 40
1.00000000E+00
 50
1.85739485E+02
 51
2.70000038E+02
  0
ARC
  8
0
 62
7
 10
1.83594391E+02
 20
1.03269214E+02
 40
1.00000000E+00
 50
1.80000036E+02
 51
2.64260549E+02
  0
ARC
  8
0
 62
7
 10
1.94251434E+02
 20
9.88549230E+01
 40
1.00000000E+00
 50
2.30739011E+02
 51
3.15000026E+02
  0
ARC
  8
0
 62
7
 10
1.97079865E+02
 20
9.60264929E+01
 40
1.00000000E+00
 50
1.35000014E+02
 51
2.19261011E+02
  0
ARC
  8
0
 62
7
 10
1.92125763E+02
 20
5.63694799E+01
 40
1.00000000E+00
 50
2.69999984E+02
 51
3.52818403E+02
  0
ARC
  8
0
 62
7
 10
1.96094391E+02
 20
5.58694494E+01
 40
3.00000000E+00
 50
9.00000162E+01
 51
1.72818963E+02
  0
ARC
  8
0
 62
7
 10
1.97094452E+02
 20
5.98380773E+01
 40
1.00000000E+00
 50
2.77180794E+02
 51
2.24667227E-01
  0
ARC
  8
0
 62
7
 10
2.05094391E+02
 20
5.98694494E+01
 40
7.00000000E+00
 50
8.97754191E+01
 51
1.80224691E+02
  0
ARC
  8
0
 62
7
 10
2.05125763E+02
 20
6.78693884E+01
 40
1.00000000E+00
 50
2.69774444E+02
 51
3.52820998E+02
  0
ARC
  8
0
 62
7
 10
2.09094391E+02
 20
6.88694799E+01
 40
3.00000000E+00
 50
9.71807582E+01
 51
1.80000005E+02
  0
ARC
  8
0
 62
7
 10
2.08594391E+02
 20
7.28381079E+01
 40
1.00000000E+00
 50
2.77180773E+02
 51
3.59999964E+02
  0
ARC
  8
0
 62
7
 10
1.71063019E+02
 20
1.10369449E+02
 40
1.00000000E+00
 50
9.00000162E+01
 51
1.72818444E+02
  0
ARC
  8
0
 62
7
 10
1.67094391E+02
 20
1.10869480E+02
 40
3.00000000E+00
 50
2.69999984E+02
 51
3.52818976E+02
  0
ARC
  8
0
 62
7
 10
1.66094391E+02
 20
1.06900852E+02
 40
1.00000000E+00
 50
9.71808057E+01
 51
1.80224691E+02
  0
ARC
  8
0
 62
7
 10
1.58094452E+02
 20
1.06869480E+02
 40
7.00000000E+00
 50
2.69775448E+02
 51
2.24721868E-01
  0
ARC
  8
0
 62
7
 10
1.58063080E+02
 20
9.88695410E+01
 40
1.00000000E+00
 50
8.97744765E+01
 51
1.72821039E+02
  0
ARC
  8
0
 62
7
 10
1.54094452E+02
 20
9.78694494E+01
 40
3.00000000E+00
 50
2.77180780E+02
 51
1.86693353E-05
  0
ARC
  8
0
 62
7
 10
1.54594452E+02
 20
9.39008215E+01
 40
1.00000000E+00
 50
9.71808057E+01
 51
1.80000005E+02
  0
CIRCLE
  8
0
 62
7
 10
2.05094452E+02
 20
5.98694952E+01
 40
4.50000000E+00
  0
ARC
  8
0
 62
7
 10
2.09094391E+02
 20
5.58694647E+01
 40
3.50000000E+00
 50
2.70000011E+02
 51
3.59999964E+02
  0
CIRCLE
  8
0
 62
7
 10
1.58094391E+02
 20
1.06869434E+02
 40
4.50000000E+00
  0
ARC
  8
0
 62
7
 10
1.54094452E+02
 20
1.10869465E+02
 40
3.50000000E+00
 50
9.00000162E+01
 51
1.80000005E+02
  0
ARC
  8
0
 62
7
 10
1.98202972E+02
 20
6.39325140E+01
 40
1.00000000E+00
 50
3.29477575E+02
 51
4.49993865E+01
  0
ARC
  8
0
 62
7
 10
2.01031403E+02
 20
6.67609136E+01
 40
1.00000000E+00
 50
2.25000642E+02
 51
3.00522242E+02
  0
CIRCLE
  8
0
 62
7
 10
2.05094452E+02
 20
5.98694952E+01
 40
5.00000000E+00
  0
ARC
  8
0
 62
7
 10
1.83594391E+02
 20
5.63694952E+01
 40
1.00000000E+00
 50
1.80000022E+02
 51
2.70000011E+02
  0
ARC
  8
0
 62
7
 10
2.09094391E+02
 20
5.58694952E+01
 40
3.00000000E+00
 50
2.70000011E+02
 51
3.59999964E+02
  0
ARC
  8
0
 62
7
 10
1.64985809E+02
 20
1.02806415E+02
 40
1.00000000E+00
 50
1.49477556E+02
 51
2.24999381E+02
  0
ARC
  8
0
 62
7
 10
2.01031403E+02
 20
9.99780157E+01
 40
1.00000000E+00
 50
5.94777466E+01
 51
1.34999343E+02
  0
CIRCLE
  8
0
 62
7
 10
1.58094391E+02
 20
1.06869434E+02
 40
5.00000000E+00
  0
ARC
  8
0
 62
7
 10
1.79594391E+02
 20
1.10369434E+02
 40
1.00000000E+00
 50
3.59721781E-05
 51
9.00000162E+01
  0
ARC
  8
0
 62
7
 10
1.54094452E+02
 20
1.10869434E+02
 40
3.00000000E+00
 50
9.00000162E+01
 51
1.80000005E+02
  0
ARC
  8
0
 62
7
 10
1.54594452E+02
 20
8.53694647E+01
 40
1.00000000E+00
 50
1.79999995E+02
 51
2.70000038E+02
  0
ARC
  8
0
 62
7
 10
1.61694672E+02
 20
8.53694494E+01
 40
1.00000000E+00
 50
2.70000038E+02
 51
3.54260543E+02
  0
ARC
  8
0
 62
7
 10
1.68937347E+02
 20
9.88549383E+01
 40
1.00000000E+00
 50
2.25000000E+02
 51
3.09261001E+02
  0
ARC
  8
0
 62
7
 10
1.66108917E+02
 20
9.60265081E+01
 40
1.00000000E+00
 50
3.20739045E+02
 51
4.50000423E+01
  0
ARC
  8
0
 62
7
 10
1.83594391E+02
 20
6.34697149E+01
 40
1.00000000E+00
 50
9.57394995E+01
 51
1.80000032E+02
  0
ARC
  8
0
 62
7
 10
1.79594391E+02
 20
1.03269214E+02
 40
1.00000000E+00
 50
2.75739515E+02
 51
3.59721781E-05
  0
ARC
  8
0
 62
7
 10
1.94251434E+02
 20
6.78839910E+01
 40
1.00000000E+00
 50
4.50000149E+01
 51
1.29261016E+02
  0
ARC
  8
0
 62
7
 10
1.97079865E+02
 20
7.07124212E+01
 40
1.00000000E+00
 50
1.40739039E+02
 51
2.25000037E+02
  0
LINE
  8
0
 62
7
 10
2.05094393E+02
 20
1.10333534E+02
 11
2.08094391E+02
 21
1.08601484E+02
  0
LINE
  8
0
 62
7
 10
2.08094391E+02
 20
1.08601490E+02
 11
2.08094391E+02
 21
1.05137378E+02
  0
LINE
  8
0
 62
7
 10
2.08094389E+02
 20
1.05137382E+02
 11
2.05094387E+02
 21
1.03405330E+02
  0
LINE
  8
0
 62
7
 10
2.05094391E+02
 20
1.03405331E+02
 11
2.02094393E+02
 21
1.05137381E+02
  0
LINE
  8
0
 62
7
 10
2.02094391E+02
 20
1.08601490E+02
 11
2.02094391E+02
 21
1.05137378E+02
  0
LINE
  8
0
 62
7
 10
2.05094389E+02
 20
1.10333534E+02
 11
2.02094387E+02
 21
1.08601482E+02
  0
LINE
  8
0
 62
7
 10
2.05094452E+02
 20
6.33335181E+01
 11
2.08094452E+02
 21
6.16014672E+01
  0
LINE
  8
0
 62
7
 10
2.08094452E+02
 20
6.16014669E+01
 11
2.08094452E+02
 21
5.81373709E+01
  0
LINE
  8
0
 62
7
 10
2.08094451E+02
 20
5.81373661E+01
 11
2.05094449E+02
 21
5.64053143E+01
  0
LINE
  8
0
 62
7
 10
2.05094452E+02
 20
5.64053149E+01
 11
2.02094452E+02
 21
5.81373658E+01
  0
LINE
  8
0
 62
7
 10
2.02094452E+02
 20
6.16014669E+01
 11
2.02094452E+02
 21
5.81373709E+01
  0
LINE
  8
0
 62
7
 10
2.05094451E+02
 20
6.33335184E+01
 11
2.02094449E+02
 21
6.16014666E+01
  0
LINE
  8
0
 62
7
 10
1.58094451E+02
 20
6.33335193E+01
 11
1.61094453E+02
 21
6.16014674E+01
  0
LINE
  8
0
 62
7
 10
1.61094452E+02
 20
6.16014669E+01
 11
1.61094452E+02
 21
5.81373709E+01
  0
LINE
  8
0
 62
7
 10
1.61094452E+02
 20
5.81373659E+01
 11
1.58094452E+02
 21
5.64053150E+01
  0
LINE
  8
0
 62
7
 10
1.58094453E+02
 20
5.64053151E+01
 11
1.55094451E+02
 21
5.81373669E+01
  0
LINE
  8
0
 62
7
 10
1.55094452E+02
 20
6.16014669E+01
 11
1.55094452E+02
 21
5.81373709E+01
  0
LINE
  8
0
 62
7
 10
1.58094452E+02
 20
6.33335182E+01
 11
1.55094452E+02
 21
6.16014673E+01
  0
LINE
  8
0
 62
7
 10
1.58094391E+02
 20
1.10333536E+02
 11
1.61094392E+02
 21
1.08601484E+02
  0
LINE
  8
0
 62
7
 10
1.61094391E+02
 20
1.08601490E+02
 11
1.61094391E+02
 21
1.05137378E+02
  0
LINE
  8
0
 62
7
 10
1.61094389E+02
 20
1.05137382E+02
 11
1.58094391E+02
 21
1.03405332E+02
  0
LINE
  8
0
 62
7
 10
1.58094392E+02
 20
1.03405331E+02
 11
1.55094391E+02
 21
1.05137383E+02
  0
LINE
  8
0
 62
7
 10
1.55094391E+02
 20
1.08601490E+02
 11
1.55094391E+02
 21
1.05137378E+02
  0
LINE
  8
0
 62
7
 10
1.58094389E+02
 20
1.10333534E+02
 11
1.55094391E+02
 21
1.08601484E+02
  0
LINE
  8
0
  6
CENTER
 62
2
 10
1.88594513E+02
 20
1.16554523E+02
 11
1.88594513E+02
 21
1.04669254E+02
  0
LINE
  8
0
  6
CENTER
 62
2
 10
1.96057098E+02
 20
5.98694189E+01
 11
2.14826996E+02
 21
5.98694189E+01
  0
LINE
  8
0
  6
CENTER
 62
2
 10
1.95707306E+02
 20
1.06869434E+02
 11
2.14826996E+02
 21
1.06869434E+02
  0
LINE
  8
0
  6
CENTER
 62
2
 10
1.46946503E+02
 20
8.33694647E+01
 11
2.16109467E+02
 21
8.33694647E+01
  0
LINE
  8
0
 62
7
 10
1.57094452E+02
 20
6.76207464E+01
 11
1.57094452E+02
 21
6.88694799E+01
  0
LINE
  8
0
 62
7
 10
1.65845978E+02
 20
5.88694189E+01
 11
1.67094391E+02
 21
5.88694189E+01
  0
LINE
  8
0
 62
7
 10
1.97343170E+02
 20
5.88695104E+01
 11
1.96094391E+02
 21
5.88695104E+01
  0
LINE
  8
0
 62
7
 10
2.06094452E+02
 20
6.76212347E+01
 11
2.06094452E+02
 21
6.88694799E+01
  0
LINE
  8
0
 62
7
 10
1.57094391E+02
 20
9.91178167E+01
 11
1.57094391E+02
 21
9.78694494E+01
  0
LINE
  8
0
 62
7
 10
1.65845673E+02
 20
1.07869434E+02
 11
1.67094391E+02
 21
1.07869434E+02
  0
LINE
  8
0
 62
7
 10
1.97342804E+02
 20
1.07869510E+02
 11
1.96094391E+02
 21
1.07869510E+02
  0
LINE
  8
0
 62
7
 10
2.06094391E+02
 20
9.91180609E+01
 11
2.06094391E+02
 21
9.78694494E+01
  0
LINE
  8
0
 62
7
 10
1.50594452E+02
 20
5.58694952E+01
 11
1.50594452E+02
 21
1.10869465E+02
  0
LINE
  8
0
  6
CENTER
 62
2
 10
1.58094452E+02
 20
5.02083929E+01
 11
1.58094452E+02
 21
6.90654562E+01
  0
LINE
  8
0
 62
7
 10
1.59594391E+02
 20
5.28694799E+01
 11
1.59594391E+02
 21
5.23694799E+01
  0
LINE
  8
0
 62
7
 10
2.03594391E+02
 20
5.28695104E+01
 11
2.03594391E+02
 21
5.23694799E+01
  0
LINE
  8
0
 62
7
 10
2.03594391E+02
 20
1.14369465E+02
 11
2.03594391E+02
 21
1.13869465E+02
  0
LINE
  8
0
 62
7
 10
1.59594391E+02
 20
1.14369465E+02
 11
1.59594391E+02
 21
1.13869434E+02
  0
LINE
  8
0
 62
7
 10
1.71063019E+02
 20
5.53694799E+01
 11
1.92125763E+02
 21
5.53694799E+01
  0
LINE
  8
0
 62
7
 10
1.53594452E+02
 20
7.28381079E+01
 11
1.53594452E+02
 21
9.39008215E+01
  0
LINE
  8
0
  6
CENTER
 62
2
 10
1.47908051E+02
 20
5.98694189E+01
 11
1.67610687E+02
 21
5.98694189E+01
  0
LINE
  8
0
  6
CENTER
 62
2
 10
1.81594391E+02
 20
1.18130115E+02
 11
1.81594391E+02
 21
5.00425909E+01
  0
LINE
  8
0
 62
7
 10
1.54094391E+02
 20
5.23694799E+01
 11
2.09094391E+02
 21
5.23694799E+01
  0
LINE
  8
0
 62
7
 10
1.54094452E+02
 20
5.28694799E+01
 11
2.09094391E+02
 21
5.28695104E+01
  0
LINE
  8
0
 62
7
 10
1.51094452E+02
 20
5.58694952E+01
 11
1.51094452E+02
 21
1.10869434E+02
  0
LINE
  8
0
 62
7
 10
1.54594452E+02
 20
8.23694647E+01
 11
1.61694672E+02
 21
8.23694647E+01
  0
LINE
  8
0
 62
7
 10
1.68230294E+02
 20
6.85911362E+01
 11
1.64278757E+02
 21
6.46395982E+01
  0
LINE
  8
0
 62
7
 10
1.66816080E+02
 20
7.00053928E+01
 11
1.62864565E+02
 21
6.60538763E+01
  0
LINE
  8
0
 62
7
 10
1.80594452E+02
 20
5.63694952E+01
 11
1.80594452E+02
 21
6.34697149E+01
  0
LINE
  8
0
  6
CENTER
 62
2
 10
2.05094391E+02
 20
1.16423145E+02
 11
2.05094391E+02
 21
9.89850958E+01
  0
LINE
  8
0
 62
7
 10
2.12594391E+02
 20
5.58694647E+01
 11
2.12594391E+02
 21
1.10869434E+02
  0
LINE
  8
0
 62
7
 10
2.12094391E+02
 20
5.58694952E+01
 11
2.12094391E+02
 21
1.10869434E+02
  0
LINE
  8
0
 62
7
 10
2.09594391E+02
 20
7.28381079E+01
 11
2.09594391E+02
 21
9.39008215E+01
  0
LINE
  8
0
 62
7
 10
1.71063019E+02
 20
1.11369449E+02
 11
1.92125763E+02
 21
1.11369449E+02
  0
LINE
  8
0
 62
7
 10
1.54094452E+02
 20
1.13869434E+02
 11
2.09094391E+02
 21
1.13869465E+02
  0
LINE
  8
0
 62
7
 10
2.08594391E+02
 20
8.23694952E+01
 11
2.01494171E+02
 21
8.23694952E+01
  0
LINE
  8
0
 62
7
 10
2.08594391E+02
 20
8.43694952E+01
 11
2.01494171E+02
 21
8.43694952E+01
  0
LINE
  8
0
 62
7
 10
1.96372826E+02
 20
9.67335092E+01
 11
2.00324364E+02
 21
1.00685047E+02
  0
LINE
  8
0
 62
7
 10
1.94958613E+02
 20
9.81477229E+01
 11
1.98910194E+02
 21
1.02099303E+02
  0
LINE
  8
0
 62
7
 10
1.68230414E+02
 20
9.81479914E+01
 11
1.64278897E+02
 21
1.02099507E+02
  0
LINE
  8
0
 62
7
 10
1.66816179E+02
 20
9.67337559E+01
 11
1.62864662E+02
 21
1.00685271E+02
  0
LINE
  8
0
 62
7
 10
1.54594452E+02
 20
8.43694494E+01
 11
1.61694672E+02
 21
8.43694494E+01
  0
LINE
  8
0
  6
CENTER
 62
2
 10
1.48141266E+02
 20
1.06869434E+02
 11
1.67843842E+02
 21
1.06869434E+02
  0
LINE
  8
0
 62
7
 10
1.96372848E+02
 20
7.00054435E+01
 11
2.00324408E+02
 21
6.60538845E+01
  0
LINE
  8
0
 62
7
 10
1.94958624E+02
 20
6.85912406E+01
 11
1.98910183E+02
 21
6.46396817E+01
  0
LINE
  8
0
 62
7
 10
1.82594452E+02
 20
5.63694952E+01
 11
1.82594452E+02
 21
6.34697149E+01
  0
LINE
  8
0
 62
7
 10
1.80594391E+02
 20
1.10369434E+02
 11
1.80594391E+02
 21
1.03269214E+02
  0
LINE
  8
0
 62
7
 10
1.54094452E+02
 20
1.14369465E+02
 11
2.09094391E+02
 21
1.14369465E+02
  0
LINE
  8
0
 62
7
 10
1.82594391E+02
 20
1.10369434E+02
 11
1.82594391E+02
 21
1.03269184E+02
  0
LINE
  8
0
  6
CENTER
 62
2
 10
1.58094391E+02
 20
1.16847706E+02
 11
1.58094391E+02
 21
9.71450842E+01
  0
LINE
  8
0
  6
CENTER
 62
2
 10
2.05094452E+02
 20
5.02785070E+01
 11
2.05094452E+02
 21
6.91650427E+01
  0
LINE
  8
0
  6
CENTER
 62
6
 10
1.49060438E+02
 20
1.02382539E+02
 11
1.56526443E+02
 21
1.03698997E+02
  0
LINE
  8
0
  6
CENTER
 62
6
 10
1.73171073E+02
 20
1.14369465E+02
 11
1.73781976E+02
 21
1.10904862E+02
  0
LINE
  8
0
 62
4
 10
1.72018564E+02
 20
1.14369465E+02
 11
1.71947052E+02
 21
1.14775027E+02
  0
LINE
  8
0
  6
CENTER
 62
6
 10
1.90017709E+02
 20
1.14369465E+02
 11
1.89406806E+02
 21
1.10904862E+02
  0
LINE
  8
0
  6
CENTER
 62
6
 10
1.87034379E+02
 20
1.14369465E+02
 11
1.86973327E+02
 21
1.14380230E+02
  0
LINE
  8
0
 62
4
 10
2.12594330E+02
 20
1.09689286E+02
 11
2.13246675E+02
 21
1.07896984E+02
  0
LINE
  8
0
 62
4
 10
1.50594391E+02
 20
1.09689118E+02
 11
1.49942107E+02
 21
1.07896984E+02
  0
LINE
  8
0
 62
4
 10
1.88311380E+02
 20
1.15058179E+02
 11
1.90395158E+02
 21
1.26875872E+02
  0
ARC
  8
0
 62
4
 10
1.97788854E+02
 20
1.17440893E+02
 40
1.18100000E+01
 50
1.70000000E+02
 51
1.90532699E+02
  0
ARC
  8
0
 62
4
 10
1.97791542E+02
 20
1.17456135E+02
 40
1.18100000E+01
 50
1.67900933E+02
 51
1.70000000E+02
  0
LINE
  8
0
 62
4
 10
1.87911106E+02
 20
1.14976444E+02
 11
1.86177844E+02
 21
1.15282065E+02
  0
LINE
  8
0
 62
4
 10
1.88311380E+02
 20
1.15058179E+02
 11
1.87937153E+02
 21
1.15124165E+02
  0
LINE
  8
0
 62
4
 10
1.87911106E+02
 20
1.14976444E+02
 11
1.88579651E+02
 21
1.18767954E+02
  0
LINE
  8
0
 62
4
 10
1.87969070E+02
 20
1.18875616E+02
 11
1.89288796E+02
 21
1.26360155E+02
  0
LINE
  8
0
 62
4
 10
1.89219337E+02
 20
1.25966232E+02
 11
1.88106504E+02
 21
1.26162454E+02
  0
LINE
  8
0
 62
4
 10
1.88038530E+02
 20
1.19269539E+02
 11
1.86925697E+02
 21
1.19465761E+02
  0
ARC
  8
0
 62
4
 10
1.97895394E+02
 20
1.20983958E+02
 40
1.18100000E+01
 50
1.57172490E+02
 51
1.82827510E+02
  0
ARC
  8
0
 62
4
 10
1.87932066E+02
 20
1.25177786E+02
 40
1.00000000E+00
 50
7.99999999E+01
 51
1.57172490E+02
  0
ARC
  8
0
 62
4
 10
1.87098555E+02
 20
1.20450708E+02
 40
1.00000000E+00
 50
1.82827510E+02
 51
2.60000000E+02
  0
LINE
  8
0
 62
4
 10
1.90273604E+02
 20
1.26186506E+02
 11
1.89288796E+02
 21
1.26360155E+02
  0
LINE
  8
0
 62
4
 10
1.88953878E+02
 20
1.18701968E+02
 11
1.87969070E+02
 21
1.18875616E+02
  0
ARC
  8
0
 62
4
 10
1.90057987E+02
 20
1.14597891E+02
 40
5.00000000E-01
 50
3.32815800E+02
 51
2.07184200E+02
  0
ARC
  8
0
 62
4
 10
1.90057987E+02
 20
1.14597891E+02
 40
3.00000000E-01
 50
3.10410364E+02
 51
2.29589636E+02
  0
ARC
  8
0
 62
4
 10
1.89927750E+02
 20
1.13859285E+02
 40
1.50000000E+00
 50
1.98841649E+01
 51
1.60115835E+02
  0
LINE
  8
0
 62
4
 10
2.13246675E+02
 20
1.07896984E+02
 11
2.12594330E+02
 21
1.04197353E+02
  0
LINE
  8
0
 62
4
 10
2.00538678E+02
 20
1.25087296E+02
 11
2.07432332E+02
 21
1.23871758E+02
  0
LINE
  8
0
 62
4
 10
2.07432332E+02
 20
1.23871758E+02
 11
2.11127994E+02
 21
1.13718010E+02
  0
LINE
  8
0
 62
4
 10
1.99062668E+02
 20
1.16716430E+02
 11
1.99555072E+02
 21
1.16629606E+02
  0
LINE
  8
0
 62
4
 10
1.99960652E+02
 20
1.16050378E+02
 11
1.99664262E+02
 21
1.14369465E+02
  0
ARC
  8
0
 62
4
 10
1.99468248E+02
 20
1.16137202E+02
 40
5.00000000E-01
 50
3.50000000E+02
 51
7.99999999E+01
  0
LINE
  8
0
  6
CENTER
 62
6
 10
2.06662339E+02
 20
1.03698997E+02
 11
2.14128343E+02
 21
1.02382539E+02
  0
LINE
  8
0
  6
CENTER
 62
6
 10
2.00687931E+02
 20
1.16937565E+02
 11
1.87837426E+02
 21
1.19203456E+02
  0
LINE
  8
0
  6
CENTER
 62
6
 10
2.10529567E+02
 20
1.18756213E+02
 11
1.88445195E+02
 21
1.22650283E+02
  0
LINE
  8
0
 62
4
 10
1.91769623E+02
 20
1.15666909E+02
 11
1.91445159E+02
 21
1.16130292E+02
  0
LINE
  8
0
 62
4
 10
1.91445159E+02
 20
1.16130292E+02
 11
1.88589217E+02
 21
1.16633871E+02
  0
LINE
  8
0
 62
4
 10
1.92262027E+02
 20
1.15580085E+02
 11
1.92048562E+02
 21
1.14369465E+02
  0
LINE
  8
0
 62
4
 10
1.92262027E+02
 20
1.15580085E+02
 11
1.91769623E+02
 21
1.15666909E+02
  0
LINE
  8
0
 62
4
 10
2.00538678E+02
 20
1.25087296E+02
 11
1.99062668E+02
 21
1.16716430E+02
  0
LINE
  8
0
 62
4
 10
1.90395158E+02
 20
1.26875872E+02
 11
2.00538678E+02
 21
1.25087296E+02
  0
LINE
  8
0
 62
4
 10
1.99456591E+02
 20
1.16646971E+02
 11
1.99055006E+02
 21
1.14369465E+02
  0
LINE
  8
0
 62
4
 10
1.92244662E+02
 20
1.15481604E+02
 11
1.88305431E+02
 21
1.16176197E+02
  0
LINE
  8
0
 62
4
 10
1.88305431E+02
 20
1.16176197E+02
 11
1.87986856E+02
 21
1.14369465E+02
  0
LINE
  8
0
  6
CENTER
 62
6
 10
1.90448695E+02
 20
1.16813708E+02
 11
1.90017709E+02
 21
1.14369465E+02
  0
LINE
  8
0
  6
CENTER
 62
6
 10
1.92882174E+02
 20
1.13338341E+02
 11
1.87034379E+02
 21
1.14369465E+02
  0
LINE
  8
0
 62
4
 10
2.15715292E+02
 20
1.04133570E+02
 11
2.12677531E+02
 21
1.04669209E+02
  0
LINE
  8
0
 62
4
 10
2.15020700E+02
 20
1.00194339E+02
 11
2.12594330E+02
 21
1.00622173E+02
  0
LINE
  8
0
 62
6
 10
2.15628468E+02
 20
1.03641166E+02
 11
2.12590707E+02
 21
1.04176805E+02
  0
LINE
  8
0
 62
6
 10
2.15107524E+02
 20
1.00686743E+02
 11
2.12594330E+02
 21
1.01129887E+02
  0
LINE
  8
0
 62
4
 10
2.15020700E+02
 20
1.00194339E+02
 11
2.15715292E+02
 21
1.04133570E+02
  0
LINE
  8
0
 62
4
 10
1.74686389E+02
 20
1.16141467E+02
 11
1.72793624E+02
 21
1.26875872E+02
  0
ARC
  8
0
 62
4
 10
1.65399927E+02
 20
1.17440893E+02
 40
1.18100000E+01
 50
3.49467301E+02
 51
9.99999999E+00
  0
ARC
  8
0
 62
4
 10
1.65397240E+02
 20
1.17456135E+02
 40
1.18100000E+01
 50
9.99999999E+00
 51
3.05326991E+01
  0
LINE
  8
0
 62
4
 10
1.75277676E+02
 20
1.14976444E+02
 11
1.77010938E+02
 21
1.15282065E+02
  0
LINE
  8
0
 62
4
 10
1.73836396E+02
 20
1.23150348E+02
 11
1.75569658E+02
 21
1.23455969E+02
  0
LINE
  8
0
 62
4
 10
1.75074363E+02
 20
1.15092909E+02
 11
1.75251629E+02
 21
1.15124165E+02
  0
LINE
  8
0
 62
4
 10
1.73488216E+02
 20
1.22936641E+02
 11
1.73862443E+02
 21
1.23002627E+02
  0
LINE
  8
0
 62
4
 10
1.75277676E+02
 20
1.14976444E+02
 11
1.73836396E+02
 21
1.23150348E+02
  0
LINE
  8
0
 62
4
 10
1.74446977E+02
 20
1.23258010E+02
 11
1.73899985E+02
 21
1.26360155E+02
  0
LINE
  8
0
 62
4
 10
1.73969445E+02
 20
1.25966232E+02
 11
1.75082277E+02
 21
1.26162454E+02
  0
ARC
  8
0
 62
4
 10
1.65293387E+02
 20
1.20983958E+02
 40
1.18100000E+01
 50
3.57172490E+02
 51
2.28275100E+01
  0
ARC
  8
0
 62
4
 10
1.75256716E+02
 20
1.25177786E+02
 40
1.00000000E+00
 50
2.28275100E+01
 51
9.99999999E+01
  0
ARC
  8
0
 62
4
 10
1.76090227E+02
 20
1.20450708E+02
 40
1.00000000E+00
 50
3.28723662E+02
 51
3.57172490E+02
  0
LINE
  8
0
 62
4
 10
1.72915178E+02
 20
1.26186506E+02
 11
1.73899985E+02
 21
1.26360155E+02
  0
LINE
  8
0
  6
CENTER
 62
6
 10
1.70306608E+02
 20
1.13338341E+02
 11
1.76215455E+02
 21
1.14380230E+02
  0
LINE
  8
0
  6
CENTER
 62
6
 10
1.72740087E+02
 20
1.16813708E+02
 11
1.73171073E+02
 21
1.14369465E+02
  0
LINE
  8
0
 62
4
 10
1.74883350E+02
 20
1.16176197E+02
 11
1.75201926E+02
 21
1.14369465E+02
  0
LINE
  8
0
 62
4
 10
1.70944119E+02
 20
1.15481604E+02
 11
1.74883350E+02
 21
1.16176197E+02
  0
LINE
  8
0
 62
4
 10
1.71947052E+02
 20
1.14775027E+02
 11
1.74177642E+02
 21
1.15168340E+02
  0
LINE
  8
0
 62
4
 10
1.70944119E+02
 20
1.15481604E+02
 11
1.71947052E+02
 21
1.14775027E+02
  0
LINE
  8
0
 62
4
 10
1.74883350E+02
 20
1.16176197E+02
 11
1.74177642E+02
 21
1.15168340E+02
  0
LINE
  8
0
 62
4
 10
1.74177642E+02
 20
1.15168340E+02
 11
1.74318505E+02
 21
1.14369465E+02
  0
LINE
  8
0
 62
4
 10
1.63732190E+02
 20
1.16646971E+02
 11
1.64133776E+02
 21
1.14369465E+02
  0
LINE
  8
0
 62
4
 10
1.72793624E+02
 20
1.26875872E+02
 11
1.62650104E+02
 21
1.25087296E+02
  0
LINE
  8
0
 62
4
 10
1.62650104E+02
 20
1.25087296E+02
 11
1.64126113E+02
 21
1.16716430E+02
  0
LINE
  8
0
 62
4
 10
1.70926755E+02
 20
1.15580085E+02
 11
1.71419159E+02
 21
1.15666909E+02
  0
LINE
  8
0
 62
4
 10
1.70926755E+02
 20
1.15580085E+02
 11
1.71140220E+02
 21
1.14369465E+02
  0
LINE
  8
0
 62
4
 10
1.71743622E+02
 20
1.16130292E+02
 11
1.74599565E+02
 21
1.16633871E+02
  0
LINE
  8
0
 62
4
 10
1.71419159E+02
 20
1.15666909E+02
 11
1.71743622E+02
 21
1.16130292E+02
  0
LINE
  8
0
  6
CENTER
 62
6
 10
1.52659215E+02
 20
1.18756213E+02
 11
1.74743587E+02
 21
1.22650283E+02
  0
LINE
  8
0
  6
CENTER
 62
6
 10
1.62500850E+02
 20
1.16937565E+02
 11
1.75351356E+02
 21
1.19203456E+02
  0
ARC
  8
0
 62
4
 10
1.63720534E+02
 20
1.16137202E+02
 40
5.00000000E-01
 50
9.99999999E+01
 51
1.90000000E+02
  0
LINE
  8
0
 62
4
 10
1.63228130E+02
 20
1.16050378E+02
 11
1.63524520E+02
 21
1.14369465E+02
  0
LINE
  8
0
 62
4
 10
1.64126113E+02
 20
1.16716430E+02
 11
1.63633710E+02
 21
1.16629606E+02
  0
LINE
  8
0
 62
4
 10
1.55756450E+02
 20
1.23871758E+02
 11
1.52060786E+02
 21
1.13718007E+02
  0
LINE
  8
0
 62
4
 10
1.62650104E+02
 20
1.25087296E+02
 11
1.55756450E+02
 21
1.23871758E+02
  0
LINE
  8
0
 62
4
 10
1.49942107E+02
 20
1.07896984E+02
 11
1.50594391E+02
 21
1.04197700E+02
  0
LINE
  8
0
 62
4
 10
1.47473489E+02
 20
1.04133570E+02
 11
1.50511251E+02
 21
1.04669209E+02
  0
LINE
  8
0
 62
4
 10
1.48168082E+02
 20
1.00194339E+02
 11
1.50594391E+02
 21
1.00622163E+02
  0
LINE
  8
0
 62
4
 10
1.48168082E+02
 20
1.00194339E+02
 11
1.47473489E+02
 21
1.04133570E+02
  0
LINE
  8
0
 62
6
 10
1.47560313E+02
 20
1.03641166E+02
 11
1.50598075E+02
 21
1.04176805E+02
  0
LINE
  8
0
 62
6
 10
1.48081258E+02
 20
1.00686743E+02
 11
1.50594391E+02
 21
1.01129876E+02
  0
LINE
  8
0
  6
PHANTOM
 10
-9.25000000E+00
 20
2.42628397E+02
 11
-9.25000000E+00
 21
1.45543841E+02
  0
LINE
  8
0
 62
2
 10
-1.32249969E+02
 20
1.95189472E+02
 11
-1.23249969E+02
 21
1.95189472E+02
  0
LINE
  8
0
 62
7
 10
-1.32249969E+02
 20
1.94369465E+02
 11
-1.23249969E+02
 21
1.94369465E+02
  0
LINE
  8
0
 62
2
 10
-1.32249969E+02
 20
2.11549457E+02
 11
-1.23249969E+02
 21
2.11549457E+02
  0
LINE
  8
0
 62
7
 10
-1.32249969E+02
 20
2.12369465E+02
 11
-1.23249969E+02
 21
2.12369465E+02
  0
LINE
  8
0
 62
4
 10
-1.33455741E+02
 20
2.03369465E+02
 11
-1.42044198E+02
 21
2.03369465E+02
  0
LINE
  8
0
 62
4
 10
-1.32249969E+02
 20
1.89869465E+02
 11
-1.43249969E+02
 21
1.89869465E+02
  0
ARC
  8
0
 62
4
 10
-1.51746362E+02
 20
1.96619465E+02
 40
1.94963929E+01
 50
3.39743842E+02
 51
2.02561580E+01
  0
ARC
  8
0
 62
4
 10
-1.23753577E+02
 20
1.96619465E+02
 40
1.94963929E+01
 50
1.59743842E+02
 51
2.00256158E+02
  0
LINE
  8
0
 62
4
 10
-1.32249969E+02
 20
2.16869465E+02
 11
-1.43249969E+02
 21
2.16869465E+02
  0
ARC
  8
0
 62
4
 10
-1.51746362E+02
 20
2.10119465E+02
 40
1.94963929E+01
 50
3.39743842E+02
 51
2.02561580E+01
  0
ARC
  8
0
 62
4
 10
-1.23753577E+02
 20
2.10119465E+02
 40
1.94963929E+01
 50
1.59743842E+02
 51
2.00256158E+02
  0
LINE
  8
0
 62
4
 10
-1.43249969E+02
 20
2.16869465E+02
 11
-1.43249969E+02
 21
1.89869465E+02
  0
LINE
  8
0
 62
4
 10
-1.32249969E+02
 20
2.16869465E+02
 11
-1.32249969E+02
 21
1.89869465E+02
  0
CIRCLE
  8
0
 62
7
 10
5.47500458E+01
 20
2.10369373E+02
 40
7.44000006E+00
  0
CIRCLE
  8
0
 62
7
 10
5.47500458E+01
 20
2.10369373E+02
 40
8.71000004E+00
  0
CIRCLE
  8
0
 62
7
 10
4.87500153E+01
 20
1.91369434E+02
 40
5.00000000E+00
  0
CIRCLE
  8
0
 62
7
 10
4.87500153E+01
 20
1.91369434E+02
 40
2.59999990E+00
  0
CIRCLE
  8
0
 62
2
 10
5.47500458E+01
 20
2.10369373E+02
 40
8.32999992E+00
  0
CIRCLE
  8
0
 62
7
 10
-7.12500153E+01
 20
1.91369434E+02
 40
2.59999990E+00
  0
CIRCLE
  8
0
 62
2
 10
-7.72500458E+01
 20
2.10369373E+02
 40
8.32999992E+00
  0
CIRCLE
  8
0
 62
7
 10
-7.72500458E+01
 20
2.10369373E+02
 40
7.44000006E+00
  0
CIRCLE
  8
0
 62
7
 10
-7.72500458E+01
 20
2.10369373E+02
 40
8.71000004E+00
  0
CIRCLE
  8
0
 62
7
 10
-7.12500153E+01
 20
1.91369434E+02
 40
5.00000000E+00
  0
ARC
  8
0
 62
7
 10
6.57500000E+01
 20
2.23369434E+02
 40
2.00000000E+00
 50
5.46415133E-05
 51
9.00000913E+01
  0
ARC
  8
0
 62
7
 10
6.57500000E+01
 20
1.83369434E+02
 40
2.00000000E+00
 50
2.70000073E+02
 51
5.46415133E-05
  0
ARC
  8
0
 62
7
 10
7.42500000E+01
 20
2.21869404E+02
 40
5.00000000E-01
 50
5.46415133E-05
 51
9.00000369E+01
  0
ARC
  8
0
 62
7
 10
7.42500000E+01
 20
1.84869404E+02
 40
5.00000000E-01
 50
2.70000073E+02
 51
5.46415133E-05
  0
ARC
  8
0
 62
7
 10
-8.82500000E+01
 20
1.83369434E+02
 40
2.00000000E+00
 50
1.79999981E+02
 51
2.70000018E+02
  0
ARC
  8
0
 62
7
 10
-8.82500000E+01
 20
2.23369434E+02
 40
2.00000000E+00
 50
8.99999818E+01
 51
1.79999964E+02
  0
ARC
  8
0
 62
7
 10
-1.09750000E+02
 20
1.86869495E+02
 40
5.00000000E-01
 50
1.79999981E+02
 51
2.69999963E+02
  0
ARC
  8
0
 62
7
 10
-1.05000000E+02
 20
1.86360920E+02
 40
2.50000000E-01
 50
1.79999981E+02
 51
2.68001136E+02
  0
ARC
  8
0
 62
7
 10
-9.67500000E+01
 20
1.84869465E+02
 40
5.00000000E-01
 50
1.79999981E+02
 51
2.69999963E+02
  0
ARC
  8
0
 62
7
 10
-9.67500000E+01
 20
2.21869465E+02
 40
5.00000000E-01
 50
8.99999818E+01
 51
1.79999964E+02
  0
ARC
  8
0
 62
7
 10
-1.05000000E+02
 20
2.20378010E+02
 40
2.50000000E-01
 50
9.19988093E+01
 51
1.79999964E+02
  0
ARC
  8
0
 62
7
 10
-1.09750000E+02
 20
2.19869434E+02
 40
5.00000000E-01
 50
8.99999818E+01
 51
1.79999964E+02
  0
LINE
  8
0
 62
7
 10
-1.23249969E+02
 20
1.95189472E+02
 11
-1.20249969E+02
 21
1.95189472E+02
  0
LINE
  8
0
 62
7
 10
-1.23249969E+02
 20
2.11549457E+02
 11
-1.20249969E+02
 21
2.11549457E+02
  0
LINE
  8
0
 62
7
 10
4.70179376E+01
 20
1.91369394E+02
 11
4.78839692E+01
 21
1.89869374E+02
  0
LINE
  8
0
 62
7
 10
4.78839874E+01
 20
1.89869404E+02
 11
4.96159821E+01
 21
1.89869404E+02
  0
LINE
  8
0
 62
7
 10
4.96159761E+01
 20
1.89869378E+02
 11
5.04820153E+01
 21
1.91369410E+02
  0
LINE
  8
0
 62
7
 10
5.04819550E+01
 20
1.91369401E+02
 11
4.96159463E+01
 21
1.92869381E+02
  0
LINE
  8
0
 62
7
 10
4.78839874E+01
 20
1.92869434E+02
 11
4.96159821E+01
 21
1.92869434E+02
  0
LINE
  8
0
 62
7
 10
4.70179321E+01
 20
1.91369403E+02
 11
4.78839637E+01
 21
1.92869422E+02
  0
LINE
  8
0
 62
7
 10
6.15583954E+01
 20
2.13369373E+02
 11
4.79416962E+01
 21
2.13369373E+02
  0
LINE
  8
0
  6
CENTER
 62
2
 10
6.41601715E+01
 20
2.10369373E+02
 11
4.48015442E+01
 21
2.10369373E+02
  0
LINE
  8
0
  6
CENTER
 62
2
 10
5.47500458E+01
 20
1.99127338E+02
 11
5.47500458E+01
 21
2.22713749E+02
  0
LINE
  8
0
  6
CENTER
 62
2
 10
5.75952759E+01
 20
1.91369434E+02
 11
4.01207581E+01
 21
1.91369434E+02
  0
LINE
  8
0
  6
CENTER
 62
2
 10
4.87500153E+01
 20
1.83898304E+02
 11
4.87500153E+01
 21
2.00487308E+02
  0
LINE
  8
0
 62
7
 10
-1.13250062E+02
 20
2.11869525E+02
 11
-1.11750032E+02
 21
2.13369555E+02
  0
LINE
  8
0
 62
7
 10
-1.13250028E+02
 20
1.94869473E+02
 11
-1.11750059E+02
 21
1.93369504E+02
  0
LINE
  8
0
 62
7
 10
-1.20249969E+02
 20
2.11869465E+02
 11
-1.13250015E+02
 21
2.11869465E+02
  0
LINE
  8
0
 62
7
 10
-1.20249969E+02
 20
1.94869465E+02
 11
-1.13250015E+02
 21
1.94869465E+02
  0
LINE
  8
0
 62
7
 10
4.17500000E+01
 20
2.29519443E+02
 11
-2.37500000E+01
 21
2.29519443E+02
  0
LINE
  8
0
 62
7
 10
4.17500000E+01
 20
2.24219456E+02
 11
-2.37500000E+01
 21
2.24219456E+02
  0
LINE
  8
0
  6
CENTER
 62
2
 10
7.49769897E+01
 20
2.26869449E+02
 11
-9.73534546E+01
 21
2.26869449E+02
  0
LINE
  8
0
 62
7
 10
4.17500000E+01
 20
2.30369434E+02
 11
-2.37500000E+01
 21
2.30369434E+02
  0
LINE
  8
0
 62
7
 10
-6.95179446E+01
 20
1.91369387E+02
 11
-7.03839685E+01
 21
1.89869380E+02
  0
LINE
  8
0
 62
7
 10
-7.03839874E+01
 20
1.89869404E+02
 11
-7.21159821E+01
 21
1.89869404E+02
  0
LINE
  8
0
 62
7
 10
-7.21159570E+01
 20
1.89869365E+02
 11
-7.29819962E+01
 21
1.91369398E+02
  0
LINE
  8
0
 62
7
 10
-7.29819652E+01
 20
1.91369396E+02
 11
-7.21159565E+01
 21
1.92869376E+02
  0
LINE
  8
0
 62
7
 10
-7.03839874E+01
 20
1.92869434E+02
 11
-7.21159821E+01
 21
1.92869434E+02
  0
LINE
  8
0
 62
7
 10
-6.95179293E+01
 20
1.91369434E+02
 11
-7.03839532E+01
 21
1.92869440E+02
  0
LINE
  8
0
 62
7
 10
-1.20249969E+02
 20
2.03369419E+02
 11
-1.20249969E+02
 21
1.94869465E+02
  0
LINE
  8
0
 62
7
 10
-1.20249969E+02
 20
2.03369419E+02
 11
-1.20249969E+02
 21
2.11869465E+02
  0
LINE
  8
0
 62
7
 10
-1.52249995E+02
 20
1.95869535E+02
 11
-1.50749960E+02
 21
1.94369545E+02
  0
LINE
  8
0
 62
2
 10
-1.51569916E+02
 20
1.95189472E+02
 11
-1.43249969E+02
 21
1.95189472E+02
  0
LINE
  8
0
 62
7
 10
-1.50749908E+02
 20
1.94369465E+02
 11
-1.43249969E+02
 21
1.94369465E+02
  0
LINE
  8
0
 62
7
 10
-1.52249923E+02
 20
2.10869322E+02
 11
-1.50749877E+02
 21
2.12369322E+02
  0
LINE
  8
0
 62
2
 10
-1.51569916E+02
 20
2.11549457E+02
 11
-1.43249969E+02
 21
2.11549457E+02
  0
LINE
  8
0
 62
7
 10
-1.50749908E+02
 20
2.12369465E+02
 11
-1.43249969E+02
 21
2.12369465E+02
  0
LINE
  8
0
 62
7
 10
-1.50749969E+02
 20
1.94369465E+02
 11
-1.50749969E+02
 21
2.12369465E+02
  0
LINE
  8
0
 62
7
 10
-1.52249969E+02
 20
1.95869495E+02
 11
-1.52249969E+02
 21
2.10869312E+02
  0
LINE
  8
0
 62
7
 10
-1.23249969E+02
 20
1.94369465E+02
 11
-1.23249969E+02
 21
2.12369465E+02
  0
LINE
  8
0
 62
7
 10
4.17500000E+01
 20
1.76369495E+02
 11
2.02500000E+01
 21
1.76369495E+02
  0
LINE
  8
0
 62
7
 10
-1.11749969E+02
 20
2.13369495E+02
 11
-1.10250000E+02
 21
2.13369495E+02
  0
LINE
  8
0
 62
7
 10
-1.11750031E+02
 20
1.93369480E+02
 11
-1.10250046E+02
 21
1.93369480E+02
  0
LINE
  8
0
 62
7
 10
-1.17249985E+02
 20
2.11869465E+02
 11
-1.17249985E+02
 21
1.94869465E+02
  0
LINE
  8
0
 62
7
 10
4.17500000E+01
 20
1.77219486E+02
 11
2.02500000E+01
 21
1.77219486E+02
  0
LINE
  8
0
 62
7
 10
4.17500000E+01
 20
1.82519474E+02
 11
2.02500000E+01
 21
1.82519474E+02
  0
LINE
  8
0
  6
CENTER
 62
2
 10
7.49769897E+01
 20
1.79869480E+02
 11
-9.73534546E+01
 21
1.79869480E+02
  0
LINE
  8
0
 62
7
 10
6.57500000E+01
 20
2.25369434E+02
 11
4.17500000E+01
 21
2.25369434E+02
  0
LINE
  8
0
 62
7
 10
6.57500000E+01
 20
1.81369434E+02
 11
4.17500000E+01
 21
1.81369434E+02
  0
LINE
  8
0
 62
7
 10
7.27500043E+01
 20
2.33583903E+02
 11
4.17499876E+01
 21
2.34395667E+02
  0
LINE
  8
0
 62
7
 10
4.17500000E+01
 20
1.72343143E+02
 11
4.17500000E+01
 21
2.34369419E+02
  0
LINE
  8
0
 62
7
 10
6.77500000E+01
 20
2.23369434E+02
 11
6.77500000E+01
 21
1.83369434E+02
  0
LINE
  8
0
 62
7
 10
7.27500077E+01
 20
1.73154887E+02
 11
4.17499682E+01
 21
1.72343123E+02
  0
LINE
  8
0
 62
7
 10
7.27500000E+01
 20
1.73154911E+02
 11
7.27500000E+01
 21
2.33583835E+02
  0
LINE
  8
0
 62
7
 10
7.42500000E+01
 20
2.22369404E+02
 11
7.27500000E+01
 21
2.22369404E+02
  0
LINE
  8
0
 62
7
 10
7.42500000E+01
 20
1.84369404E+02
 11
7.27500000E+01
 21
1.84369404E+02
  0
LINE
  8
0
 62
7
 10
7.47499847E+01
 20
1.84869404E+02
 11
7.47499847E+01
 21
2.21869373E+02
  0
LINE
  8
0
 62
7
 10
-8.40583954E+01
 20
2.13369373E+02
 11
-7.04416962E+01
 21
2.13369373E+02
  0
LINE
  8
0
 62
7
 10
-8.82500000E+01
 20
1.81369434E+02
 11
-6.42500000E+01
 21
1.81369434E+02
  0
LINE
  8
0
 62
7
 10
-8.82500000E+01
 20
2.25369434E+02
 11
-6.42500000E+01
 21
2.25369434E+02
  0
LINE
  8
0
 62
7
 10
-9.52500297E+01
 20
1.73155010E+02
 11
-6.42500054E+01
 21
1.72343246E+02
  0
LINE
  8
0
 62
7
 10
-6.42500000E+01
 20
2.34395725E+02
 11
-6.42500000E+01
 21
1.72369465E+02
  0
LINE
  8
0
  6
CENTER
 62
2
 10
-8.66601715E+01
 20
2.10369373E+02
 11
-6.73015442E+01
 21
2.10369373E+02
  0
LINE
  8
0
  6
CENTER
 62
2
 10
-7.72500458E+01
 20
1.99127338E+02
 11
-7.72500458E+01
 21
2.22713749E+02
  0
LINE
  8
0
 62
7
 10
-9.02500000E+01
 20
1.83369434E+02
 11
-9.02500000E+01
 21
2.23369434E+02
  0
LINE
  8
0
 62
7
 10
-9.52500034E+01
 20
2.33584071E+02
 11
-6.42499791E+01
 21
2.34395835E+02
  0
LINE
  8
0
  6
CENTER
 62
2
 10
-8.00952759E+01
 20
1.91369434E+02
 11
-6.26207581E+01
 21
1.91369434E+02
  0
LINE
  8
0
  6
CENTER
 62
2
 10
-7.12500153E+01
 20
1.83898304E+02
 11
-7.12500153E+01
 21
2.00487308E+02
  0
LINE
  8
0
 62
7
 10
-9.52500000E+01
 20
2.33583957E+02
 11
-9.52500000E+01
 21
1.73155048E+02
  0
LINE
  8
0
 62
7
 10
-1.05008754E+02
 20
1.86111046E+02
 11
-9.72500550E+01
 21
1.85840106E+02
  0
LINE
  8
0
 62
7
 10
-1.05250000E+02
 20
1.86369465E+02
 11
-1.05250000E+02
 21
1.86360920E+02
  0
LINE
  8
0
 62
7
 10
-1.09750000E+02
 20
1.86369465E+02
 11
-1.05241455E+02
 21
1.86369465E+02
  0
LINE
  8
0
 62
7
 10
-9.67500000E+01
 20
1.84369465E+02
 11
-9.52500000E+01
 21
1.84369465E+02
  0
LINE
  8
0
 62
7
 10
-1.10250000E+02
 20
2.19869434E+02
 11
-1.10250000E+02
 21
1.86869495E+02
  0
LINE
  8
0
 62
7
 10
-1.05008727E+02
 20
2.20628053E+02
 11
-9.72500282E+01
 21
2.20898993E+02
  0
LINE
  8
0
 62
7
 10
-1.05250000E+02
 20
2.20369465E+02
 11
-1.05250000E+02
 21
2.20378010E+02
  0
LINE
  8
0
 62
7
 10
-1.09750000E+02
 20
2.20369465E+02
 11
-1.05241455E+02
 21
2.20369465E+02
  0
LINE
  8
0
 62
7
 10
-9.67500000E+01
 20
2.22369465E+02
 11
-9.52500000E+01
 21
2.22369465E+02
  0
LINE
  8
0
 62
7
 10
-1.05249985E+02
 20
2.20369495E+02
 11
-1.05249985E+02
 21
1.86369495E+02
  0
LINE
  8
0
 62
7
 10
-9.72499847E+01
 20
2.21869465E+02
 11
-9.72499847E+01
 21
1.84869495E+02
  0
LINE
  8
0
  6
CENTER
 62
2
 10
-1.55283264E+02
 20
2.03369465E+02
 11
7.86960907E+01
 21
2.03369465E+02
  0
LINE
  8
0
 62
4
 10
-2.74568894E+01
 20
2.10364275E+02
 11
-2.37500000E+01
 21
2.10364275E+02
  0
LINE
  8
0
  6
CENTER
 62
6
 10
-4.87500000E+01
 20
2.11388800E+02
 11
-4.37500000E+01
 21
2.11388800E+02
  0
LINE
  8
0
  6
CENTER
 62
6
 10
-4.62500000E+01
 20
2.13888800E+02
 11
-4.62500000E+01
 21
2.08888800E+02
  0
LINE
  8
0
  6
CENTER
 62
6
 10
-3.37500000E+01
 20
2.11388800E+02
 11
-2.87500000E+01
 21
2.11388800E+02
  0
LINE
  8
0
  6
CENTER
 62
6
 10
-3.12500000E+01
 20
2.13888800E+02
 11
-3.12500000E+01
 21
2.08888800E+02
  0
LINE
  8
0
  6
CENTER
 62
6
 10
-4.12500000E+01
 20
2.10781031E+02
 11
-3.62500000E+01
 21
2.10781031E+02
  0
ARC
  8
0
 62
4
 10
-2.91282464E+01
 20
2.20389597E+02
 40
1.25306626E+01
 50
2.51916648E+02
 51
2.65031340E+02
  0
ARC
  8
0
 62
4
 10
-3.33717535E+01
 20
2.20389596E+02
 40
1.25306621E+01
 50
2.74968660E+02
 51
2.88083352E+02
  0
ARC
  8
0
 62
4
 10
-3.36500003E+01
 20
2.09130239E+02
 40
1.00000000E+00
 50
1.80000000E+02
 51
2.57172490E+02
  0
ARC
  8
0
 62
4
 10
-2.88499997E+01
 20
2.09130239E+02
 40
1.00000000E+00
 50
2.82827510E+02
 51
5.08888749E-14
  0
ARC
  8
0
 62
4
 10
-3.12500000E+01
 20
2.19670453E+02
 40
1.18100000E+01
 50
2.57172490E+02
 51
2.82827510E+02
  0
POLYLINE
  8
0
 62
4
 66
1
  0
VERTEX
  8
0
 62
4
 10
-2.78500000E+01
 20
2.10403992E+02
  0
VERTEX
  8
0
 62
4
 10
-2.78636874E+01
 20
2.10456915E+02
  0
VERTEX
  8
0
 62
4
 10
-2.79046394E+01
 20
2.10509413E+02
  0
VERTEX
  8
0
 62
4
 10
-2.79725263E+01
 20
2.10561061E+02
  0
VERTEX
  8
0
 62
4
 10
-2.80668014E+01
 20
2.10611445E+02
  0
VERTEX
  8
0
 62
4
 10
-2.81867058E+01
 20
2.10660159E+02
  0
VERTEX
  8
0
 62
4
 10
-2.83312741E+01
 20
2.10706810E+02
  0
VERTEX
  8
0
 62
4
 10
-2.84993422E+01
 20
2.10751023E+02
  0
VERTEX
  8
0
 62
4
 10
-2.86895570E+01
 20
2.10792442E+02
  0
VERTEX
  8
0
 62
4
 10
-2.89003870E+01
 20
2.10830733E+02
  0
VERTEX
  8
0
 62
4
 10
-2.91301347E+01
 20
2.10865588E+02
  0
VERTEX
  8
0
 62
4
 10
-2.93769502E+01
 20
2.10896727E+02
  0
VERTEX
  8
0
 62
4
 10
-2.96388465E+01
 20
2.10923899E+02
  0
VERTEX
  8
0
 62
4
 10
-2.99137149E+01
 20
2.10946885E+02
  0
VERTEX
  8
0
 62
4
 10
-3.01993422E+01
 20
2.10965499E+02
  0
VERTEX
  8
0
 62
4
 10
-3.04934288E+01
 20
2.10979593E+02
  0
VERTEX
  8
0
 62
4
 10
-3.07936069E+01
 20
2.10989053E+02
  0
VERTEX
  8
0
 62
4
 10
-3.10974596E+01
 20
2.10993801E+02
  0
VERTEX
  8
0
 62
4
 10
-3.14025404E+01
 20
2.10993801E+02
  0
VERTEX
  8
0
 62
4
 10
-3.17063931E+01
 20
2.10989053E+02
  0
VERTEX
  8
0
 62
4
 10
-3.20065712E+01
 20
2.10979593E+02
  0
VERTEX
  8
0
 62
4
 10
-3.23006578E+01
 20
2.10965499E+02
  0
VERTEX
  8
0
 62
4
 10
-3.25862851E+01
 20
2.10946885E+02
  0
VERTEX
  8
0
 62
4
 10
-3.28611534E+01
 20
2.10923899E+02
  0
VERTEX
  8
0
 62
4
 10
-3.31230497E+01
 20
2.10896727E+02
  0
VERTEX
  8
0
 62
4
 10
-3.33698653E+01
 20
2.10865588E+02
  0
VERTEX
  8
0
 62
4
 10
-3.35996130E+01
 20
2.10830733E+02
  0
VERTEX
  8
0
 62
4
 10
-3.38104430E+01
 20
2.10792442E+02
  0
VERTEX
  8
0
 62
4
 10
-3.40006578E+01
 20
2.10751023E+02
  0
VERTEX
  8
0
 62
4
 10
-3.41687259E+01
 20
2.10706810E+02
  0
VERTEX
  8
0
 62
4
 10
-3.43132941E+01
 20
2.10660159E+02
  0
VERTEX
  8
0
 62
4
 10
-3.44331986E+01
 20
2.10611445E+02
  0
VERTEX
  8
0
 62
4
 10
-3.45274737E+01
 20
2.10561061E+02
  0
VERTEX
  8
0
 62
4
 10
-3.45953606E+01
 20
2.10509413E+02
  0
VERTEX
  8
0
 62
4
 10
-3.46363126E+01
 20
2.10456915E+02
  0
VERTEX
  8
0
 62
4
 10
-3.46500000E+01
 20
2.10403992E+02
  0
SEQEND
  8
0
  0
LINE
  8
0
 62
4
 10
-2.78500000E+01
 20
2.09130239E+02
 11
-2.78500000E+01
 21
2.10403992E+02
  0
LINE
  8
0
 62
4
 10
-3.46500000E+01
 20
2.09130239E+02
 11
-3.46500000E+01
 21
2.10403992E+02
  0
POLYLINE
  8
0
 62
4
 66
1
  0
VERTEX
  8
0
 62
4
 10
-2.78500000E+01
 20
2.10109301E+02
  0
VERTEX
  8
0
 62
4
 10
-2.77134183E+01
 20
2.10162590E+02
  0
VERTEX
  8
0
 62
4
 10
-2.76044705E+01
 20
2.10217766E+02
  0
VERTEX
  8
0
 62
4
 10
-2.75240077E+01
 20
2.10274396E+02
  0
VERTEX
  8
0
 62
4
 10
-2.74726587E+01
 20
2.10332039E+02
  0
VERTEX
  8
0
 62
4
 10
-2.74508247E+01
 20
2.10390245E+02
  0
VERTEX
  8
0
 62
4
 10
-2.74586764E+01
 20
2.10448558E+02
  0
VERTEX
  8
0
 62
4
 10
-2.74961524E+01
 20
2.10506522E+02
  0
VERTEX
  8
0
 62
4
 10
-2.75629598E+01
 20
2.10563685E+02
  0
VERTEX
  8
0
 62
4
 10
-2.76585766E+01
 20
2.10619601E+02
  0
VERTEX
  8
0
 62
4
 10
-2.77822558E+01
 20
2.10673832E+02
  0
VERTEX
  8
0
 62
4
 10
-2.79330309E+01
 20
2.10725954E+02
  0
VERTEX
  8
0
 62
4
 10
-2.81097238E+01
 20
2.10775561E+02
  0
VERTEX
  8
0
 62
4
 10
-2.83109538E+01
 20
2.10822265E+02
  0
VERTEX
  8
0
 62
4
 10
-2.85351488E+01
 20
2.10865700E+02
  0
VERTEX
  8
0
 62
4
 10
-2.87805567E+01
 20
2.10905527E+02
  0
VERTEX
  8
0
 62
4
 10
-2.90452602E+01
 20
2.10941436E+02
  0
VERTEX
  8
0
 62
4
 10
-2.93271908E+01
 20
2.10973145E+02
  0
VERTEX
  8
0
 62
4
 10
-2.96241457E+01
 20
2.11000407E+02
  0
VERTEX
  8
0
 62
4
 10
-2.99338046E+01
 20
2.11023009E+02
  0
VERTEX
  8
0
 62
4
 10
-3.02537478E+01
 20
2.11040774E+02
  0
VERTEX
  8
0
 62
4
 10
-3.05814754E+01
 20
2.11053563E+02
  0
VERTEX
  8
0
 62
4
 10
-3.09144267E+01
 20
2.11061277E+02
  0
VERTEX
  8
0
 62
4
 10
-3.12500000E+01
 20
2.11063855E+02
  0
VERTEX
  8
0
 62
4
 10
-3.15855734E+01
 20
2.11061277E+02
  0
VERTEX
  8
0
 62
4
 10
-3.19185246E+01
 20
2.11053563E+02
  0
VERTEX
  8
0
 62
4
 10
-3.22462523E+01
 20
2.11040774E+02
  0
VERTEX
  8
0
 62
4
 10
-3.25661955E+01
 20
2.11023009E+02
  0
VERTEX
  8
0
 62
4
 10
-3.28758543E+01
 20
2.11000407E+02
  0
VERTEX
  8
0
 62
4
 10
-3.31728092E+01
 20
2.10973145E+02
  0
VERTEX
  8
0
 62
4
 10
-3.34547399E+01
 20
2.10941436E+02
  0
VERTEX
  8
0
 62
4
 10
-3.37194433E+01
 20
2.10905527E+02
  0
VERTEX
  8
0
 62
4
 10
-3.39648513E+01
 20
2.10865700E+02
  0
VERTEX
  8
0
 62
4
 10
-3.41890462E+01
 20
2.10822265E+02
  0
VERTEX
  8
0
 62
4
 10
-3.43902763E+01
 20
2.10775561E+02
  0
VERTEX
  8
0
 62
4
 10
-3.45669692E+01
 20
2.10725954E+02
  0
VERTEX
  8
0
 62
4
 10
-3.47177442E+01
 20
2.10673832E+02
  0
VERTEX
  8
0
 62
4
 10
-3.48414234E+01
 20
2.10619601E+02
  0
VERTEX
  8
0
 62
4
 10
-3.49370402E+01
 20
2.10563686E+02
  0
VERTEX
  8
0
 62
4
 10
-3.50038476E+01
 20
2.10506522E+02
  0
VERTEX
  8
0
 62
4
 10
-3.50413236E+01
 20
2.10448558E+02
  0
VERTEX
  8
0
 62
4
 10
-3.50491753E+01
 20
2.10390245E+02
  0
VERTEX
  8
0
 62
4
 10
-3.50273413E+01
 20
2.10332039E+02
  0
VERTEX
  8
0
 62
4
 10
-3.49759923E+01
 20
2.10274396E+02
  0
VERTEX
  8
0
 62
4
 10
-3.48955295E+01
 20
2.10217766E+02
  0
VERTEX
  8
0
 62
4
 10
-3.47865817E+01
 20
2.10162590E+02
  0
VERTEX
  8
0
 62
4
 10
-3.46500000E+01
 20
2.10109301E+02
  0
SEQEND
  8
0
  0
POLYLINE
  8
0
 62
4
 66
1
  0
VERTEX
  8
0
 62
4
 10
-2.74500000E+01
 20
2.11388800E+02
  0
VERTEX
  8
0
 62
4
 10
-2.74652977E+01
 20
2.11447950E+02
  0
VERTEX
  8
0
 62
4
 10
-2.75110676E+01
 20
2.11506623E+02
  0
VERTEX
  8
0
 62
4
 10
-2.75869411E+01
 20
2.11564348E+02
  0
VERTEX
  8
0
 62
4
 10
-2.76923075E+01
 20
2.11620659E+02
  0
VERTEX
  8
0
 62
4
 10
-2.78263183E+01
 20
2.11675104E+02
  0
VERTEX
  8
0
 62
4
 10
-2.79878946E+01
 20
2.11727243E+02
  0
VERTEX
  8
0
 62
4
 10
-2.81757354E+01
 20
2.11776658E+02
  0
VERTEX
  8
0
 62
4
 10
-2.83883284E+01
 20
2.11822949E+02
  0
VERTEX
  8
0
 62
4
 10
-2.86239619E+01
 20
2.11865746E+02
  0
VERTEX
  8
0
 62
4
 10
-2.88807387E+01
 20
2.11904702E+02
  0
VERTEX
  8
0
 62
4
 10
-2.91565915E+01
 20
2.11939504E+02
  0
VERTEX
  8
0
 62
4
 10
-2.94492991E+01
 20
2.11969872E+02
  0
VERTEX
  8
0
 62
4
 10
-2.97565049E+01
 20
2.11995562E+02
  0
VERTEX
  8
0
 62
4
 10
-3.00757354E+01
 20
2.12016367E+02
  0
VERTEX
  8
0
 62
4
 10
-3.04044204E+01
 20
2.12032119E+02
  0
VERTEX
  8
0
 62
4
 10
-3.07399136E+01
 20
2.12042691E+02
  0
VERTEX
  8
0
 62
4
 10
-3.10795136E+01
 20
2.12047999E+02
  0
VERTEX
  8
0
 62
4
 10
-3.14204863E+01
 20
2.12047999E+02
  0
VERTEX
  8
0
 62
4
 10
-3.17600864E+01
 20
2.12042691E+02
  0
VERTEX
  8
0
 62
4
 10
-3.20955795E+01
 20
2.12032119E+02
  0
VERTEX
  8
0
 62
4
 10
-3.24242646E+01
 20
2.12016367E+02
  0
VERTEX
  8
0
 62
4
 10
-3.27434951E+01
 20
2.11995562E+02
  0
VERTEX
  8
0
 62
4
 10
-3.30507009E+01
 20
2.11969872E+02
  0
VERTEX
  8
0
 62
4
 10
-3.33434085E+01
 20
2.11939504E+02
  0
VERTEX
  8
0
 62
4
 10
-3.36192612E+01
 20
2.11904702E+02
  0
VERTEX
  8
0
 62
4
 10
-3.38760380E+01
 20
2.11865746E+02
  0
VERTEX
  8
0
 62
4
 10
-3.41116716E+01
 20
2.11822949E+02
  0
VERTEX
  8
0
 62
4
 10
-3.43242646E+01
 20
2.11776658E+02
  0
VERTEX
  8
0
 62
4
 10
-3.45121054E+01
 20
2.11727243E+02
  0
VERTEX
  8
0
 62
4
 10
-3.46736817E+01
 20
2.11675104E+02
  0
VERTEX
  8
0
 62
4
 10
-3.48076925E+01
 20
2.11620659E+02
  0
VERTEX
  8
0
 62
4
 10
-3.49130589E+01
 20
2.11564348E+02
  0
VERTEX
  8
0
 62
4
 10
-3.49889324E+01
 20
2.11506623E+02
  0
VERTEX
  8
0
 62
4
 10
-3.50347023E+01
 20
2.11447950E+02
  0
VERTEX
  8
0
 62
4
 10
-3.50500000E+01
 20
2.11388800E+02
  0
SEQEND
  8
0
  0
LINE
  8
0
 62
4
 10
-2.74500000E+01
 20
2.10403992E+02
 11
-2.74500000E+01
 21
2.11388800E+02
  0
LINE
  8
0
 62
4
 10
-3.50500000E+01
 20
2.10403992E+02
 11
-3.50500000E+01
 21
2.11388800E+02
  0
ARC
  8
0
 62
4
 10
-3.48500000E+01
 20
2.08678879E+02
 40
2.50000000E-01
 50
2.89675999E+02
 51
0.00000000E+00
  0
ARC
  8
0
 62
4
 10
-4.26500000E+01
 20
2.08678879E+02
 40
2.50000000E-01
 50
1.80000000E+02
 51
2.50324001E+02
  0
POLYLINE
  8
0
 62
4
 66
1
  0
VERTEX
  8
0
 62
4
 10
-3.46000000E+01
 20
2.08673542E+02
  0
VERTEX
  8
0
 62
4
 10
-3.46167067E+01
 20
2.08738140E+02
  0
VERTEX
  8
0
 62
4
 10
-3.46666922E+01
 20
2.08802217E+02
  0
VERTEX
  8
0
 62
4
 10
-3.47495541E+01
 20
2.08865259E+02
  0
VERTEX
  8
0
 62
4
 10
-3.48646253E+01
 20
2.08926757E+02
  0
VERTEX
  8
0
 62
4
 10
-3.50109792E+01
 20
2.08986216E+02
  0
VERTEX
  8
0
 62
4
 10
-3.51874375E+01
 20
2.09043158E+02
  0
VERTEX
  8
0
 62
4
 10
-3.53925795E+01
 20
2.09097124E+02
  0
VERTEX
  8
0
 62
4
 10
-3.56247534E+01
 20
2.09147679E+02
  0
VERTEX
  8
0
 62
4
 10
-3.58820900E+01
 20
2.09194417E+02
  0
VERTEX
  8
0
 62
4
 10
-3.61625173E+01
 20
2.09236961E+02
  0
VERTEX
  8
0
 62
4
 10
-3.64637775E+01
 20
2.09274969E+02
  0
VERTEX
  8
0
 62
4
 10
-3.67834450E+01
 20
2.09308134E+02
  0
VERTEX
  8
0
 62
4
 10
-3.71189461E+01
 20
2.09336190E+02
  0
VERTEX
  8
0
 62
4
 10
-3.74675794E+01
 20
2.09358911E+02
  0
VERTEX
  8
0
 62
4
 10
-3.78265381E+01
 20
2.09376114E+02
  0
VERTEX
  8
0
 62
4
 10
-3.81929319E+01
 20
2.09387660E+02
  0
VERTEX
  8
0
 62
4
 10
-3.85638109E+01
 20
2.09393456E+02
  0
VERTEX
  8
0
 62
4
 10
-3.89361890E+01
 20
2.09393456E+02
  0
VERTEX
  8
0
 62
4
 10
-3.93070680E+01
 20
2.09387660E+02
  0
VERTEX
  8
0
 62
4
 10
-3.96734619E+01
 20
2.09376114E+02
  0
VERTEX
  8
0
 62
4
 10
-4.00324205E+01
 20
2.09358911E+02
  0
VERTEX
  8
0
 62
4
 10
-4.03810539E+01
 20
2.09336190E+02
  0
VERTEX
  8
0
 62
4
 10
-4.07165549E+01
 20
2.09308134E+02
  0
VERTEX
  8
0
 62
4
 10
-4.10362225E+01
 20
2.09274969E+02
  0
VERTEX
  8
0
 62
4
 10
-4.13374827E+01
 20
2.09236961E+02
  0
VERTEX
  8
0
 62
4
 10
-4.16179100E+01
 20
2.09194417E+02
  0
VERTEX
  8
0
 62
4
 10
-4.18752466E+01
 20
2.09147679E+02
  0
VERTEX
  8
0
 62
4
 10
-4.21074205E+01
 20
2.09097124E+02
  0
VERTEX
  8
0
 62
4
 10
-4.23125625E+01
 20
2.09043158E+02
  0
VERTEX
  8
0
 62
4
 10
-4.24890208E+01
 20
2.08986216E+02
  0
VERTEX
  8
0
 62
4
 10
-4.26353747E+01
 20
2.08926757E+02
  0
VERTEX
  8
0
 62
4
 10
-4.27504459E+01
 20
2.08865259E+02
  0
VERTEX
  8
0
 62
4
 10
-4.28333078E+01
 20
2.08802217E+02
  0
VERTEX
  8
0
 62
4
 10
-4.28832933E+01
 20
2.08738140E+02
  0
VERTEX
  8
0
 62
4
 10
-4.29000000E+01
 20
2.08673542E+02
  0
SEQEND
  8
0
  0
ARC
  8
0
 62
4
 10
-3.66313942E+01
 20
2.20265123E+02
 40
1.25124547E+01
 50
2.51904586E+02
 51
2.65058365E+02
  0
ARC
  8
0
 62
4
 10
-4.08686056E+01
 20
2.20265120E+02
 40
1.25124521E+01
 50
2.74941635E+02
 51
2.88095416E+02
  0
POLYLINE
  8
0
 62
4
 66
1
  0
VERTEX
  8
0
 62
4
 10
-3.50500000E+01
 20
2.11044953E+02
  0
VERTEX
  8
0
 62
4
 10
-3.51993080E+01
 20
2.11100873E+02
  0
VERTEX
  8
0
 62
4
 10
-3.53765767E+01
 20
2.11154274E+02
  0
VERTEX
  8
0
 62
4
 10
-3.55804101E+01
 20
2.11204736E+02
  0
VERTEX
  8
0
 62
4
 10
-3.58092032E+01
 20
2.11251861E+02
  0
VERTEX
  8
0
 62
4
 10
-3.60611542E+01
 20
2.11295279E+02
  0
VERTEX
  8
0
 62
4
 10
-3.63342792E+01
 20
2.11334647E+02
  0
VERTEX
  8
0
 62
4
 10
-3.66264273E+01
 20
2.11369656E+02
  0
VERTEX
  8
0
 62
4
 10
-3.69352979E+01
 20
2.11400029E+02
  0
VERTEX
  8
0
 62
4
 10
-3.72584588E+01
 20
2.11425528E+02
  0
VERTEX
  8
0
 62
4
 10
-3.75933652E+01
 20
2.11445952E+02
  0
VERTEX
  8
0
 62
4
 10
-3.79373798E+01
 20
2.11461139E+02
  0
VERTEX
  8
0
 62
4
 10
-3.82877935E+01
 20
2.11470971E+02
  0
VERTEX
  8
0
 62
4
 10
-3.86418469E+01
 20
2.11475370E+02
  0
VERTEX
  8
0
 62
4
 10
-3.89967521E+01
 20
2.11474301E+02
  0
VERTEX
  8
0
 62
4
 10
-3.93497141E+01
 20
2.11467773E+02
  0
VERTEX
  8
0
 62
4
 10
-3.96979536E+01
 20
2.11455837E+02
  0
VERTEX
  8
0
 62
4
 10
-4.00387281E+01
 20
2.11438586E+02
  0
VERTEX
  8
0
 62
4
 10
-4.03693543E+01
 20
2.11416158E+02
  0
VERTEX
  8
0
 62
4
 10
-4.06872286E+01
 20
2.11388729E+02
  0
VERTEX
  8
0
 62
4
 10
-4.09898477E+01
 20
2.11356514E+02
  0
VERTEX
  8
0
 62
4
 10
-4.12748286E+01
 20
2.11319767E+02
  0
VERTEX
  8
0
 62
4
 10
-4.15399272E+01
 20
2.11278778E+02
  0
VERTEX
  8
0
 62
4
 10
-4.17830559E+01
 20
2.11233869E+02
  0
VERTEX
  8
0
 62
4
 10
-4.20023002E+01
 20
2.11185394E+02
  0
VERTEX
  8
0
 62
4
 10
-4.21959334E+01
 20
2.11133735E+02
  0
VERTEX
  8
0
 62
4
 10
-4.23624309E+01
 20
2.11079299E+02
  0
VERTEX
  8
0
 62
4
 10
-4.25004816E+01
 20
2.11022514E+02
  0
VERTEX
  8
0
 62
4
 10
-4.26089982E+01
 20
2.10963827E+02
  0
VERTEX
  8
0
 62
4
 10
-4.26871262E+01
 20
2.10903701E+02
  0
VERTEX
  8
0
 62
4
 10
-4.27342506E+01
 20
2.10842608E+02
  0
VERTEX
  8
0
 62
4
 10
-4.27500000E+01
 20
2.10781031E+02
  0
SEQEND
  8
0
  0
LINE
  8
0
 62
4
 10
-4.27500000E+01
 20
2.10781031E+02
 11
-4.27500000E+01
 21
2.10598801E+02
  0
LINE
  8
0
 62
4
 10
-3.46000000E+01
 20
2.08678879E+02
 11
-3.46000000E+01
 21
2.08817989E+02
  0
LINE
  8
0
 62
4
 10
-4.29000000E+01
 20
2.08678879E+02
 11
-4.29000000E+01
 21
2.10406804E+02
  0
ARC
  8
0
 62
4
 10
-3.87577383E+01
 20
2.19563910E+02
 40
1.18100000E+01
 50
2.50324001E+02
 51
2.70037542E+02
  0
ARC
  8
0
 62
4
 10
-3.87422617E+01
 20
2.19563910E+02
 40
1.18100000E+01
 50
2.69962458E+02
 51
2.89675999E+02
  0
POLYLINE
  8
0
 62
4
 66
1
  0
VERTEX
  8
0
 62
4
 10
-3.50500000E+01
 20
2.10733175E+02
  0
VERTEX
  8
0
 62
4
 10
-3.52318150E+01
 20
2.10789022E+02
  0
VERTEX
  8
0
 62
4
 10
-3.54415122E+01
 20
2.10841841E+02
  0
VERTEX
  8
0
 62
4
 10
-3.56774299E+01
 20
2.10891211E+02
  0
VERTEX
  8
0
 62
4
 10
-3.59376982E+01
 20
2.10936743E+02
  0
VERTEX
  8
0
 62
4
 10
-3.62202545E+01
 20
2.10978074E+02
  0
VERTEX
  8
0
 62
4
 10
-3.65228596E+01
 20
2.11014879E+02
  0
VERTEX
  8
0
 62
4
 10
-3.68431151E+01
 20
2.11046864E+02
  0
VERTEX
  8
0
 62
4
 10
-3.71784831E+01
 20
2.11073777E+02
  0
VERTEX
  8
0
 62
4
 10
-3.75263056E+01
 20
2.11095403E+02
  0
VERTEX
  8
0
 62
4
 10
-3.78838262E+01
 20
2.11111573E+02
  0
VERTEX
  8
0
 62
4
 10
-3.82482113E+01
 20
2.11122157E+02
  0
VERTEX
  8
0
 62
4
 10
-3.86165732E+01
 20
2.11127071E+02
  0
VERTEX
  8
0
 62
4
 10
-3.89859925E+01
 20
2.11126278E+02
  0
VERTEX
  8
0
 62
4
 10
-3.93535416E+01
 20
2.11119782E+02
  0
VERTEX
  8
0
 62
4
 10
-3.97163074E+01
 20
2.11107636E+02
  0
VERTEX
  8
0
 62
4
 10
-4.00714151E+01
 20
2.11089936E+02
  0
VERTEX
  8
0
 62
4
 10
-4.04160504E+01
 20
2.11066822E+02
  0
VERTEX
  8
0
 62
4
 10
-4.07474818E+01
 20
2.11038477E+02
  0
VERTEX
  8
0
 62
4
 10
-4.10630829E+01
 20
2.11005126E+02
  0
VERTEX
  8
0
 62
4
 10
-4.13603523E+01
 20
2.10967033E+02
  0
VERTEX
  8
0
 62
4
 10
-4.16369343E+01
 20
2.10924500E+02
  0
VERTEX
  8
0
 62
4
 10
-4.18906367E+01
 20
2.10877865E+02
  0
VERTEX
  8
0
 62
4
 10
-4.21194490E+01
 20
2.10827496E+02
  0
VERTEX
  8
0
 62
4
 10
-4.23215578E+01
 20
2.10773793E+02
  0
VERTEX
  8
0
 62
4
 10
-4.24953613E+01
 20
2.10717181E+02
  0
VERTEX
  8
0
 62
4
 10
-4.26394821E+01
 20
2.10658110E+02
  0
VERTEX
  8
0
 62
4
 10
-4.27527781E+01
 20
2.10597047E+02
  0
VERTEX
  8
0
 62
4
 10
-4.28343513E+01
 20
2.10534477E+02
  0
VERTEX
  8
0
 62
4
 10
-4.28835552E+01
 20
2.10470894E+02
  0
VERTEX
  8
0
 62
4
 10
-4.29000000E+01
 20
2.10406804E+02
  0
SEQEND
  8
0
  0
LINE
  8
0
 62
4
 10
-5.37500000E+01
 20
2.10364275E+02
 11
-5.37500000E+01
 21
2.09391846E+02
  0
LINE
  8
0
 62
4
 10
-5.37500000E+01
 20
2.10080490E+02
 11
-4.29000000E+01
 21
2.10080490E+02
  0
LINE
  8
0
 62
4
 10
-5.37500000E+01
 20
2.09385897E+02
 11
-4.29000000E+01
 21
2.09385897E+02
  0
LINE
  8
0
 62
4
 10
-5.52500000E+01
 20
2.10392886E+02
 11
-5.37500000E+01
 21
2.09385897E+02
  0
LINE
  8
0
 62
4
 10
-5.52500000E+01
 20
2.10786199E+02
 11
-5.37500000E+01
 21
2.10080490E+02
  0
LINE
  8
0
 62
4
 10
-5.52500000E+01
 20
2.13016788E+02
 11
-5.52500000E+01
 21
2.10392886E+02
  0
LINE
  8
0
 62
4
 10
-5.37500000E+01
 20
2.14019721E+02
 11
-5.52500000E+01
 21
2.13016788E+02
  0
POLYLINE
  8
0
 62
4
 66
1
  0
VERTEX
  8
0
 62
4
 10
-3.32500000E+01
 20
2.37143055E+02
  0
VERTEX
  8
0
 62
4
 10
-3.32580514E+01
 20
2.37174186E+02
  0
VERTEX
  8
0
 62
4
 10
-3.32821408E+01
 20
2.37205067E+02
  0
VERTEX
  8
0
 62
4
 10
-3.33220743E+01
 20
2.37235449E+02
  0
VERTEX
  8
0
 62
4
 10
-3.33775303E+01
 20
2.37265086E+02
  0
VERTEX
  8
0
 62
4
 10
-3.34480623E+01
 20
2.37293741E+02
  0
VERTEX
  8
0
 62
4
 10
-3.35331024E+01
 20
2.37321183E+02
  0
VERTEX
  8
0
 62
4
 10
-3.36319660E+01
 20
2.37347191E+02
  0
VERTEX
  8
0
 62
4
 10
-3.37438571E+01
 20
2.37371555E+02
  0
VERTEX
  8
0
 62
4
 10
-3.38678747E+01
 20
2.37394079E+02
  0
VERTEX
  8
0
 62
4
 10
-3.40030204E+01
 20
2.37414582E+02
  0
VERTEX
  8
0
 62
4
 10
-3.41482060E+01
 20
2.37432899E+02
  0
VERTEX
  8
0
 62
4
 10
-3.43022627E+01
 20
2.37448883E+02
  0
VERTEX
  8
0
 62
4
 10
-3.44639499E+01
 20
2.37462404E+02
  0
VERTEX
  8
0
 62
4
 10
-3.46319660E+01
 20
2.37473353E+02
  0
VERTEX
  8
0
 62
4
 10
-3.48049581E+01
 20
2.37481644E+02
  0
VERTEX
  8
0
 62
4
 10
-3.49815335E+01
 20
2.37487208E+02
  0
VERTEX
  8
0
 62
4
 10
-3.51602703E+01
 20
2.37490002E+02
  0
VERTEX
  8
0
 62
4
 10
-3.53397296E+01
 20
2.37490002E+02
  0
VERTEX
  8
0
 62
4
 10
-3.55184665E+01
 20
2.37487208E+02
  0
VERTEX
  8
0
 62
4
 10
-3.56950419E+01
 20
2.37481644E+02
  0
VERTEX
  8
0
 62
4
 10
-3.58680340E+01
 20
2.37473353E+02
  0
VERTEX
  8
0
 62
4
 10
-3.60360501E+01
 20
2.37462404E+02
  0
VERTEX
  8
0
 62
4
 10
-3.61977373E+01
 20
2.37448883E+02
  0
VERTEX
  8
0
 62
4
 10
-3.63517940E+01
 20
2.37432899E+02
  0
VERTEX
  8
0
 62
4
 10
-3.64969796E+01
 20
2.37414582E+02
  0
VERTEX
  8
0
 62
4
 10
-3.66321253E+01
 20
2.37394079E+02
  0
VERTEX
  8
0
 62
4
 10
-3.67561429E+01
 20
2.37371555E+02
  0
VERTEX
  8
0
 62
4
 10
-3.68680340E+01
 20
2.37347191E+02
  0
VERTEX
  8
0
 62
4
 10
-3.69668976E+01
 20
2.37321183E+02
  0
VERTEX
  8
0
 62
4
 10
-3.70519377E+01
 20
2.37293741E+02
  0
VERTEX
  8
0
 62
4
 10
-3.71224697E+01
 20
2.37265086E+02
  0
VERTEX
  8
0
 62
4
 10
-3.71779257E+01
 20
2.37235449E+02
  0
VERTEX
  8
0
 62
4
 10
-3.72178592E+01
 20
2.37205067E+02
  0
VERTEX
  8
0
 62
4
 10
-3.72419486E+01
 20
2.37174186E+02
  0
VERTEX
  8
0
 62
4
 10
-3.72500000E+01
 20
2.37143055E+02
  0
SEQEND
  8
0
  0
LINE
  8
0
 62
4
 10
-3.32500000E+01
 20
2.37143055E+02
 11
-3.32500000E+01
 21
2.35021733E+02
  0
LINE
  8
0
 62
4
 10
-3.72500000E+01
 20
2.37143055E+02
 11
-3.72500000E+01
 21
2.35021733E+02
  0
LINE
  8
0
 62
6
 10
-3.37500000E+01
 20
2.37372770E+02
 11
-3.37500000E+01
 21
2.35021733E+02
  0
LINE
  8
0
 62
6
 10
-3.67500000E+01
 20
2.37372770E+02
 11
-3.67500000E+01
 21
2.35021733E+02
  0
POLYLINE
  8
0
 62
4
 66
1
  0
VERTEX
  8
0
 62
4
 10
-2.52500000E+01
 20
2.37143055E+02
  0
VERTEX
  8
0
 62
4
 10
-2.52580514E+01
 20
2.37174186E+02
  0
VERTEX
  8
0
 62
4
 10
-2.52821408E+01
 20
2.37205067E+02
  0
VERTEX
  8
0
 62
4
 10
-2.53220743E+01
 20
2.37235449E+02
  0
VERTEX
  8
0
 62
4
 10
-2.53775303E+01
 20
2.37265086E+02
  0
VERTEX
  8
0
 62
4
 10
-2.54480623E+01
 20
2.37293741E+02
  0
VERTEX
  8
0
 62
4
 10
-2.55331024E+01
 20
2.37321183E+02
  0
VERTEX
  8
0
 62
4
 10
-2.56319660E+01
 20
2.37347191E+02
  0
VERTEX
  8
0
 62
4
 10
-2.57438571E+01
 20
2.37371555E+02
  0
VERTEX
  8
0
 62
4
 10
-2.58678747E+01
 20
2.37394079E+02
  0
VERTEX
  8
0
 62
4
 10
-2.60030204E+01
 20
2.37414582E+02
  0
VERTEX
  8
0
 62
4
 10
-2.61482060E+01
 20
2.37432899E+02
  0
VERTEX
  8
0
 62
4
 10
-2.63022627E+01
 20
2.37448883E+02
  0
VERTEX
  8
0
 62
4
 10
-2.64639499E+01
 20
2.37462404E+02
  0
VERTEX
  8
0
 62
4
 10
-2.66319660E+01
 20
2.37473353E+02
  0
VERTEX
  8
0
 62
4
 10
-2.68049581E+01
 20
2.37481644E+02
  0
VERTEX
  8
0
 62
4
 10
-2.69815335E+01
 20
2.37487208E+02
  0
VERTEX
  8
0
 62
4
 10
-2.71602703E+01
 20
2.37490002E+02
  0
VERTEX
  8
0
 62
4
 10
-2.73397296E+01
 20
2.37490002E+02
  0
VERTEX
  8
0
 62
4
 10
-2.75184665E+01
 20
2.37487208E+02
  0
VERTEX
  8
0
 62
4
 10
-2.76950419E+01
 20
2.37481644E+02
  0
VERTEX
  8
0
 62
4
 10
-2.78680340E+01
 20
2.37473353E+02
  0
VERTEX
  8
0
 62
4
 10
-2.80360501E+01
 20
2.37462404E+02
  0
VERTEX
  8
0
 62
4
 10
-2.81977373E+01
 20
2.37448883E+02
  0
VERTEX
  8
0
 62
4
 10
-2.83517940E+01
 20
2.37432899E+02
  0
VERTEX
  8
0
 62
4
 10
-2.84969796E+01
 20
2.37414582E+02
  0
VERTEX
  8
0
 62
4
 10
-2.86321253E+01
 20
2.37394079E+02
  0
VERTEX
  8
0
 62
4
 10
-2.87561429E+01
 20
2.37371555E+02
  0
VERTEX
  8
0
 62
4
 10
-2.88680340E+01
 20
2.37347191E+02
  0
VERTEX
  8
0
 62
4
 10
-2.89668976E+01
 20
2.37321183E+02
  0
VERTEX
  8
0
 62
4
 10
-2.90519377E+01
 20
2.37293741E+02
  0
VERTEX
  8
0
 62
4
 10
-2.91224697E+01
 20
2.37265086E+02
  0
VERTEX
  8
0
 62
4
 10
-2.91779257E+01
 20
2.37235449E+02
  0
VERTEX
  8
0
 62
4
 10
-2.92178592E+01
 20
2.37205067E+02
  0
VERTEX
  8
0
 62
4
 10
-2.92419486E+01
 20
2.37174186E+02
  0
VERTEX
  8
0
 62
4
 10
-2.92500000E+01
 20
2.37143055E+02
  0
SEQEND
  8
0
  0
LINE
  8
0
 62
4
 10
-5.37500000E+01
 20
2.10364275E+02
 11
-4.29000000E+01
 21
2.10364275E+02
  0
LINE
  8
0
 62
4
 10
-2.78500000E+01
 20
2.09565494E+02
 11
-2.37500000E+01
 21
2.09565494E+02
  0
LINE
  8
0
 62
4
 10
-2.78500000E+01
 20
2.09391846E+02
 11
-2.37500000E+01
 21
2.09391846E+02
  0
LINE
  8
0
 62
4
 10
-5.37500000E+01
 20
2.12170216E+02
 11
-2.37500000E+01
 21
2.12170216E+02
  0
LINE
  8
0
 62
4
 10
-5.37500000E+01
 20
2.22313736E+02
 11
-2.37500000E+01
 21
2.22313736E+02
  0
LINE
  8
0
 62
4
 10
-3.87500000E+01
 20
2.29207391E+02
 11
-2.37500000E+01
 21
2.29207391E+02
  0
LINE
  8
0
 62
4
 10
-3.87500000E+01
 20
2.35021733E+02
 11
-2.37500000E+01
 21
2.35021733E+02
  0
LINE
  8
0
  6
CENTER
 62
6
 10
-3.87500000E+01
 20
2.13281031E+02
 11
-3.87500000E+01
 21
2.08281031E+02
  0
LINE
  8
0
  6
CENTER
 62
6
 10
-3.52500000E+01
 20
2.40485028E+02
 11
-3.52500000E+01
 21
2.30219449E+02
  0
LINE
  8
0
  6
CENTER
 62
6
 10
-2.72500000E+01
 20
2.40485028E+02
 11
-2.72500000E+01
 21
2.30219449E+02
  0
LINE
  8
0
 62
4
 10
-5.37500000E+01
 20
2.22313736E+02
 11
-5.37500000E+01
 21
2.10364275E+02
  0
LINE
  8
0
 62
4
 10
-2.37500000E+01
 20
2.35021733E+02
 11
-2.37500000E+01
 21
2.09391846E+02
  0
LINE
  8
0
 62
4
 10
-3.87500000E+01
 20
2.35021733E+02
 11
-3.87500000E+01
 21
2.22313736E+02
  0
LINE
  8
0
 62
4
 10
-2.52500000E+01
 20
2.37143055E+02
 11
-2.52500000E+01
 21
2.35021733E+02
  0
LINE
  8
0
 62
4
 10
-2.92500000E+01
 20
2.37143055E+02
 11
-2.92500000E+01
 21
2.35021733E+02
  0
LINE
  8
0
 62
6
 10
-2.57500000E+01
 20
2.37372770E+02
 11
-2.57500000E+01
 21
2.35021733E+02
  0
LINE
  8
0
 62
6
 10
-2.87500000E+01
 20
2.37372770E+02
 11
-2.87500000E+01
 21
2.35021733E+02
  0
LINE
  8
0
 62
4
 10
8.95688940E+00
 20
1.96374654E+02
 11
5.25000000E+00
 21
1.96374654E+02
  0
LINE
  8
0
  6
CENTER
 62
6
 10
3.02500000E+01
 20
1.95350130E+02
 11
2.52500000E+01
 21
1.95350130E+02
  0
LINE
  8
0
  6
CENTER
 62
6
 10
2.77500000E+01
 20
1.92850130E+02
 11
2.77500000E+01
 21
1.97850130E+02
  0
LINE
  8
0
  6
CENTER
 62
6
 10
1.52500000E+01
 20
1.95350130E+02
 11
1.02500000E+01
 21
1.95350130E+02
  0
LINE
  8
0
  6
CENTER
 62
6
 10
1.27500000E+01
 20
1.92850130E+02
 11
1.27500000E+01
 21
1.97850130E+02
  0
LINE
  8
0
  6
CENTER
 62
6
 10
2.27500000E+01
 20
1.95957898E+02
 11
1.77500000E+01
 21
1.95957898E+02
  0
ARC
  8
0
 62
4
 10
1.06282464E+01
 20
1.86349333E+02
 40
1.25306626E+01
 50
7.19166483E+01
 51
8.50313400E+01
  0
ARC
  8
0
 62
4
 10
1.48717535E+01
 20
1.86349333E+02
 40
1.25306621E+01
 50
9.49686598E+01
 51
1.08083352E+02
  0
ARC
  8
0
 62
4
 10
1.51500003E+01
 20
1.97608690E+02
 40
1.00000000E+00
 50
3.60000000E+02
 51
7.71724899E+01
  0
ARC
  8
0
 62
4
 10
1.03499997E+01
 20
1.97608690E+02
 40
1.00000000E+00
 50
1.02827510E+02
 51
1.80000000E+02
  0
ARC
  8
0
 62
4
 10
1.27500000E+01
 20
1.87068476E+02
 40
1.18100000E+01
 50
7.71724899E+01
 51
1.02827510E+02
  0
POLYLINE
  8
0
 62
4
 66
1
  0
VERTEX
  8
0
 62
4
 10
9.35000000E+00
 20
1.96334937E+02
  0
VERTEX
  8
0
 62
4
 10
9.36368740E+00
 20
1.96282014E+02
  0
VERTEX
  8
0
 62
4
 10
9.40463940E+00
 20
1.96229516E+02
  0
VERTEX
  8
0
 62
4
 10
9.47252627E+00
 20
1.96177868E+02
  0
VERTEX
  8
0
 62
4
 10
9.56680144E+00
 20
1.96127484E+02
  0
VERTEX
  8
0
 62
4
 10
9.68670584E+00
 20
1.96078770E+02
  0
VERTEX
  8
0
 62
4
 10
9.83127409E+00
 20
1.96032119E+02
  0
VERTEX
  8
0
 62
4
 10
9.99934221E+00
 20
1.95987906E+02
  0
VERTEX
  8
0
 62
4
 10
1.01895570E+01
 20
1.95946487E+02
  0
VERTEX
  8
0
 62
4
 10
1.04003870E+01
 20
1.95908196E+02
  0
VERTEX
  8
0
 62
4
 10
1.06301347E+01
 20
1.95873341E+02
  0
VERTEX
  8
0
 62
4
 10
1.08769502E+01
 20
1.95842202E+02
  0
VERTEX
  8
0
 62
4
 10
1.11388465E+01
 20
1.95815030E+02
  0
VERTEX
  8
0
 62
4
 10
1.14137149E+01
 20
1.95792044E+02
  0
VERTEX
  8
0
 62
4
 10
1.16993422E+01
 20
1.95773430E+02
  0
VERTEX
  8
0
 62
4
 10
1.19934288E+01
 20
1.95759336E+02
  0
VERTEX
  8
0
 62
4
 10
1.22936069E+01
 20
1.95749876E+02
  0
VERTEX
  8
0
 62
4
 10
1.25974596E+01
 20
1.95745128E+02
  0
VERTEX
  8
0
 62
4
 10
1.29025404E+01
 20
1.95745128E+02
  0
VERTEX
  8
0
 62
4
 10
1.32063931E+01
 20
1.95749876E+02
  0
VERTEX
  8
0
 62
4
 10
1.35065712E+01
 20
1.95759336E+02
  0
VERTEX
  8
0
 62
4
 10
1.38006578E+01
 20
1.95773430E+02
  0
VERTEX
  8
0
 62
4
 10
1.40862851E+01
 20
1.95792044E+02
  0
VERTEX
  8
0
 62
4
 10
1.43611534E+01
 20
1.95815030E+02
  0
VERTEX
  8
0
 62
4
 10
1.46230497E+01
 20
1.95842202E+02
  0
VERTEX
  8
0
 62
4
 10
1.48698653E+01
 20
1.95873341E+02
  0
VERTEX
  8
0
 62
4
 10
1.50996130E+01
 20
1.95908196E+02
  0
VERTEX
  8
0
 62
4
 10
1.53104430E+01
 20
1.95946487E+02
  0
VERTEX
  8
0
 62
4
 10
1.55006578E+01
 20
1.95987906E+02
  0
VERTEX
  8
0
 62
4
 10
1.56687259E+01
 20
1.96032119E+02
  0
VERTEX
  8
0
 62
4
 10
1.58132941E+01
 20
1.96078770E+02
  0
VERTEX
  8
0
 62
4
 10
1.59331986E+01
 20
1.96127484E+02
  0
VERTEX
  8
0
 62
4
 10
1.60274737E+01
 20
1.96177868E+02
  0
VERTEX
  8
0
 62
4
 10
1.60953606E+01
 20
1.96229516E+02
  0
VERTEX
  8
0
 62
4
 10
1.61363126E+01
 20
1.96282014E+02
  0
VERTEX
  8
0
 62
4
 10
1.61500000E+01
 20
1.96334937E+02
  0
SEQEND
  8
0
  0
LINE
  8
0
 62
4
 10
9.35000000E+00
 20
1.97608690E+02
 11
9.35000000E+00
 21
1.96334937E+02
  0
LINE
  8
0
 62
4
 10
1.61500000E+01
 20
1.97608690E+02
 11
1.61500000E+01
 21
1.96334937E+02
  0
POLYLINE
  8
0
 62
4
 66
1
  0
VERTEX
  8
0
 62
4
 10
9.34999999E+00
 20
1.96629628E+02
  0
VERTEX
  8
0
 62
4
 10
9.21341833E+00
 20
1.96576339E+02
  0
VERTEX
  8
0
 62
4
 10
9.10447046E+00
 20
1.96521163E+02
  0
VERTEX
  8
0
 62
4
 10
9.02400768E+00
 20
1.96464533E+02
  0
VERTEX
  8
0
 62
4
 10
8.97265870E+00
 20
1.96406890E+02
  0
VERTEX
  8
0
 62
4
 10
8.95082475E+00
 20
1.96348684E+02
  0
VERTEX
  8
0
 62
4
 10
8.95867642E+00
 20
1.96290371E+02
  0
VERTEX
  8
0
 62
4
 10
8.99615237E+00
 20
1.96232407E+02
  0
VERTEX
  8
0
 62
4
 10
9.06295978E+00
 20
1.96175244E+02
  0
VERTEX
  8
0
 62
4
 10
9.15857662E+00
 20
1.96119328E+02
  0
VERTEX
  8
0
 62
4
 10
9.28225578E+00
 20
1.96065097E+02
  0
VERTEX
  8
0
 62
4
 10
9.43303086E+00
 20
1.96012975E+02
  0
VERTEX
  8
0
 62
4
 10
9.60972376E+00
 20
1.95963368E+02
  0
VERTEX
  8
0
 62
4
 10
9.81095384E+00
 20
1.95916664E+02
  0
VERTEX
  8
0
 62
4
 10
1.00351488E+01
 20
1.95873229E+02
  0
VERTEX
  8
0
 62
4
 10
1.02805567E+01
 20
1.95833402E+02
  0
VERTEX
  8
0
 62
4
 10
1.05452602E+01
 20
1.95797493E+02
  0
VERTEX
  8
0
 62
4
 10
1.08271908E+01
 20
1.95765784E+02
  0
VERTEX
  8
0
 62
4
 10
1.11241457E+01
 20
1.95738522E+02
  0
VERTEX
  8
0
 62
4
 10
1.14338046E+01
 20
1.95715920E+02
  0
VERTEX
  8
0
 62
4
 10
1.17537478E+01
 20
1.95698155E+02
  0
VERTEX
  8
0
 62
4
 10
1.20814754E+01
 20
1.95685366E+02
  0
VERTEX
  8
0
 62
4
 10
1.24144267E+01
 20
1.95677652E+02
  0
VERTEX
  8
0
 62
4
 10
1.27500000E+01
 20
1.95675074E+02
  0
VERTEX
  8
0
 62
4
 10
1.30855734E+01
 20
1.95677652E+02
  0
VERTEX
  8
0
 62
4
 10
1.34185246E+01
 20
1.95685366E+02
  0
VERTEX
  8
0
 62
4
 10
1.37462523E+01
 20
1.95698155E+02
  0
VERTEX
  8
0
 62
4
 10
1.40661955E+01
 20
1.95715920E+02
  0
VERTEX
  8
0
 62
4
 10
1.43758543E+01
 20
1.95738522E+02
  0
VERTEX
  8
0
 62
4
 10
1.46728092E+01
 20
1.95765784E+02
  0
VERTEX
  8
0
 62
4
 10
1.49547399E+01
 20
1.95797493E+02
  0
VERTEX
  8
0
 62
4
 10
1.52194433E+01
 20
1.95833402E+02
  0
VERTEX
  8
0
 62
4
 10
1.54648513E+01
 20
1.95873229E+02
  0
VERTEX
  8
0
 62
4
 10
1.56890462E+01
 20
1.95916664E+02
  0
VERTEX
  8
0
 62
4
 10
1.58902763E+01
 20
1.95963368E+02
  0
VERTEX
  8
0
 62
4
 10
1.60669692E+01
 20
1.96012975E+02
  0
VERTEX
  8
0
 62
4
 10
1.62177442E+01
 20
1.96065097E+02
  0
VERTEX
  8
0
 62
4
 10
1.63414234E+01
 20
1.96119328E+02
  0
VERTEX
  8
0
 62
4
 10
1.64370402E+01
 20
1.96175244E+02
  0
VERTEX
  8
0
 62
4
 10
1.65038476E+01
 20
1.96232407E+02
  0
VERTEX
  8
0
 62
4
 10
1.65413236E+01
 20
1.96290371E+02
  0
VERTEX
  8
0
 62
4
 10
1.65491752E+01
 20
1.96348684E+02
  0
VERTEX
  8
0
 62
4
 10
1.65273413E+01
 20
1.96406890E+02
  0
VERTEX
  8
0
 62
4
 10
1.64759923E+01
 20
1.96464533E+02
  0
VERTEX
  8
0
 62
4
 10
1.63955295E+01
 20
1.96521163E+02
  0
VERTEX
  8
0
 62
4
 10
1.62865817E+01
 20
1.96576339E+02
  0
VERTEX
  8
0
 62
4
 10
1.61500000E+01
 20
1.96629628E+02
  0
SEQEND
  8
0
  0
POLYLINE
  8
0
 62
4
 66
1
  0
VERTEX
  8
0
 62
4
 10
8.95000000E+00
 20
1.95350130E+02
  0
VERTEX
  8
0
 62
4
 10
8.96529768E+00
 20
1.95290980E+02
  0
VERTEX
  8
0
 62
4
 10
9.01106756E+00
 20
1.95232307E+02
  0
VERTEX
  8
0
 62
4
 10
9.08694113E+00
 20
1.95174582E+02
  0
VERTEX
  8
0
 62
4
 10
9.19230749E+00
 20
1.95118271E+02
  0
VERTEX
  8
0
 62
4
 10
9.32631830E+00
 20
1.95063826E+02
  0
VERTEX
  8
0
 62
4
 10
9.48789458E+00
 20
1.95011687E+02
  0
VERTEX
  8
0
 62
4
 10
9.67573541E+00
 20
1.94962272E+02
  0
VERTEX
  8
0
 62
4
 10
9.88832842E+00
 20
1.94915981E+02
  0
VERTEX
  8
0
 62
4
 10
1.01239619E+01
 20
1.94873184E+02
  0
VERTEX
  8
0
 62
4
 10
1.03807387E+01
 20
1.94834228E+02
  0
VERTEX
  8
0
 62
4
 10
1.06565915E+01
 20
1.94799426E+02
  0
VERTEX
  8
0
 62
4
 10
1.09492991E+01
 20
1.94769058E+02
  0
VERTEX
  8
0
 62
4
 10
1.12565049E+01
 20
1.94743368E+02
  0
VERTEX
  8
0
 62
4
 10
1.15757354E+01
 20
1.94722563E+02
  0
VERTEX
  8
0
 62
4
 10
1.19044204E+01
 20
1.94706811E+02
  0
VERTEX
  8
0
 62
4
 10
1.22399136E+01
 20
1.94696239E+02
  0
VERTEX
  8
0
 62
4
 10
1.25795136E+01
 20
1.94690931E+02
  0
VERTEX
  8
0
 62
4
 10
1.29204863E+01
 20
1.94690931E+02
  0
VERTEX
  8
0
 62
4
 10
1.32600864E+01
 20
1.94696239E+02
  0
VERTEX
  8
0
 62
4
 10
1.35955795E+01
 20
1.94706811E+02
  0
VERTEX
  8
0
 62
4
 10
1.39242646E+01
 20
1.94722563E+02
  0
VERTEX
  8
0
 62
4
 10
1.42434951E+01
 20
1.94743368E+02
  0
VERTEX
  8
0
 62
4
 10
1.45507009E+01
 20
1.94769058E+02
  0
VERTEX
  8
0
 62
4
 10
1.48434085E+01
 20
1.94799426E+02
  0
VERTEX
  8
0
 62
4
 10
1.51192612E+01
 20
1.94834228E+02
  0
VERTEX
  8
0
 62
4
 10
1.53760380E+01
 20
1.94873184E+02
  0
VERTEX
  8
0
 62
4
 10
1.56116716E+01
 20
1.94915981E+02
  0
VERTEX
  8
0
 62
4
 10
1.58242646E+01
 20
1.94962272E+02
  0
VERTEX
  8
0
 62
4
 10
1.60121054E+01
 20
1.95011687E+02
  0
VERTEX
  8
0
 62
4
 10
1.61736817E+01
 20
1.95063826E+02
  0
VERTEX
  8
0
 62
4
 10
1.63076925E+01
 20
1.95118271E+02
  0
VERTEX
  8
0
 62
4
 10
1.64130589E+01
 20
1.95174582E+02
  0
VERTEX
  8
0
 62
4
 10
1.64889324E+01
 20
1.95232307E+02
  0
VERTEX
  8
0
 62
4
 10
1.65347023E+01
 20
1.95290980E+02
  0
VERTEX
  8
0
 62
4
 10
1.65500000E+01
 20
1.95350130E+02
  0
SEQEND
  8
0
  0
LINE
  8
0
 62
4
 10
8.95000000E+00
 20
1.96334937E+02
 11
8.95000000E+00
 21
1.95350130E+02
  0
LINE
  8
0
 62
4
 10
1.65500000E+01
 20
1.96334937E+02
 11
1.65500000E+01
 21
1.95350130E+02
  0
ARC
  8
0
 62
4
 10
1.63500000E+01
 20
1.98060050E+02
 40
2.50000000E-01
 50
1.09675998E+02
 51
1.80000000E+02
  0
ARC
  8
0
 62
4
 10
2.41500000E+01
 20
1.98060050E+02
 40
2.50000000E-01
 50
0.00000000E+00
 51
7.03240015E+01
  0
POLYLINE
  8
0
 62
4
 66
1
  0
VERTEX
  8
0
 62
4
 10
1.61000000E+01
 20
1.98065387E+02
  0
VERTEX
  8
0
 62
4
 10
1.61167067E+01
 20
1.98000789E+02
  0
VERTEX
  8
0
 62
4
 10
1.61666922E+01
 20
1.97936712E+02
  0
VERTEX
  8
0
 62
4
 10
1.62495541E+01
 20
1.97873670E+02
  0
VERTEX
  8
0
 62
4
 10
1.63646253E+01
 20
1.97812172E+02
  0
VERTEX
  8
0
 62
4
 10
1.65109792E+01
 20
1.97752713E+02
  0
VERTEX
  8
0
 62
4
 10
1.66874375E+01
 20
1.97695771E+02
  0
VERTEX
  8
0
 62
4
 10
1.68925795E+01
 20
1.97641805E+02
  0
VERTEX
  8
0
 62
4
 10
1.71247534E+01
 20
1.97591250E+02
  0
VERTEX
  8
0
 62
4
 10
1.73820900E+01
 20
1.97544512E+02
  0
VERTEX
  8
0
 62
4
 10
1.76625173E+01
 20
1.97501968E+02
  0
VERTEX
  8
0
 62
4
 10
1.79637775E+01
 20
1.97463960E+02
  0
VERTEX
  8
0
 62
4
 10
1.82834450E+01
 20
1.97430795E+02
  0
VERTEX
  8
0
 62
4
 10
1.86189461E+01
 20
1.97402739E+02
  0
VERTEX
  8
0
 62
4
 10
1.89675795E+01
 20
1.97380018E+02
  0
VERTEX
  8
0
 62
4
 10
1.93265381E+01
 20
1.97362815E+02
  0
VERTEX
  8
0
 62
4
 10
1.96929319E+01
 20
1.97351269E+02
  0
VERTEX
  8
0
 62
4
 10
2.00638109E+01
 20
1.97345473E+02
  0
VERTEX
  8
0
 62
4
 10
2.04361890E+01
 20
1.97345473E+02
  0
VERTEX
  8
0
 62
4
 10
2.08070680E+01
 20
1.97351269E+02
  0
VERTEX
  8
0
 62
4
 10
2.11734619E+01
 20
1.97362815E+02
  0
VERTEX
  8
0
 62
4
 10
2.15324205E+01
 20
1.97380018E+02
  0
VERTEX
  8
0
 62
4
 10
2.18810539E+01
 20
1.97402739E+02
  0
VERTEX
  8
0
 62
4
 10
2.22165549E+01
 20
1.97430795E+02
  0
VERTEX
  8
0
 62
4
 10
2.25362225E+01
 20
1.97463960E+02
  0
VERTEX
  8
0
 62
4
 10
2.28374827E+01
 20
1.97501968E+02
  0
VERTEX
  8
0
 62
4
 10
2.31179100E+01
 20
1.97544512E+02
  0
VERTEX
  8
0
 62
4
 10
2.33752466E+01
 20
1.97591250E+02
  0
VERTEX
  8
0
 62
4
 10
2.36074205E+01
 20
1.97641805E+02
  0
VERTEX
  8
0
 62
4
 10
2.38125625E+01
 20
1.97695771E+02
  0
VERTEX
  8
0
 62
4
 10
2.39890208E+01
 20
1.97752713E+02
  0
VERTEX
  8
0
 62
4
 10
2.41353747E+01
 20
1.97812172E+02
  0
VERTEX
  8
0
 62
4
 10
2.42504459E+01
 20
1.97873670E+02
  0
VERTEX
  8
0
 62
4
 10
2.43333078E+01
 20
1.97936712E+02
  0
VERTEX
  8
0
 62
4
 10
2.43832933E+01
 20
1.98000789E+02
  0
VERTEX
  8
0
 62
4
 10
2.44000000E+01
 20
1.98065387E+02
  0
SEQEND
  8
0
  0
ARC
  8
0
 62
4
 10
1.81313942E+01
 20
1.86473807E+02
 40
1.25124547E+01
 50
7.19045858E+01
 51
8.50583647E+01
  0
ARC
  8
0
 62
4
 10
2.23686056E+01
 20
1.86473809E+02
 40
1.25124521E+01
 50
9.49416351E+01
 51
1.08095416E+02
  0
POLYLINE
  8
0
 62
4
 66
1
  0
VERTEX
  8
0
 62
4
 10
1.65500000E+01
 20
1.95693976E+02
  0
VERTEX
  8
0
 62
4
 10
1.66993080E+01
 20
1.95638056E+02
  0
VERTEX
  8
0
 62
4
 10
1.68765767E+01
 20
1.95584655E+02
  0
VERTEX
  8
0
 62
4
 10
1.70804101E+01
 20
1.95534193E+02
  0
VERTEX
  8
0
 62
4
 10
1.73092032E+01
 20
1.95487068E+02
  0
VERTEX
  8
0
 62
4
 10
1.75611542E+01
 20
1.95443650E+02
  0
VERTEX
  8
0
 62
4
 10
1.78342792E+01
 20
1.95404282E+02
  0
VERTEX
  8
0
 62
4
 10
1.81264273E+01
 20
1.95369273E+02
  0
VERTEX
  8
0
 62
4
 10
1.84352979E+01
 20
1.95338900E+02
  0
VERTEX
  8
0
 62
4
 10
1.87584588E+01
 20
1.95313401E+02
  0
VERTEX
  8
0
 62
4
 10
1.90933652E+01
 20
1.95292977E+02
  0
VERTEX
  8
0
 62
4
 10
1.94373798E+01
 20
1.95277790E+02
  0
VERTEX
  8
0
 62
4
 10
1.97877935E+01
 20
1.95267958E+02
  0
VERTEX
  8
0
 62
4
 10
2.01418469E+01
 20
1.95263559E+02
  0
VERTEX
  8
0
 62
4
 10
2.04967521E+01
 20
1.95264628E+02
  0
VERTEX
  8
0
 62
4
 10
2.08497141E+01
 20
1.95271156E+02
  0
VERTEX
  8
0
 62
4
 10
2.11979536E+01
 20
1.95283092E+02
  0
VERTEX
  8
0
 62
4
 10
2.15387281E+01
 20
1.95300343E+02
  0
VERTEX
  8
0
 62
4
 10
2.18693544E+01
 20
1.95322771E+02
  0
VERTEX
  8
0
 62
4
 10
2.21872286E+01
 20
1.95350200E+02
  0
VERTEX
  8
0
 62
4
 10
2.24898477E+01
 20
1.95382415E+02
  0
VERTEX
  8
0
 62
4
 10
2.27748286E+01
 20
1.95419162E+02
  0
VERTEX
  8
0
 62
4
 10
2.30399272E+01
 20
1.95460151E+02
  0
VERTEX
  8
0
 62
4
 10
2.32830559E+01
 20
1.95505060E+02
  0
VERTEX
  8
0
 62
4
 10
2.35023002E+01
 20
1.95553535E+02
  0
VERTEX
  8
0
 62
4
 10
2.36959334E+01
 20
1.95605194E+02
  0
VERTEX
  8
0
 62
4
 10
2.38624309E+01
 20
1.95659630E+02
  0
VERTEX
  8
0
 62
4
 10
2.40004816E+01
 20
1.95716415E+02
  0
VERTEX
  8
0
 62
4
 10
2.41089982E+01
 20
1.95775102E+02
  0
VERTEX
  8
0
 62
4
 10
2.41871263E+01
 20
1.95835229E+02
  0
VERTEX
  8
0
 62
4
 10
2.42342506E+01
 20
1.95896321E+02
  0
VERTEX
  8
0
 62
4
 10
2.42500000E+01
 20
1.95957898E+02
  0
SEQEND
  8
0
  0
LINE
  8
0
 62
4
 10
2.42500000E+01
 20
1.95957898E+02
 11
2.42500000E+01
 21
1.96140128E+02
  0
LINE
  8
0
 62
4
 10
1.61000000E+01
 20
1.98060050E+02
 11
1.61000000E+01
 21
1.97920941E+02
  0
LINE
  8
0
 62
4
 10
2.44000000E+01
 20
1.98060050E+02
 11
2.44000000E+01
 21
1.96332125E+02
  0
ARC
  8
0
 62
4
 10
2.02577383E+01
 20
1.87175019E+02
 40
1.18100000E+01
 50
7.03240015E+01
 51
9.00375421E+01
  0
ARC
  8
0
 62
4
 10
2.02422617E+01
 20
1.87175019E+02
 40
1.18100000E+01
 50
8.99624577E+01
 51
1.09675998E+02
  0
POLYLINE
  8
0
 62
4
 66
1
  0
VERTEX
  8
0
 62
4
 10
1.65500000E+01
 20
1.96005754E+02
  0
VERTEX
  8
0
 62
4
 10
1.67318150E+01
 20
1.95949907E+02
  0
VERTEX
  8
0
 62
4
 10
1.69415122E+01
 20
1.95897088E+02
  0
VERTEX
  8
0
 62
4
 10
1.71774299E+01
 20
1.95847718E+02
  0
VERTEX
  8
0
 62
4
 10
1.74376982E+01
 20
1.95802186E+02
  0
VERTEX
  8
0
 62
4
 10
1.77202545E+01
 20
1.95760855E+02
  0
VERTEX
  8
0
 62
4
 10
1.80228596E+01
 20
1.95724050E+02
  0
VERTEX
  8
0
 62
4
 10
1.83431151E+01
 20
1.95692065E+02
  0
VERTEX
  8
0
 62
4
 10
1.86784831E+01
 20
1.95665152E+02
  0
VERTEX
  8
0
 62
4
 10
1.90263056E+01
 20
1.95643526E+02
  0
VERTEX
  8
0
 62
4
 10
1.93838262E+01
 20
1.95627356E+02
  0
VERTEX
  8
0
 62
4
 10
1.97482113E+01
 20
1.95616772E+02
  0
VERTEX
  8
0
 62
4
 10
2.01165732E+01
 20
1.95611858E+02
  0
VERTEX
  8
0
 62
4
 10
2.04859925E+01
 20
1.95612651E+02
  0
VERTEX
  8
0
 62
4
 10
2.08535416E+01
 20
1.95619147E+02
  0
VERTEX
  8
0
 62
4
 10
2.12163074E+01
 20
1.95631293E+02
  0
VERTEX
  8
0
 62
4
 10
2.15714151E+01
 20
1.95648993E+02
  0
VERTEX
  8
0
 62
4
 10
2.19160504E+01
 20
1.95672107E+02
  0
VERTEX
  8
0
 62
4
 10
2.22474818E+01
 20
1.95700452E+02
  0
VERTEX
  8
0
 62
4
 10
2.25630829E+01
 20
1.95733803E+02
  0
VERTEX
  8
0
 62
4
 10
2.28603523E+01
 20
1.95771896E+02
  0
VERTEX
  8
0
 62
4
 10
2.31369343E+01
 20
1.95814429E+02
  0
VERTEX
  8
0
 62
4
 10
2.33906367E+01
 20
1.95861064E+02
  0
VERTEX
  8
0
 62
4
 10
2.36194490E+01
 20
1.95911433E+02
  0
VERTEX
  8
0
 62
4
 10
2.38215578E+01
 20
1.95965136E+02
  0
VERTEX
  8
0
 62
4
 10
2.39953613E+01
 20
1.96021748E+02
  0
VERTEX
  8
0
 62
4
 10
2.41394821E+01
 20
1.96080819E+02
  0
VERTEX
  8
0
 62
4
 10
2.42527781E+01
 20
1.96141882E+02
  0
VERTEX
  8
0
 62
4
 10
2.43343513E+01
 20
1.96204452E+02
  0
VERTEX
  8
0
 62
4
 10
2.43835552E+01
 20
1.96268035E+02
  0
VERTEX
  8
0
 62
4
 10
2.44000000E+01
 20
1.96332125E+02
  0
SEQEND
  8
0
  0
LINE
  8
0
 62
4
 10
3.52500000E+01
 20
1.96374654E+02
 11
3.52500000E+01
 21
1.97347084E+02
  0
LINE
  8
0
 62
4
 10
3.52500000E+01
 20
1.96658440E+02
 11
2.44000000E+01
 21
1.96658440E+02
  0
LINE
  8
0
 62
4
 10
3.52500000E+01
 20
1.97353032E+02
 11
2.44000000E+01
 21
1.97353032E+02
  0
LINE
  8
0
 62
4
 10
3.67500000E+01
 20
1.96346044E+02
 11
3.52500000E+01
 21
1.97353032E+02
  0
LINE
  8
0
 62
4
 10
3.67500000E+01
 20
1.95952731E+02
 11
3.52500000E+01
 21
1.96658440E+02
  0
LINE
  8
0
 62
4
 10
3.67500000E+01
 20
1.93722141E+02
 11
3.67500000E+01
 21
1.96346044E+02
  0
LINE
  8
0
 62
4
 10
3.52500000E+01
 20
1.92719209E+02
 11
3.67500000E+01
 21
1.93722141E+02
  0
POLYLINE
  8
0
 62
4
 66
1
  0
VERTEX
  8
0
 62
4
 10
1.47500000E+01
 20
1.69595875E+02
  0
VERTEX
  8
0
 62
4
 10
1.47580514E+01
 20
1.69564744E+02
  0
VERTEX
  8
0
 62
4
 10
1.47821408E+01
 20
1.69533863E+02
  0
VERTEX
  8
0
 62
4
 10
1.48220743E+01
 20
1.69503481E+02
  0
VERTEX
  8
0
 62
4
 10
1.48775303E+01
 20
1.69473844E+02
  0
VERTEX
  8
0
 62
4
 10
1.49480623E+01
 20
1.69445189E+02
  0
VERTEX
  8
0
 62
4
 10
1.50331024E+01
 20
1.69417747E+02
  0
VERTEX
  8
0
 62
4
 10
1.51319660E+01
 20
1.69391739E+02
  0
VERTEX
  8
0
 62
4
 10
1.52438571E+01
 20
1.69367375E+02
  0
VERTEX
  8
0
 62
4
 10
1.53678747E+01
 20
1.69344851E+02
  0
VERTEX
  8
0
 62
4
 10
1.55030204E+01
 20
1.69324348E+02
  0
VERTEX
  8
0
 62
4
 10
1.56482060E+01
 20
1.69306031E+02
  0
VERTEX
  8
0
 62
4
 10
1.58022627E+01
 20
1.69290047E+02
  0
VERTEX
  8
0
 62
4
 10
1.59639499E+01
 20
1.69276526E+02
  0
VERTEX
  8
0
 62
4
 10
1.61319660E+01
 20
1.69265577E+02
  0
VERTEX
  8
0
 62
4
 10
1.63049581E+01
 20
1.69257286E+02
  0
VERTEX
  8
0
 62
4
 10
1.64815335E+01
 20
1.69251722E+02
  0
VERTEX
  8
0
 62
4
 10
1.66602703E+01
 20
1.69248928E+02
  0
VERTEX
  8
0
 62
4
 10
1.68397296E+01
 20
1.69248928E+02
  0
VERTEX
  8
0
 62
4
 10
1.70184665E+01
 20
1.69251722E+02
  0
VERTEX
  8
0
 62
4
 10
1.71950419E+01
 20
1.69257286E+02
  0
VERTEX
  8
0
 62
4
 10
1.73680340E+01
 20
1.69265577E+02
  0
VERTEX
  8
0
 62
4
 10
1.75360501E+01
 20
1.69276526E+02
  0
VERTEX
  8
0
 62
4
 10
1.76977373E+01
 20
1.69290047E+02
  0
VERTEX
  8
0
 62
4
 10
1.78517940E+01
 20
1.69306031E+02
  0
VERTEX
  8
0
 62
4
 10
1.79969796E+01
 20
1.69324348E+02
  0
VERTEX
  8
0
 62
4
 10
1.81321253E+01
 20
1.69344851E+02
  0
VERTEX
  8
0
 62
4
 10
1.82561429E+01
 20
1.69367375E+02
  0
VERTEX
  8
0
 62
4
 10
1.83680340E+01
 20
1.69391739E+02
  0
VERTEX
  8
0
 62
4
 10
1.84668976E+01
 20
1.69417747E+02
  0
VERTEX
  8
0
 62
4
 10
1.85519377E+01
 20
1.69445189E+02
  0
VERTEX
  8
0
 62
4
 10
1.86224697E+01
 20
1.69473844E+02
  0
VERTEX
  8
0
 62
4
 10
1.86779257E+01
 20
1.69503481E+02
  0
VERTEX
  8
0
 62
4
 10
1.87178592E+01
 20
1.69533863E+02
  0
VERTEX
  8
0
 62
4
 10
1.87419486E+01
 20
1.69564744E+02
  0
VERTEX
  8
0
 62
4
 10
1.87500000E+01
 20
1.69595875E+02
  0
SEQEND
  8
0
  0
LINE
  8
0
 62
4
 10
1.47500000E+01
 20
1.69595875E+02
 11
1.47500000E+01
 21
1.71717196E+02
  0
LINE
  8
0
 62
4
 10
1.87500000E+01
 20
1.69595875E+02
 11
1.87500000E+01
 21
1.71717196E+02
  0
LINE
  8
0
 62
6
 10
1.52500000E+01
 20
1.69366160E+02
 11
1.52500000E+01
 21
1.71717196E+02
  0
LINE
  8
0
 62
6
 10
1.82500000E+01
 20
1.69366160E+02
 11
1.82500000E+01
 21
1.71717196E+02
  0
POLYLINE
  8
0
 62
4
 66
1
  0
VERTEX
  8
0
 62
4
 10
6.74999997E+00
 20
1.69595875E+02
  0
VERTEX
  8
0
 62
4
 10
6.75805138E+00
 20
1.69564744E+02
  0
VERTEX
  8
0
 62
4
 10
6.78214079E+00
 20
1.69533863E+02
  0
VERTEX
  8
0
 62
4
 10
6.82207425E+00
 20
1.69503481E+02
  0
VERTEX
  8
0
 62
4
 10
6.87753023E+00
 20
1.69473844E+02
  0
VERTEX
  8
0
 62
4
 10
6.94806223E+00
 20
1.69445189E+02
  0
VERTEX
  8
0
 62
4
 10
7.03310238E+00
 20
1.69417747E+02
  0
VERTEX
  8
0
 62
4
 10
7.13196598E+00
 20
1.69391739E+02
  0
VERTEX
  8
0
 62
4
 10
7.24385703E+00
 20
1.69367375E+02
  0
VERTEX
  8
0
 62
4
 10
7.36787467E+00
 20
1.69344851E+02
  0
VERTEX
  8
0
 62
4
 10
7.50302036E+00
 20
1.69324348E+02
  0
VERTEX
  8
0
 62
4
 10
7.64820600E+00
 20
1.69306031E+02
  0
VERTEX
  8
0
 62
4
 10
7.80226264E+00
 20
1.69290047E+02
  0
VERTEX
  8
0
 62
4
 10
7.96394990E+00
 20
1.69276526E+02
  0
VERTEX
  8
0
 62
4
 10
8.13196597E+00
 20
1.69265577E+02
  0
VERTEX
  8
0
 62
4
 10
8.30495809E+00
 20
1.69257286E+02
  0
VERTEX
  8
0
 62
4
 10
8.48153343E+00
 20
1.69251722E+02
  0
VERTEX
  8
0
 62
4
 10
8.66027030E+00
 20
1.69248928E+02
  0
VERTEX
  8
0
 62
4
 10
8.83972962E+00
 20
1.69248928E+02
  0
VERTEX
  8
0
 62
4
 10
9.01846649E+00
 20
1.69251722E+02
  0
VERTEX
  8
0
 62
4
 10
9.19504183E+00
 20
1.69257286E+02
  0
VERTEX
  8
0
 62
4
 10
9.36803395E+00
 20
1.69265577E+02
  0
VERTEX
  8
0
 62
4
 10
9.53605002E+00
 20
1.69276526E+02
  0
VERTEX
  8
0
 62
4
 10
9.69773728E+00
 20
1.69290047E+02
  0
VERTEX
  8
0
 62
4
 10
9.85179392E+00
 20
1.69306031E+02
  0
VERTEX
  8
0
 62
4
 10
9.99697956E+00
 20
1.69324348E+02
  0
VERTEX
  8
0
 62
4
 10
1.01321253E+01
 20
1.69344851E+02
  0
VERTEX
  8
0
 62
4
 10
1.02561429E+01
 20
1.69367375E+02
  0
VERTEX
  8
0
 62
4
 10
1.03680340E+01
 20
1.69391739E+02
  0
VERTEX
  8
0
 62
4
 10
1.04668976E+01
 20
1.69417747E+02
  0
VERTEX
  8
0
 62
4
 10
1.05519377E+01
 20
1.69445189E+02
  0
VERTEX
  8
0
 62
4
 10
1.06224697E+01
 20
1.69473844E+02
  0
VERTEX
  8
0
 62
4
 10
1.06779257E+01
 20
1.69503481E+02
  0
VERTEX
  8
0
 62
4
 10
1.07178591E+01
 20
1.69533863E+02
  0
VERTEX
  8
0
 62
4
 10
1.07419486E+01
 20
1.69564744E+02
  0
VERTEX
  8
0
 62
4
 10
1.07500000E+01
 20
1.69595875E+02
  0
SEQEND
  8
0
  0
LINE
  8
0
 62
4
 10
3.52500000E+01
 20
1.96374654E+02
 11
2.44000000E+01
 21
1.96374654E+02
  0
LINE
  8
0
 62
4
 10
9.35000000E+00
 20
1.97173436E+02
 11
5.25000000E+00
 21
1.97173436E+02
  0
LINE
  8
0
 62
4
 10
9.35000000E+00
 20
1.97347084E+02
 11
5.25000000E+00
 21
1.97347084E+02
  0
LINE
  8
0
 62
4
 10
3.52500000E+01
 20
1.94568713E+02
 11
5.25000001E+00
 21
1.94568713E+02
  0
LINE
  8
0
 62
4
 10
3.52500000E+01
 20
1.84425193E+02
 11
5.25000001E+00
 21
1.84425193E+02
  0
LINE
  8
0
 62
4
 10
2.02500000E+01
 20
1.77531539E+02
 11
5.25000001E+00
 21
1.77531539E+02
  0
LINE
  8
0
 62
4
 10
2.02500000E+01
 20
1.71717196E+02
 11
5.25000001E+00
 21
1.71717196E+02
  0
LINE
  8
0
  6
CENTER
 62
6
 10
2.02500000E+01
 20
1.93457898E+02
 11
2.02500000E+01
 21
1.98457898E+02
  0
LINE
  8
0
  6
CENTER
 62
6
 10
1.67500000E+01
 20
1.66253901E+02
 11
1.67500000E+01
 21
1.76519480E+02
  0
LINE
  8
0
  6
CENTER
 62
6
 10
8.74999997E+00
 20
1.66253901E+02
 11
8.74999997E+00
 21
1.76519480E+02
  0
LINE
  8
0
 62
4
 10
3.52500000E+01
 20
1.84425193E+02
 11
3.52500000E+01
 21
1.96374654E+02
  0
LINE
  8
0
 62
4
 10
5.25000000E+00
 20
1.71717196E+02
 11
5.25000000E+00
 21
1.97347084E+02
  0
LINE
  8
0
 62
4
 10
2.02500000E+01
 20
1.71717196E+02
 11
2.02500000E+01
 21
1.84425193E+02
  0
LINE
  8
0
 62
4
 10
6.74999997E+00
 20
1.69595875E+02
 11
6.74999997E+00
 21
1.71717196E+02
  0
LINE
  8
0
 62
4
 10
1.07500000E+01
 20
1.69595875E+02
 11
1.07500000E+01
 21
1.71717196E+02
  0
LINE
  8
0
 62
6
 10
7.24999997E+00
 20
1.69366160E+02
 11
7.24999997E+00
 21
1.71717196E+02
  0
LINE
  8
0
 62
6
 10
1.02500000E+01
 20
1.69366160E+02
 11
1.02500000E+01
 21
1.71717196E+02
  0
LINE
  8
0
 62
7
 10
-3.87500000E+01
 20
2.30369434E+02
 11
-6.42500000E+01
 21
2.30369434E+02
  0
LINE
  8
0
 62
7
 10
-3.87500000E+01
 20
2.29519443E+02
 11
-6.42500000E+01
 21
2.29519443E+02
  0
LINE
  8
0
 62
7
 10
-3.87500000E+01
 20
2.24219456E+02
 11
-6.42500000E+01
 21
2.24219456E+02
  0
LINE
  8
0
 62
7
 10
5.25000000E+00
 20
1.82519474E+02
 11
-6.42500000E+01
 21
1.82519474E+02
  0
LINE
  8
0
 62
7
 10
5.25000000E+00
 20
1.77219486E+02
 11
-6.42500000E+01
 21
1.77219486E+02
  0
LINE
  8
0
 62
7
 10
5.25000000E+00
 20
1.76369495E+02
 11
-6.42500000E+01
 21
1.76369495E+02
  0
LINE
  8
0
 62
4
 10
-2.37500000E+01
 20
2.13202809E+02
 11
-1.28839746E+01
 21
2.13202809E+02
  0
LINE
  8
0
  6
CENTER
 62
6
 10
-5.87500000E+01
 20
2.11702809E+02
 11
-1.17500000E+01
 21
2.11702809E+02
  0
LINE
  8
0
 62
4
 10
-2.37500000E+01
 20
2.10202809E+02
 11
-1.46160254E+01
 21
2.10202809E+02
  0
LINE
  8
0
 62
6
 10
-1.54820508E+01
 20
2.08702809E+02
 11
-1.20179492E+01
 21
2.14702809E+02
  0
LINE
  8
0
 62
4
 10
5.25000000E+00
 20
1.93536120E+02
 11
-5.61602540E+00
 21
1.93536120E+02
  0
LINE
  8
0
  6
CENTER
 62
6
 10
4.02500000E+01
 20
1.95036120E+02
 11
-6.75000000E+00
 21
1.95036120E+02
  0
LINE
  8
0
 62
4
 10
5.25000000E+00
 20
1.96536120E+02
 11
-3.88397461E+00
 21
1.96536120E+02
  0
LINE
  8
0
 62
6
 10
-3.01794917E+00
 20
1.98036120E+02
 11
-6.48205078E+00
 21
1.92036120E+02
  0
POLYLINE
  8
0
 62
4
 66
1
  0
VERTEX
  8
0
 62
4
 10
-5.21465855E+01
 20
-1.87882114E+02
  0
VERTEX
  8
0
 62
4
 10
-5.21469441E+01
 20
-1.88174444E+02
  0
VERTEX
  8
0
 62
4
 10
-5.21214103E+01
 20
-1.88465691E+02
  0
VERTEX
  8
0
 62
4
 10
-5.20701786E+01
 20
-1.88753634E+02
  0
VERTEX
  8
0
 62
4
 10
-5.19936396E+01
 20
-1.89036079E+02
  0
VERTEX
  8
0
 62
4
 10
-5.18923766E+01
 20
-1.89310874E+02
  0
VERTEX
  8
0
 62
4
 10
-5.17671616E+01
 20
-1.89575922E+02
  0
VERTEX
  8
0
 62
4
 10
-5.16189488E+01
 20
-1.89829205E+02
  0
VERTEX
  8
0
 62
4
 10
-5.14488681E+01
 20
-1.90068792E+02
  0
VERTEX
  8
0
 62
4
 10
-5.12582159E+01
 20
-1.90292856E+02
  0
VERTEX
  8
0
 62
4
 10
-5.10484454E+01
 20
-1.90499689E+02
  0
VERTEX
  8
0
 62
4
 10
-5.08211555E+01
 20
-1.90687716E+02
  0
VERTEX
  8
0
 62
4
 10
-5.05780786E+01
 20
-1.90855502E+02
  0
VERTEX
  8
0
 62
4
 10
-5.03210676E+01
 20
-1.91001769E+02
  0
VERTEX
  8
0
 62
4
 10
-5.00520816E+01
 20
-1.91125402E+02
  0
VERTEX
  8
0
 62
4
 10
-4.97731707E+01
 20
-1.91225459E+02
  0
VERTEX
  8
0
 62
4
 10
-4.94864610E+01
 20
-1.91301176E+02
  0
VERTEX
  8
0
 62
4
 10
-4.91941379E+01
 20
-1.91351978E+02
  0
VERTEX
  8
0
 62
4
 10
-4.88984294E+01
 20
-1.91377476E+02
  0
VERTEX
  8
0
 62
4
 10
-4.86015896E+01
 20
-1.91377476E+02
  0
VERTEX
  8
0
 62
4
 10
-4.83058811E+01
 20
-1.91351978E+02
  0
VERTEX
  8
0
 62
4
 10
-4.80135579E+01
 20
-1.91301177E+02
  0
VERTEX
  8
0
 62
4
 10
-4.77268481E+01
 20
-1.91225459E+02
  0
VERTEX
  8
0
 62
4
 10
-4.74479372E+01
 20
-1.91125403E+02
  0
VERTEX
  8
0
 62
4
 10
-4.71789511E+01
 20
-1.91001770E+02
  0
VERTEX
  8
0
 62
4
 10
-4.69219400E+01
 20
-1.90855503E+02
  0
VERTEX
  8
0
 62
4
 10
-4.66788630E+01
 20
-1.90687717E+02
  0
VERTEX
  8
0
 62
4
 10
-4.64515730E+01
 20
-1.90499691E+02
  0
VERTEX
  8
0
 62
4
 10
-4.62418023E+01
 20
-1.90292858E+02
  0
VERTEX
  8
0
 62
4
 10
-4.60511499E+01
 20
-1.90068794E+02
  0
VERTEX
  8
0
 62
4
 10
-4.58810691E+01
 20
-1.89829207E+02
  0
VERTEX
  8
0
 62
4
 10
-4.57328561E+01
 20
-1.89575924E+02
  0
VERTEX
  8
0
 62
4
 10
-4.56076409E+01
 20
-1.89310876E+02
  0
VERTEX
  8
0
 62
4
 10
-4.55063777E+01
 20
-1.89036081E+02
  0
VERTEX
  8
0
 62
4
 10
-4.54298385E+01
 20
-1.88753636E+02
  0
VERTEX
  8
0
 62
4
 10
-4.53786066E+01
 20
-1.88465693E+02
  0
VERTEX
  8
0
 62
4
 10
-4.53530726E+01
 20
-1.88174446E+02
  0
VERTEX
  8
0
 62
4
 10
-4.53534310E+01
 20
-1.87882117E+02
  0
SEQEND
  8
0
  0
POLYLINE
  8
0
 62
4
 66
1
  0
VERTEX
  8
0
 62
4
 10
-5.27500081E+01
 20
-1.88032229E+02
  0
VERTEX
  8
0
 62
4
 10
-5.27347948E+01
 20
-1.88375556E+02
  0
VERTEX
  8
0
 62
4
 10
-5.26892548E+01
 20
-1.88716271E+02
  0
VERTEX
  8
0
 62
4
 10
-5.26137348E+01
 20
-1.89051780E+02
  0
VERTEX
  8
0
 62
4
 10
-5.25088095E+01
 20
-1.89379531E+02
  0
VERTEX
  8
0
 62
4
 10
-5.23752775E+01
 20
-1.89697029E+02
  0
VERTEX
  8
0
 62
4
 10
-5.22141550E+01
 20
-1.90001857E+02
  0
VERTEX
  8
0
 62
4
 10
-5.20266682E+01
 20
-1.90291696E+02
  0
VERTEX
  8
0
 62
4
 10
-5.18142440E+01
 20
-1.90564339E+02
  0
VERTEX
  8
0
 62
4
 10
-5.15784992E+01
 20
-1.90817713E+02
  0
VERTEX
  8
0
 62
4
 10
-5.13212279E+01
 20
-1.91049888E+02
  0
VERTEX
  8
0
 62
4
 10
-5.10443880E+01
 20
-1.91259097E+02
  0
VERTEX
  8
0
 62
4
 10
-5.07500865E+01
 20
-1.91443749E+02
  0
VERTEX
  8
0
 62
4
 10
-5.04405632E+01
 20
-1.91602438E+02
  0
VERTEX
  8
0
 62
4
 10
-5.01181737E+01
 20
-1.91733956E+02
  0
VERTEX
  8
0
 62
4
 10
-4.97853717E+01
 20
-1.91837302E+02
  0
VERTEX
  8
0
 62
4
 10
-4.94446899E+01
 20
-1.91911690E+02
  0
VERTEX
  8
0
 62
4
 10
-4.90987212E+01
 20
-1.91956554E+02
  0
VERTEX
  8
0
 62
4
 10
-4.87500986E+01
 20
-1.91971552E+02
  0
VERTEX
  8
0
 62
4
 10
-4.84014753E+01
 20
-1.91956570E+02
  0
VERTEX
  8
0
 62
4
 10
-4.80555045E+01
 20
-1.91911722E+02
  0
VERTEX
  8
0
 62
4
 10
-4.77148193E+01
 20
-1.91837350E+02
  0
VERTEX
  8
0
 62
4
 10
-4.73820126E+01
 20
-1.91734019E+02
  0
VERTEX
  8
0
 62
4
 10
-4.70596171E+01
 20
-1.91602516E+02
  0
VERTEX
  8
0
 62
4
 10
-4.67500865E+01
 20
-1.91443841E+02
  0
VERTEX
  8
0
 62
4
 10
-4.64557765E+01
 20
-1.91259203E+02
  0
VERTEX
  8
0
 62
4
 10
-4.61789270E+01
 20
-1.91050006E+02
  0
VERTEX
  8
0
 62
4
 10
-4.59216450E+01
 20
-1.90817843E+02
  0
VERTEX
  8
0
 62
4
 10
-4.56858885E+01
 20
-1.90564480E+02
  0
VERTEX
  8
0
 62
4
 10
-4.54734518E+01
 20
-1.90291846E+02
  0
VERTEX
  8
0
 62
4
 10
-4.52859517E+01
 20
-1.90002016E+02
  0
VERTEX
  8
0
 62
4
 10
-4.51248152E+01
 20
-1.89697195E+02
  0
VERTEX
  8
0
 62
4
 10
-4.49912686E+01
 20
-1.89379704E+02
  0
VERTEX
  8
0
 62
4
 10
-4.48863282E+01
 20
-1.89051958E+02
  0
VERTEX
  8
0
 62
4
 10
-4.48107928E+01
 20
-1.88716452E+02
  0
VERTEX
  8
0
 62
4
 10
-4.47652372E+01
 20
-1.88375739E+02
  0
VERTEX
  8
0
 62
4
 10
-4.47500081E+01
 20
-1.88032413E+02
  0
VERTEX
  8
0
 62
4
 10
-4.47652214E+01
 20
-1.87689086E+02
  0
VERTEX
  8
0
 62
4
 10
-4.48107614E+01
 20
-1.87348371E+02
  0
VERTEX
  8
0
 62
4
 10
-4.48862814E+01
 20
-1.87012862E+02
  0
VERTEX
  8
0
 62
4
 10
-4.49912067E+01
 20
-1.86685111E+02
  0
VERTEX
  8
0
 62
4
 10
-4.51247387E+01
 20
-1.86367613E+02
  0
VERTEX
  8
0
 62
4
 10
-4.52858612E+01
 20
-1.86062785E+02
  0
VERTEX
  8
0
 62
4
 10
-4.54733480E+01
 20
-1.85772946E+02
  0
VERTEX
  8
0
 62
4
 10
-4.56857722E+01
 20
-1.85500303E+02
  0
VERTEX
  8
0
 62
4
 10
-4.59215170E+01
 20
-1.85246929E+02
  0
VERTEX
  8
0
 62
4
 10
-4.61787883E+01
 20
-1.85014754E+02
  0
VERTEX
  8
0
 62
4
 10
-4.64556282E+01
 20
-1.84805545E+02
  0
VERTEX
  8
0
 62
4
 10
-4.67499297E+01
 20
-1.84620893E+02
  0
VERTEX
  8
0
 62
4
 10
-4.70594530E+01
 20
-1.84462204E+02
  0
VERTEX
  8
0
 62
4
 10
-4.73818425E+01
 20
-1.84330686E+02
  0
VERTEX
  8
0
 62
4
 10
-4.77146445E+01
 20
-1.84227340E+02
  0
VERTEX
  8
0
 62
4
 10
-4.80553263E+01
 20
-1.84152952E+02
  0
VERTEX
  8
0
 62
4
 10
-4.84012950E+01
 20
-1.84108088E+02
  0
VERTEX
  8
0
 62
4
 10
-4.87499176E+01
 20
-1.84093090E+02
  0
VERTEX
  8
0
 62
4
 10
-4.90985409E+01
 20
-1.84108072E+02
  0
VERTEX
  8
0
 62
4
 10
-4.94445117E+01
 20
-1.84152920E+02
  0
VERTEX
  8
0
 62
4
 10
-4.97851969E+01
 20
-1.84227292E+02
  0
VERTEX
  8
0
 62
4
 10
-5.01180036E+01
 20
-1.84330623E+02
  0
VERTEX
  8
0
 62
4
 10
-5.04403991E+01
 20
-1.84462126E+02
  0
VERTEX
  8
0
 62
4
 10
-5.07499297E+01
 20
-1.84620801E+02
  0
VERTEX
  8
0
 62
4
 10
-5.10442397E+01
 20
-1.84805439E+02
  0
VERTEX
  8
0
 62
4
 10
-5.13210892E+01
 20
-1.85014636E+02
  0
VERTEX
  8
0
 62
4
 10
-5.15783712E+01
 20
-1.85246799E+02
  0
VERTEX
  8
0
 62
4
 10
-5.18141277E+01
 20
-1.85500162E+02
  0
VERTEX
  8
0
 62
4
 10
-5.20265644E+01
 20
-1.85772796E+02
  0
VERTEX
  8
0
 62
4
 10
-5.22140645E+01
 20
-1.86062626E+02
  0
VERTEX
  8
0
 62
4
 10
-5.23752010E+01
 20
-1.86367447E+02
  0
VERTEX
  8
0
 62
4
 10
-5.25087476E+01
 20
-1.86684938E+02
  0
VERTEX
  8
0
 62
4
 10
-5.26136880E+01
 20
-1.87012684E+02
  0
VERTEX
  8
0
 62
4
 10
-5.26892234E+01
 20
-1.87348190E+02
  0
VERTEX
  8
0
 62
4
 10
-5.27347790E+01
 20
-1.87688903E+02
  0
VERTEX
  8
0
 62
4
 10
-5.27500081E+01
 20
-1.88032229E+02
  0
SEQEND
  8
0
  0
POLYLINE
  8
0
 62
4
 66
1
  0
VERTEX
  8
0
 62
4
 10
-5.21500083E+01
 20
-1.87731832E+02
  0
VERTEX
  8
0
 62
4
 10
-5.21370770E+01
 20
-1.88023660E+02
  0
VERTEX
  8
0
 62
4
 10
-5.20983680E+01
 20
-1.88313267E+02
  0
VERTEX
  8
0
 62
4
 10
-5.20341760E+01
 20
-1.88598450E+02
  0
VERTEX
  8
0
 62
4
 10
-5.19449895E+01
 20
-1.88877039E+02
  0
VERTEX
  8
0
 62
4
 10
-5.18314873E+01
 20
-1.89146912E+02
  0
VERTEX
  8
0
 62
4
 10
-5.16945331E+01
 20
-1.89406016E+02
  0
VERTEX
  8
0
 62
4
 10
-5.15351694E+01
 20
-1.89652379E+02
  0
VERTEX
  8
0
 62
4
 10
-5.13546089E+01
 20
-1.89884126E+02
  0
VERTEX
  8
0
 62
4
 10
-5.11542257E+01
 20
-1.90099493E+02
  0
VERTEX
  8
0
 62
4
 10
-5.09355451E+01
 20
-1.90296842E+02
  0
VERTEX
  8
0
 62
4
 10
-5.07002312E+01
 20
-1.90474670E+02
  0
VERTEX
  8
0
 62
4
 10
-5.04500749E+01
 20
-1.90631624E+02
  0
VERTEX
  8
0
 62
4
 10
-5.01869801E+01
 20
-1.90766509E+02
  0
VERTEX
  8
0
 62
4
 10
-4.99129491E+01
 20
-1.90878300E+02
  0
VERTEX
  8
0
 62
4
 10
-4.96300674E+01
 20
-1.90966144E+02
  0
VERTEX
  8
0
 62
4
 10
-4.93404879E+01
 20
-1.91029374E+02
  0
VERTEX
  8
0
 62
4
 10
-4.90464145E+01
 20
-1.91067508E+02
  0
VERTEX
  8
0
 62
4
 10
-4.87500852E+01
 20
-1.91080256E+02
  0
VERTEX
  8
0
 62
4
 10
-4.84537554E+01
 20
-1.91067522E+02
  0
VERTEX
  8
0
 62
4
 10
-4.81596802E+01
 20
-1.91029401E+02
  0
VERTEX
  8
0
 62
4
 10
-4.78700978E+01
 20
-1.90966184E+02
  0
VERTEX
  8
0
 62
4
 10
-4.75872121E+01
 20
-1.90878353E+02
  0
VERTEX
  8
0
 62
4
 10
-4.73131759E+01
 20
-1.90766575E+02
  0
VERTEX
  8
0
 62
4
 10
-4.70500749E+01
 20
-1.90631702E+02
  0
VERTEX
  8
0
 62
4
 10
-4.67999114E+01
 20
-1.90474760E+02
  0
VERTEX
  8
0
 62
4
 10
-4.65645894E+01
 20
-1.90296942E+02
  0
VERTEX
  8
0
 62
4
 10
-4.63458996E+01
 20
-1.90099604E+02
  0
VERTEX
  8
0
 62
4
 10
-4.61455066E+01
 20
-1.89884245E+02
  0
VERTEX
  8
0
 62
4
 10
-4.59649355E+01
 20
-1.89652507E+02
  0
VERTEX
  8
0
 62
4
 10
-4.58055604E+01
 20
-1.89406151E+02
  0
VERTEX
  8
0
 62
4
 10
-4.56685943E+01
 20
-1.89147053E+02
  0
VERTEX
  8
0
 62
4
 10
-4.55550797E+01
 20
-1.88877185E+02
  0
VERTEX
  8
0
 62
4
 10
-4.54658804E+01
 20
-1.88598601E+02
  0
VERTEX
  8
0
 62
4
 10
-4.54016753E+01
 20
-1.88313421E+02
  0
VERTEX
  8
0
 62
4
 10
-4.53629530E+01
 20
-1.88023815E+02
  0
VERTEX
  8
0
 62
4
 10
-4.53500083E+01
 20
-1.87731988E+02
  0
VERTEX
  8
0
 62
4
 10
-4.53629396E+01
 20
-1.87440160E+02
  0
VERTEX
  8
0
 62
4
 10
-4.54016486E+01
 20
-1.87150553E+02
  0
VERTEX
  8
0
 62
4
 10
-4.54658406E+01
 20
-1.86865370E+02
  0
VERTEX
  8
0
 62
4
 10
-4.55550271E+01
 20
-1.86586781E+02
  0
VERTEX
  8
0
 62
4
 10
-4.56685293E+01
 20
-1.86316908E+02
  0
VERTEX
  8
0
 62
4
 10
-4.58054835E+01
 20
-1.86057804E+02
  0
VERTEX
  8
0
 62
4
 10
-4.59648472E+01
 20
-1.85811441E+02
  0
VERTEX
  8
0
 62
4
 10
-4.61454078E+01
 20
-1.85579694E+02
  0
VERTEX
  8
0
 62
4
 10
-4.63457909E+01
 20
-1.85364327E+02
  0
VERTEX
  8
0
 62
4
 10
-4.65644715E+01
 20
-1.85166978E+02
  0
VERTEX
  8
0
 62
4
 10
-4.67997854E+01
 20
-1.84989150E+02
  0
VERTEX
  8
0
 62
4
 10
-4.70499417E+01
 20
-1.84832196E+02
  0
VERTEX
  8
0
 62
4
 10
-4.73130365E+01
 20
-1.84697311E+02
  0
VERTEX
  8
0
 62
4
 10
-4.75870675E+01
 20
-1.84585520E+02
  0
VERTEX
  8
0
 62
4
 10
-4.78699493E+01
 20
-1.84497676E+02
  0
VERTEX
  8
0
 62
4
 10
-4.81595287E+01
 20
-1.84434446E+02
  0
VERTEX
  8
0
 62
4
 10
-4.84536022E+01
 20
-1.84396312E+02
  0
VERTEX
  8
0
 62
4
 10
-4.87499314E+01
 20
-1.84383564E+02
  0
VERTEX
  8
0
 62
4
 10
-4.90462612E+01
 20
-1.84396298E+02
  0
VERTEX
  8
0
 62
4
 10
-4.93403364E+01
 20
-1.84434419E+02
  0
VERTEX
  8
0
 62
4
 10
-4.96299188E+01
 20
-1.84497636E+02
  0
VERTEX
  8
0
 62
4
 10
-4.99128045E+01
 20
-1.84585467E+02
  0
VERTEX
  8
0
 62
4
 10
-5.01868407E+01
 20
-1.84697245E+02
  0
VERTEX
  8
0
 62
4
 10
-5.04499417E+01
 20
-1.84832118E+02
  0
VERTEX
  8
0
 62
4
 10
-5.07001052E+01
 20
-1.84989060E+02
  0
VERTEX
  8
0
 62
4
 10
-5.09354273E+01
 20
-1.85166878E+02
  0
VERTEX
  8
0
 62
4
 10
-5.11541170E+01
 20
-1.85364216E+02
  0
VERTEX
  8
0
 62
4
 10
-5.13545100E+01
 20
-1.85579575E+02
  0
VERTEX
  8
0
 62
4
 10
-5.15350811E+01
 20
-1.85811313E+02
  0
VERTEX
  8
0
 62
4
 10
-5.16944562E+01
 20
-1.86057669E+02
  0
VERTEX
  8
0
 62
4
 10
-5.18314223E+01
 20
-1.86316767E+02
  0
VERTEX
  8
0
 62
4
 10
-5.19449369E+01
 20
-1.86586635E+02
  0
VERTEX
  8
0
 62
4
 10
-5.20341362E+01
 20
-1.86865219E+02
  0
VERTEX
  8
0
 62
4
 10
-5.20983413E+01
 20
-1.87150399E+02
  0
VERTEX
  8
0
 62
4
 10
-5.21370636E+01
 20
-1.87440005E+02
  0
VERTEX
  8
0
 62
4
 10
-5.21500083E+01
 20
-1.87731832E+02
  0
SEQEND
  8
0
  0
LINE
  8
0
 62
4
 10
-5.77499951E+01
 20
-2.00746796E+02
 11
-2.47499951E+01
 21
-2.00746772E+02
  0
LINE
  8
0
 62
4
 10
-2.17499994E+01
 20
-1.95505176E+02
 11
-2.47499951E+01
 21
-1.99965356E+02
  0
LINE
  8
0
 62
4
 10
-5.77499952E+01
 20
-1.99965379E+02
 11
-6.07499994E+01
 21
-1.95505204E+02
  0
LINE
  8
0
 62
4
 10
-2.47499951E+01
 20
-2.03557736E+02
 11
-2.47499951E+01
 21
-1.99965356E+02
  0
LINE
  8
0
 62
4
 10
-5.77499951E+01
 20
-2.03557736E+02
 11
-5.77499951E+01
 21
-1.99965379E+02
  0
LINE
  8
0
 62
4
 10
-5.77499951E+01
 20
-1.99965379E+02
 11
-2.47499951E+01
 21
-1.99965356E+02
  0
LINE
  8
0
 62
4
 10
-5.62500332E+01
 20
-1.52955090E+02
 11
-4.12500332E+01
 21
-1.52955079E+02
  0
LINE
  8
0
  6
CENTER
 62
6
 10
-4.87500039E+01
 20
-1.93911117E+02
 11
-4.87500131E+01
 21
-1.81111117E+02
  0
LINE
  8
0
  6
CENTER
 62
6
 10
-5.51500085E+01
 20
-1.87511122E+02
 11
-4.23500085E+01
 21
-1.87511113E+02
  0
LINE
  8
0
 62
4
 10
-5.82500158E+01
 20
-1.77227977E+02
 11
-3.92500158E+01
 21
-1.77227963E+02
  0
LINE
  8
0
 62
4
 10
-6.07500086E+01
 20
-1.82629088E+02
 11
-6.07499994E+01
 21
-1.95505204E+02
  0
LINE
  8
0
 62
4
 10
-5.82500158E+01
 20
-1.77227977E+02
 11
-5.82500131E+01
 21
-1.81129071E+02
  0
LINE
  8
0
 62
4
 10
-4.12500332E+01
 20
-1.52955079E+02
 11
-4.12500158E+01
 21
-1.77227977E+02
  0
LINE
  8
0
 62
4
 10
-5.62500332E+01
 20
-1.52955079E+02
 11
-5.62500158E+01
 21
-1.77227975E+02
  0
LINE
  8
0
 62
4
 10
-3.92500158E+01
 20
-1.77227977E+02
 11
-3.92500131E+01
 21
-1.81129072E+02
  0
LINE
  8
0
 62
4
 10
-5.62500163E+01
 20
-1.76590465E+02
 11
-4.12500163E+01
 21
-1.76590455E+02
  0
LINE
  8
0
 62
4
 10
-2.17500086E+01
 20
-1.82629060E+02
 11
-2.17499994E+01
 21
-1.95505176E+02
  0
LINE
  8
0
 62
4
 10
-6.07499994E+01
 20
-1.95505204E+02
 11
-2.17499994E+01
 21
-1.95505176E+02
  0
LINE
  8
0
 62
4
 10
-6.07500004E+01
 20
-1.94027992E+02
 11
-2.17500004E+01
 21
-1.94027964E+02
  0
LINE
  8
0
 62
4
 10
-5.92500096E+01
 20
-1.81129087E+02
 11
-2.32500096E+01
 21
-1.81129061E+02
  0
LINE
  8
0
 62
4
 10
-7.57500333E+01
 20
-1.52780229E+02
 11
-7.07500333E+01
 21
-1.52780225E+02
  0
LINE
  8
0
 62
4
 10
-7.57500315E+01
 20
-1.55344545E+02
 11
-7.07500315E+01
 21
-1.55344541E+02
  0
LINE
  8
0
 62
4
 10
-7.57500262E+01
 20
-1.62740451E+02
 11
-7.07500262E+01
 21
-1.62740448E+02
  0
LINE
  8
0
 62
4
 10
-7.57500227E+01
 20
-1.67562193E+02
 11
-7.07500227E+01
 21
-1.67562190E+02
  0
LINE
  8
0
 62
4
 10
-6.52500230E+01
 20
-1.67165149E+02
 11
-5.67500230E+01
 21
-1.67165143E+02
  0
LINE
  8
0
 62
4
 10
-5.62500330E+01
 20
-1.53165144E+02
 11
-6.52500330E+01
 21
-1.53165150E+02
  0
LINE
  8
0
 62
4
 10
-6.57500327E+01
 20
-1.53665151E+02
 11
-6.57500234E+01
 21
-1.66664641E+02
  0
LINE
  8
0
 62
4
 10
-7.57500333E+01
 20
-1.52780229E+02
 11
-7.57500227E+01
 21
-1.67562193E+02
  0
LINE
  8
0
 62
4
 10
-7.07500333E+01
 20
-1.52780225E+02
 11
-7.07500227E+01
 21
-1.67562193E+02
  0
LINE
  8
0
 62
4
 10
-7.07500325E+01
 20
-1.53915148E+02
 11
-6.57500325E+01
 21
-1.53915144E+02
  0
LINE
  8
0
 62
4
 10
-7.07500236E+01
 20
-1.66415148E+02
 11
-6.57500236E+01
 21
-1.66415144E+02
  0
LINE
  8
0
 62
4
 10
-6.92500325E+01
 20
-1.53915146E+02
 11
-6.92500236E+01
 21
-1.66415146E+02
  0
LINE
  8
0
 62
4
 10
-6.92500321E+01
 20
-1.54415146E+02
 11
-6.57500321E+01
 21
-1.54415144E+02
  0
LINE
  8
0
 62
4
 10
-6.92500239E+01
 20
-1.65915146E+02
 11
-6.57500239E+01
 21
-1.65915144E+02
  0
ARC
  8
0
 62
4
 10
-6.52505247E+01
 20
-1.53664658E+02
 40
4.99508251E-01
 50
8.99436074E+01
 51
1.80056475E+02
  0
ARC
  8
0
 62
4
 10
-5.67495154E+01
 20
-1.67664635E+02
 40
4.99492993E-01
 50
3.59941854E+02
 51
9.00582282E+01
  0
ARC
  8
0
 62
4
 10
-2.32495011E+01
 20
-1.82628553E+02
 40
1.49949266E+00
 50
3.59980652E+02
 51
9.00194298E+01
  0
ARC
  8
0
 62
4
 10
-6.52495156E+01
 20
-1.66664641E+02
 40
5.00508007E-01
 50
1.80058166E+02
 51
2.69941916E+02
  0
ARC
  8
0
 62
4
 10
-5.92505007E+01
 20
-1.82628594E+02
 40
1.49950792E+00
 50
8.99812358E+01
 51
1.80018846E+02
  0
LINE
  8
0
 62
6
 10
-5.04649434E+01
 20
-1.89226055E+02
 11
-4.70350736E+01
 21
-1.85796180E+02
  0
LINE
  8
0
 62
6
 10
-4.70350712E+01
 20
-1.89226052E+02
 11
-5.04649458E+01
 21
-1.85796182E+02
  0
ARC
  8
0
 62
4
 10
-2.44839919E+02
 20
-1.90097291E+02
 40
9.98481423E-01
 50
2.80114125E+02
 51
3.56771982E+02
  0
ARC
  8
0
 62
4
 10
-2.55634864E+02
 20
-1.89540514E+02
 40
1.18077645E+01
 50
3.57024145E+02
 51
2.27266957E+01
  0
LINE
  8
0
  6
CENTER
 62
6
 10
-2.78403609E+02
 20
-1.93576908E+02
 11
-2.41049851E+02
 21
-1.86990432E+02
  0
LINE
  8
0
 62
4
 10
-2.78763019E+02
 20
-1.89070861E+02
 11
-2.71867905E+02
 21
-1.87855067E+02
  0
LINE
  8
0
 62
4
 10
-2.70884299E+02
 20
-1.96312757E+02
 11
-2.70391895E+02
 21
-1.96225933E+02
  0
LINE
  8
0
 62
4
 10
-2.71289879E+02
 20
-1.96891985E+02
 11
-2.70819840E+02
 21
-1.99557706E+02
  0
LINE
  8
0
 62
4
 10
-2.72993011E+02
 20
-1.55559802E+02
 11
-2.68177301E+02
 21
-1.54710662E+02
  0
LINE
  8
0
 62
4
 10
-2.58220895E+02
 20
-1.52955079E+02
 11
-2.53879691E+02
 21
-1.77575273E+02
  0
LINE
  8
0
 62
4
 10
-2.72993011E+02
 20
-1.55559802E+02
 11
-2.68651807E+02
 21
-1.80179996E+02
  0
LINE
  8
0
 62
4
 10
-2.70621422E+02
 20
-1.80527292E+02
 11
-2.51910075E+02
 21
-1.77227977E+02
  0
LINE
  8
0
 62
4
 10
-2.68825455E+02
 20
-1.79195188E+02
 11
-2.54053339E+02
 21
-1.76590465E+02
  0
LINE
  8
0
 62
4
 10
-2.51910075E+02
 20
-1.77227977E+02
 11
-2.51215482E+02
 21
-1.81167208E+02
  0
LINE
  8
0
 62
4
 10
-2.70621422E+02
 20
-1.80527292E+02
 11
-2.69926830E+02
 21
-1.84466523E+02
  0
LINE
  8
0
 62
4
 10
-2.69926830E+02
 20
-1.84466523E+02
 11
-2.51215482E+02
 21
-1.81167208E+02
  0
LINE
  8
0
 62
4
 10
-2.69131621E+02
 20
-1.99557706E+02
 11
-2.46148740E+02
 21
-1.95505204E+02
  0
LINE
  8
0
 62
4
 10
-2.48319343E+02
 20
-1.83195107E+02
 11
-2.46148740E+02
 21
-1.95505204E+02
  0
LINE
  8
0
 62
4
 10
-2.71954729E+02
 20
-1.87362663E+02
 11
-2.69804414E+02
 21
-1.99557706E+02
  0
LINE
  8
0
 62
4
 10
-2.46148740E+02
 20
-1.95505204E+02
 11
-2.48202016E+02
 21
-1.99557706E+02
  0
LINE
  8
0
 62
4
 10
-2.70044599E+02
 20
-1.98195548E+02
 11
-2.46409213E+02
 21
-1.94027992E+02
  0
LINE
  8
0
 62
4
 10
-2.61151586E+02
 20
-1.91042624E+02
 11
-2.57212355E+02
 21
-1.90348031E+02
  0
LINE
  8
0
 62
4
 10
-2.60717466E+02
 20
-1.93504643E+02
 11
-2.56778235E+02
 21
-1.92810050E+02
  0
LINE
  8
0
 62
4
 10
-2.61151586E+02
 20
-1.91042624E+02
 11
-2.60717466E+02
 21
-1.93504643E+02
  0
LINE
  8
0
 62
4
 10
-2.57212355E+02
 20
-1.90348031E+02
 11
-2.56778235E+02
 21
-1.92810050E+02
  0
LINE
  8
0
 62
4
 10
-2.63260966E+02
 20
-1.67562193E+02
 11
-2.57510897E+02
 21
-1.62740451E+02
  0
LINE
  8
0
 62
4
 10
-2.71617495E+02
 20
-1.57601971E+02
 11
-2.65867426E+02
 21
-1.52780229E+02
  0
LINE
  8
0
 62
4
 10
-2.71617495E+02
 20
-1.57601971E+02
 11
-2.70313397E+02
 21
-1.64997877E+02
  0
LINE
  8
0
 62
4
 10
-2.58814994E+02
 20
-1.55344545E+02
 11
-2.57510897E+02
 21
-1.62740451E+02
  0
LINE
  8
0
 62
4
 10
-2.70313397E+02
 20
-1.64997877E+02
 11
-2.63260966E+02
 21
-1.67562193E+02
  0
LINE
  8
0
 62
4
 10
-2.65867426E+02
 20
-1.52780229E+02
 11
-2.58814994E+02
 21
-1.55344545E+02
  0
LINE
  8
0
 62
4
 10
-2.63046453E+02
 20
-1.53805955E+02
 11
-2.58220895E+02
 21
-1.52955079E+02
  0
LINE
  8
0
 62
4
 10
-2.48145694E+02
 20
-1.84179914E+02
 11
-2.47653291E+02
 21
-1.84093090E+02
  0
LINE
  8
0
 62
4
 10
-2.46756509E+02
 20
-1.92058376E+02
 11
-2.46264105E+02
 21
-1.91971552E+02
  0
LINE
  8
0
 62
4
 10
-2.47549102E+02
 20
-1.84683975E+02
 11
-2.45845384E+02
 21
-1.84383564E+02
  0
LINE
  8
0
 62
4
 10
-2.44664577E+02
 20
-1.91080256E+02
 11
-2.46368294E+02
 21
-1.91380668E+02
  0
LINE
  8
0
 62
4
 10
-2.47653291E+02
 20
-1.84093090E+02
 11
-2.46264105E+02
 21
-1.91971552E+02
  0
ARC
  8
0
 62
4
 10
-2.70797474E+02
 20
-1.96805161E+02
 40
5.00000533E-01
 50
1.00000061E+02
 51
1.89999939E+02
  0
ARC
  8
0
 62
4
 10
-2.69492688E+02
 20
-1.86928557E+02
 40
2.50001831E+00
 50
1.00000420E+02
 51
1.89999580E+02
  0
ARC
  8
0
 62
4
 10
-2.50780563E+02
 20
-1.83628087E+02
 40
2.49901570E+00
 50
9.97742809E+00
 51
1.00022572E+02
  0
CIRCLE
  8
0
 62
4
 10
-2.64564251E+02
 20
-1.60165144E+02
 40
3.75000000E+00
  0
ARC
  8
0
 62
4
 10
-2.45674763E+02
 20
-1.85364955E+02
 40
9.96112687E-01
 50
2.25301420E+01
 51
9.98626848E+01
  0
ARC
  8
0
 62
4
 10
-2.64564251E+02
 20
-1.60165144E+02
 40
7.00000000E+00
 50
6.89816399E+01
 51
9.19142837E+01
  0
ARC
  8
0
 62
4
 10
-2.64564251E+02
 20
-1.60165144E+02
 40
7.00000000E+00
 50
1.08107658E+02
 51
1.31018360E+02
  0
LINE
  8
0
 62
4
 10
-2.78763019E+02
 20
-1.89070861E+02
 11
-2.83123147E+02
 21
-2.01059040E+02
  0
LINE
  8
0
 62
4
 10
-2.83749969E+02
 20
-2.02782488E+02
 11
-2.84568111E+02
 21
-2.05031970E+02
  0
LINE
  8
0
 62
4
 10
-2.84568111E+02
 20
-2.05031970E+02
 11
-2.83749969E+02
 21
-2.09671883E+02
  0
LINE
  8
0
  6
CENTER
 62
6
 10
-2.86989848E+02
 20
-2.10819851E+02
 11
-2.83749969E+02
 21
-2.10248573E+02
  0
LINE
  8
0
 62
6
 10
-2.85515457E+02
 20
-2.12083016E+02
 11
-2.83749969E+02
 21
-2.11771713E+02
  0
LINE
  8
0
 62
4
 10
-2.85136681E+02
 20
-2.08472389E+02
 11
-2.83996909E+02
 21
-2.08271417E+02
  0
LINE
  8
0
 62
4
 10
-2.84443825E+02
 20
-2.12401772E+02
 11
-2.83749969E+02
 21
-2.12279427E+02
  0
LINE
  8
0
 62
4
 10
-2.86076340E+02
 20
-2.08902087E+02
 11
-2.85473781E+02
 21
-2.12319370E+02
  0
LINE
  8
0
 62
4
 10
-2.85136681E+02
 20
-2.08472389E+02
 11
-2.86076340E+02
 21
-2.08902087E+02
  0
LINE
  8
0
 62
4
 10
-2.84443825E+02
 20
-2.12401772E+02
 11
-2.85473781E+02
 21
-2.12319370E+02
  0
LINE
  8
0
 62
6
 10
-2.86036401E+02
 20
-2.09128593E+02
 11
-2.83911822E+02
 21
-2.08753972E+02
  0
LINE
  8
0
 62
4
 10
9.14969297E+01
 20
-1.81286802E+02
 11
9.76815224E+01
 21
-1.82377313E+02
  0
LINE
  8
0
 62
4
 10
9.76815224E+01
 20
-1.82377313E+02
 11
9.78624050E+01
 21
-1.83424634E+02
  0
LINE
  8
0
 62
4
 10
9.09687507E+01
 20
-1.82209097E+02
 11
9.14969297E+01
 21
-1.81286802E+02
  0
LINE
  8
0
  6
CENTER
 62
6
 10
9.49776265E+01
 20
-1.79629329E+02
 11
9.41568420E+01
 21
-1.84284229E+02
  0
LINE
  8
0
 62
4
 10
1.17580269E+02
 20
-2.02743659E+02
 11
1.18412533E+02
 21
-2.05031970E+02
  0
ARC
  8
0
 62
4
 10
7.95191840E+01
 20
-1.85364955E+02
 40
9.96112687E-01
 50
8.01373150E+01
 51
1.57469858E+02
  0
ARC
  8
0
 62
4
 10
7.86843408E+01
 20
-1.90097291E+02
 40
9.98481423E-01
 50
1.83228018E+02
 51
2.59885875E+02
  0
ARC
  8
0
 62
4
 10
8.46249848E+01
 20
-1.83628087E+02
 40
2.49901570E+00
 50
7.99774282E+01
 51
1.70022572E+02
  0
ARC
  8
0
 62
4
 10
1.03337109E+02
 20
-1.86928557E+02
 40
2.50001831E+00
 50
3.50000420E+02
 51
7.99995805E+01
  0
ARC
  8
0
 62
4
 10
8.94792853E+01
 20
-1.89540514E+02
 40
1.18077645E+01
 50
1.57273305E+02
 51
1.82975855E+02
  0
ARC
  8
0
 62
4
 10
1.04641896E+02
 20
-1.96805161E+02
 40
5.00000533E-01
 50
3.50000061E+02
 51
7.99999392E+01
  0
LINE
  8
0
 62
4
 10
8.14977119E+01
 20
-1.84093090E+02
 11
8.01085265E+01
 21
-1.91971552E+02
  0
LINE
  8
0
  6
CENTER
 62
6
 10
1.12248031E+02
 20
-1.93576908E+02
 11
7.48942727E+01
 21
-1.86990432E+02
  0
LINE
  8
0
 62
4
 10
7.85089980E+01
 20
-1.91080256E+02
 11
8.02127154E+01
 21
-1.91380668E+02
  0
LINE
  8
0
 62
4
 10
8.13935230E+01
 20
-1.84683975E+02
 11
7.96898056E+01
 21
-1.84383564E+02
  0
LINE
  8
0
 62
4
 10
8.06009304E+01
 20
-1.92058376E+02
 11
8.01085265E+01
 21
-1.91971552E+02
  0
LINE
  8
0
 62
4
 10
8.19901158E+01
 20
-1.84179914E+02
 11
8.14977119E+01
 21
-1.84093090E+02
  0
LINE
  8
0
 62
4
 10
9.97118469E+01
 20
-1.52780229E+02
 11
9.86425267E+01
 21
-1.53169042E+02
  0
LINE
  8
0
 62
4
 10
1.00583734E+02
 20
-1.53511353E+02
 11
9.97118469E+01
 21
-1.52780229E+02
  0
LINE
  8
0
 62
4
 10
9.10567766E+01
 20
-1.90348031E+02
 11
9.06226561E+01
 21
-1.92810050E+02
  0
LINE
  8
0
 62
4
 10
9.49960076E+01
 20
-1.91042624E+02
 11
9.45618871E+01
 21
-1.93504643E+02
  0
LINE
  8
0
 62
4
 10
9.45618871E+01
 20
-1.93504643E+02
 11
9.06226561E+01
 21
-1.92810050E+02
  0
LINE
  8
0
 62
4
 10
9.49960076E+01
 20
-1.91042624E+02
 11
9.10567766E+01
 21
-1.90348031E+02
  0
LINE
  8
0
 62
4
 10
1.03889020E+02
 20
-1.98195548E+02
 11
8.02536340E+01
 21
-1.94027992E+02
  0
LINE
  8
0
 62
4
 10
7.99931618E+01
 20
-1.95505204E+02
 11
8.20464370E+01
 21
-1.99557706E+02
  0
LINE
  8
0
 62
4
 10
1.05799150E+02
 20
-1.87362663E+02
 11
1.03648835E+02
 21
-1.99557706E+02
  0
LINE
  8
0
 62
4
 10
8.21637640E+01
 20
-1.83195107E+02
 11
7.99931618E+01
 21
-1.95505204E+02
  0
LINE
  8
0
 62
4
 10
1.02976043E+02
 20
-1.99557706E+02
 11
7.99931618E+01
 21
-1.95505204E+02
  0
LINE
  8
0
 62
4
 10
1.03771251E+02
 20
-1.84466523E+02
 11
8.50599038E+01
 21
-1.81167208E+02
  0
LINE
  8
0
 62
4
 10
1.04465844E+02
 20
-1.80527292E+02
 11
1.03771251E+02
 21
-1.84466523E+02
  0
LINE
  8
0
 62
4
 10
8.57544965E+01
 20
-1.77227977E+02
 11
8.50599038E+01
 21
-1.81167208E+02
  0
LINE
  8
0
 62
4
 10
1.02669877E+02
 20
-1.79195188E+02
 11
8.78977602E+01
 21
-1.76590465E+02
  0
LINE
  8
0
 62
4
 10
1.04465844E+02
 20
-1.80527292E+02
 11
8.57544965E+01
 21
-1.77227977E+02
  0
LINE
  8
0
 62
4
 10
1.06837433E+02
 20
-1.55559802E+02
 11
1.02496228E+02
 21
-1.80179996E+02
  0
LINE
  8
0
 62
4
 10
9.20653165E+01
 20
-1.52955079E+02
 11
8.77241120E+01
 21
-1.77575273E+02
  0
LINE
  8
0
 62
4
 10
9.20653165E+01
 20
-1.52955079E+02
 11
1.06837433E+02
 21
-1.55559802E+02
  0
LINE
  8
0
 62
6
 10
1.19880823E+02
 20
-2.09128593E+02
 11
1.17756243E+02
 21
-2.08753972E+02
  0
LINE
  8
0
 62
4
 10
1.18288246E+02
 20
-2.12401772E+02
 11
1.19318203E+02
 21
-2.12319370E+02
  0
LINE
  8
0
 62
4
 10
1.18981103E+02
 20
-2.08472389E+02
 11
1.19920762E+02
 21
-2.08902087E+02
  0
LINE
  8
0
 62
4
 10
1.19920762E+02
 20
-2.08902087E+02
 11
1.19318203E+02
 21
-2.12319370E+02
  0
LINE
  8
0
 62
4
 10
1.18288246E+02
 20
-2.12401772E+02
 11
1.17594391E+02
 21
-2.12279427E+02
  0
LINE
  8
0
 62
4
 10
1.18981103E+02
 20
-2.08472389E+02
 11
1.17841331E+02
 21
-2.08271417E+02
  0
LINE
  8
0
 62
6
 10
1.19359878E+02
 20
-2.12083016E+02
 11
1.17594391E+02
 21
-2.11771713E+02
  0
LINE
  8
0
  6
CENTER
 62
6
 10
1.20834269E+02
 20
-2.10819851E+02
 11
1.17594391E+02
 21
-2.10248573E+02
  0
LINE
  8
0
 62
4
 10
1.12607440E+02
 20
-1.89070861E+02
 11
1.16967569E+02
 21
-2.01059040E+02
  0
LINE
  8
0
 62
4
 10
1.18412533E+02
 20
-2.05031970E+02
 11
1.17594391E+02
 21
-2.09671883E+02
  0
LINE
  8
0
 62
4
 10
1.05134300E+02
 20
-1.96891985E+02
 11
1.04664262E+02
 21
-1.99557706E+02
  0
LINE
  8
0
 62
4
 10
1.04728720E+02
 20
-1.96312757E+02
 11
1.04236316E+02
 21
-1.96225933E+02
  0
LINE
  8
0
 62
4
 10
1.12607440E+02
 20
-1.89070861E+02
 11
1.05712326E+02
 21
-1.87855067E+02
  0
ARC
  8
0
 62
4
 10
9.84096192E+01
 20
-1.60165166E+02
 40
7.00000000E+00
 50
4.89793705E+01
 51
1.11020629E+02
  0
LINE
  8
0
 62
4
 10
-5.62499945E+01
 20
-8.44279844E+01
 11
-4.12499945E+01
 21
-8.44279844E+01
  0
LINE
  8
0
 62
4
 10
-5.82499945E+01
 20
-8.70921926E+01
 11
-3.92499945E+01
 21
-8.70921926E+01
  0
POLYLINE
  8
0
 62
4
 66
1
  0
VERTEX
  8
0
 62
4
 10
-2.92499945E+01
 20
-7.77365186E+01
  0
VERTEX
  8
0
 62
4
 10
-2.92633131E+01
 20
-7.74361078E+01
  0
VERTEX
  8
0
 62
4
 10
-2.93031674E+01
 20
-7.71379833E+01
  0
VERTEX
  8
0
 62
4
 10
-2.93692541E+01
 20
-7.68444141E+01
  0
VERTEX
  8
0
 62
4
 10
-2.94610703E+01
 20
-7.65576343E+01
  0
VERTEX
  8
0
 62
4
 10
-2.95779172E+01
 20
-7.62798265E+01
  0
VERTEX
  8
0
 62
4
 10
-2.97189056E+01
 20
-7.60131050E+01
  0
VERTEX
  8
0
 62
4
 10
-2.98829623E+01
 20
-7.57594998E+01
  0
VERTEX
  8
0
 62
4
 10
-3.00688389E+01
 20
-7.55209408E+01
  0
VERTEX
  8
0
 62
4
 10
-3.02751208E+01
 20
-7.52992438E+01
  0
VERTEX
  8
0
 62
4
 10
-3.05002379E+01
 20
-7.50960958E+01
  0
VERTEX
  8
0
 62
4
 10
-3.07424770E+01
 20
-7.49130431E+01
  0
VERTEX
  8
0
 62
4
 10
-3.09999945E+01
 20
-7.47514787E+01
  0
VERTEX
  8
0
 62
4
 10
-3.12708306E+01
 20
-7.46126323E+01
  0
VERTEX
  8
0
 62
4
 10
-3.15529240E+01
 20
-7.44975606E+01
  0
VERTEX
  8
0
 62
4
 10
-3.18441278E+01
 20
-7.44071392E+01
  0
VERTEX
  8
0
 62
4
 10
-3.21422259E+01
 20
-7.43420565E+01
  0
VERTEX
  8
0
 62
4
 10
-3.24449494E+01
 20
-7.43028077E+01
  0
VERTEX
  8
0
 62
4
 10
-3.27499945E+01
 20
-7.42896915E+01
  0
VERTEX
  8
0
 62
4
 10
-3.30550396E+01
 20
-7.43028077E+01
  0
VERTEX
  8
0
 62
4
 10
-3.33577631E+01
 20
-7.43420565E+01
  0
VERTEX
  8
0
 62
4
 10
-3.36558612E+01
 20
-7.44071392E+01
  0
VERTEX
  8
0
 62
4
 10
-3.39470650E+01
 20
-7.44975606E+01
  0
VERTEX
  8
0
 62
4
 10
-3.42291584E+01
 20
-7.46126323E+01
  0
VERTEX
  8
0
 62
4
 10
-3.44999945E+01
 20
-7.47514787E+01
  0
VERTEX
  8
0
 62
4
 10
-3.47575120E+01
 20
-7.49130431E+01
  0
VERTEX
  8
0
 62
4
 10
-3.49997511E+01
 20
-7.50960958E+01
  0
VERTEX
  8
0
 62
4
 10
-3.52248682E+01
 20
-7.52992438E+01
  0
VERTEX
  8
0
 62
4
 10
-3.54311501E+01
 20
-7.55209408E+01
  0
VERTEX
  8
0
 62
4
 10
-3.56170267E+01
 20
-7.57594998E+01
  0
VERTEX
  8
0
 62
4
 10
-3.57810834E+01
 20
-7.60131050E+01
  0
VERTEX
  8
0
 62
4
 10
-3.59220718E+01
 20
-7.62798265E+01
  0
VERTEX
  8
0
 62
4
 10
-3.60389187E+01
 20
-7.65576343E+01
  0
VERTEX
  8
0
 62
4
 10
-3.61307349E+01
 20
-7.68444141E+01
  0
VERTEX
  8
0
 62
4
 10
-3.61968216E+01
 20
-7.71379834E+01
  0
VERTEX
  8
0
 62
4
 10
-3.62366759E+01
 20
-7.74361078E+01
  0
VERTEX
  8
0
 62
4
 10
-3.62499945E+01
 20
-7.77365186E+01
  0
VERTEX
  8
0
 62
4
 10
-3.62366759E+01
 20
-7.80369294E+01
  0
VERTEX
  8
0
 62
4
 10
-3.61968216E+01
 20
-7.83350539E+01
  0
VERTEX
  8
0
 62
4
 10
-3.61307349E+01
 20
-7.86286231E+01
  0
VERTEX
  8
0
 62
4
 10
-3.60389187E+01
 20
-7.89154029E+01
  0
VERTEX
  8
0
 62
4
 10
-3.59220718E+01
 20
-7.91932107E+01
  0
VERTEX
  8
0
 62
4
 10
-3.57810834E+01
 20
-7.94599322E+01
  0
VERTEX
  8
0
 62
4
 10
-3.56170267E+01
 20
-7.97135374E+01
  0
VERTEX
  8
0
 62
4
 10
-3.54311500E+01
 20
-7.99520964E+01
  0
VERTEX
  8
0
 62
4
 10
-3.52248682E+01
 20
-8.01737934E+01
  0
VERTEX
  8
0
 62
4
 10
-3.49997511E+01
 20
-8.03769414E+01
  0
VERTEX
  8
0
 62
4
 10
-3.47575120E+01
 20
-8.05599941E+01
  0
VERTEX
  8
0
 62
4
 10
-3.44999945E+01
 20
-8.07215585E+01
  0
VERTEX
  8
0
 62
4
 10
-3.42291584E+01
 20
-8.08604049E+01
  0
VERTEX
  8
0
 62
4
 10
-3.39470650E+01
 20
-8.09754766E+01
  0
VERTEX
  8
0
 62
4
 10
-3.36558612E+01
 20
-8.10658980E+01
  0
VERTEX
  8
0
 62
4
 10
-3.33577631E+01
 20
-8.11309807E+01
  0
VERTEX
  8
0
 62
4
 10
-3.30550396E+01
 20
-8.11702295E+01
  0
VERTEX
  8
0
 62
4
 10
-3.27499945E+01
 20
-8.11833457E+01
  0
VERTEX
  8
0
 62
4
 10
-3.24449494E+01
 20
-8.11702295E+01
  0
VERTEX
  8
0
 62
4
 10
-3.21422259E+01
 20
-8.11309807E+01
  0
VERTEX
  8
0
 62
4
 10
-3.18441278E+01
 20
-8.10658980E+01
  0
VERTEX
  8
0
 62
4
 10
-3.15529240E+01
 20
-8.09754766E+01
  0
VERTEX
  8
0
 62
4
 10
-3.12708306E+01
 20
-8.08604049E+01
  0
VERTEX
  8
0
 62
4
 10
-3.09999945E+01
 20
-8.07215585E+01
  0
VERTEX
  8
0
 62
4
 10
-3.07424770E+01
 20
-8.05599941E+01
  0
VERTEX
  8
0
 62
4
 10
-3.05002379E+01
 20
-8.03769414E+01
  0
VERTEX
  8
0
 62
4
 10
-3.02751208E+01
 20
-8.01737934E+01
  0
VERTEX
  8
0
 62
4
 10
-3.00688389E+01
 20
-7.99520964E+01
  0
VERTEX
  8
0
 62
4
 10
-2.98829623E+01
 20
-7.97135374E+01
  0
VERTEX
  8
0
 62
4
 10
-2.97189056E+01
 20
-7.94599322E+01
  0
VERTEX
  8
0
 62
4
 10
-2.95779172E+01
 20
-7.91932107E+01
  0
VERTEX
  8
0
 62
4
 10
-2.94610703E+01
 20
-7.89154029E+01
  0
VERTEX
  8
0
 62
4
 10
-2.93692541E+01
 20
-7.86286231E+01
  0
VERTEX
  8
0
 62
4
 10
-2.93031674E+01
 20
-7.83350538E+01
  0
VERTEX
  8
0
 62
4
 10
-2.92633131E+01
 20
-7.80369294E+01
  0
VERTEX
  8
0
 62
4
 10
-2.92499945E+01
 20
-7.77365186E+01
  0
SEQEND
  8
0
  0
POLYLINE
  8
0
 62
4
 66
1
  0
VERTEX
  8
0
 62
4
 10
-2.96099945E+01
 20
-7.75628704E+01
  0
VERTEX
  8
0
 62
4
 10
-2.96219431E+01
 20
-7.72933590E+01
  0
VERTEX
  8
0
 62
4
 10
-2.96576982E+01
 20
-7.70258988E+01
  0
VERTEX
  8
0
 62
4
 10
-2.97169874E+01
 20
-7.67625252E+01
  0
VERTEX
  8
0
 62
4
 10
-2.97993597E+01
 20
-7.65052428E+01
  0
VERTEX
  8
0
 62
4
 10
-2.99041880E+01
 20
-7.62560095E+01
  0
VERTEX
  8
0
 62
4
 10
-3.00306747E+01
 20
-7.60167222E+01
  0
VERTEX
  8
0
 62
4
 10
-3.01778571E+01
 20
-7.57892021E+01
  0
VERTEX
  8
0
 62
4
 10
-3.03446149E+01
 20
-7.55751806E+01
  0
VERTEX
  8
0
 62
4
 10
-3.05296792E+01
 20
-7.53762867E+01
  0
VERTEX
  8
0
 62
4
 10
-3.07316414E+01
 20
-7.51940340E+01
  0
VERTEX
  8
0
 62
4
 10
-3.09489645E+01
 20
-7.50298095E+01
  0
VERTEX
  8
0
 62
4
 10
-3.11799945E+01
 20
-7.48848632E+01
  0
VERTEX
  8
0
 62
4
 10
-3.14229732E+01
 20
-7.47602981E+01
  0
VERTEX
  8
0
 62
4
 10
-3.16760513E+01
 20
-7.46570623E+01
  0
VERTEX
  8
0
 62
4
 10
-3.19373027E+01
 20
-7.45759415E+01
  0
VERTEX
  8
0
 62
4
 10
-3.22047392E+01
 20
-7.45175530E+01
  0
VERTEX
  8
0
 62
4
 10
-3.24763255E+01
 20
-7.44823412E+01
  0
VERTEX
  8
0
 62
4
 10
-3.27499945E+01
 20
-7.44705741E+01
  0
VERTEX
  8
0
 62
4
 10
-3.30236635E+01
 20
-7.44823412E+01
  0
VERTEX
  8
0
 62
4
 10
-3.32952498E+01
 20
-7.45175530E+01
  0
VERTEX
  8
0
 62
4
 10
-3.35626863E+01
 20
-7.45759415E+01
  0
VERTEX
  8
0
 62
4
 10
-3.38239378E+01
 20
-7.46570623E+01
  0
VERTEX
  8
0
 62
4
 10
-3.40770158E+01
 20
-7.47602981E+01
  0
VERTEX
  8
0
 62
4
 10
-3.43199945E+01
 20
-7.48848632E+01
  0
VERTEX
  8
0
 62
4
 10
-3.45510245E+01
 20
-7.50298095E+01
  0
VERTEX
  8
0
 62
4
 10
-3.47683476E+01
 20
-7.51940340E+01
  0
VERTEX
  8
0
 62
4
 10
-3.49703098E+01
 20
-7.53762867E+01
  0
VERTEX
  8
0
 62
4
 10
-3.51553741E+01
 20
-7.55751806E+01
  0
VERTEX
  8
0
 62
4
 10
-3.53221319E+01
 20
-7.57892021E+01
  0
VERTEX
  8
0
 62
4
 10
-3.54693143E+01
 20
-7.60167222E+01
  0
VERTEX
  8
0
 62
4
 10
-3.55958010E+01
 20
-7.62560095E+01
  0
VERTEX
  8
0
 62
4
 10
-3.57006293E+01
 20
-7.65052428E+01
  0
VERTEX
  8
0
 62
4
 10
-3.57830016E+01
 20
-7.67625252E+01
  0
VERTEX
  8
0
 62
4
 10
-3.58422908E+01
 20
-7.70258988E+01
  0
VERTEX
  8
0
 62
4
 10
-3.58780459E+01
 20
-7.72933590E+01
  0
VERTEX
  8
0
 62
4
 10
-3.58899945E+01
 20
-7.75628704E+01
  0
VERTEX
  8
0
 62
4
 10
-3.58780459E+01
 20
-7.78323818E+01
  0
VERTEX
  8
0
 62
4
 10
-3.58422908E+01
 20
-7.80998420E+01
  0
VERTEX
  8
0
 62
4
 10
-3.57830016E+01
 20
-7.83632156E+01
  0
VERTEX
  8
0
 62
4
 10
-3.57006293E+01
 20
-7.86204980E+01
  0
VERTEX
  8
0
 62
4
 10
-3.55958009E+01
 20
-7.88697313E+01
  0
VERTEX
  8
0
 62
4
 10
-3.54693143E+01
 20
-7.91090186E+01
  0
VERTEX
  8
0
 62
4
 10
-3.53221319E+01
 20
-7.93365387E+01
  0
VERTEX
  8
0
 62
4
 10
-3.51553740E+01
 20
-7.95505602E+01
  0
VERTEX
  8
0
 62
4
 10
-3.49703098E+01
 20
-7.97494541E+01
  0
VERTEX
  8
0
 62
4
 10
-3.47683476E+01
 20
-7.99317068E+01
  0
VERTEX
  8
0
 62
4
 10
-3.45510245E+01
 20
-8.00959313E+01
  0
VERTEX
  8
0
 62
4
 10
-3.43199945E+01
 20
-8.02408776E+01
  0
VERTEX
  8
0
 62
4
 10
-3.40770158E+01
 20
-8.03654427E+01
  0
VERTEX
  8
0
 62
4
 10
-3.38239377E+01
 20
-8.04686785E+01
  0
VERTEX
  8
0
 62
4
 10
-3.35626863E+01
 20
-8.05497993E+01
  0
VERTEX
  8
0
 62
4
 10
-3.32952498E+01
 20
-8.06081878E+01
  0
VERTEX
  8
0
 62
4
 10
-3.30236635E+01
 20
-8.06433996E+01
  0
VERTEX
  8
0
 62
4
 10
-3.27499945E+01
 20
-8.06551667E+01
  0
VERTEX
  8
0
 62
4
 10
-3.24763255E+01
 20
-8.06433996E+01
  0
VERTEX
  8
0
 62
4
 10
-3.22047392E+01
 20
-8.06081878E+01
  0
VERTEX
  8
0
 62
4
 10
-3.19373027E+01
 20
-8.05497993E+01
  0
VERTEX
  8
0
 62
4
 10
-3.16760512E+01
 20
-8.04686784E+01
  0
VERTEX
  8
0
 62
4
 10
-3.14229732E+01
 20
-8.03654426E+01
  0
VERTEX
  8
0
 62
4
 10
-3.11799945E+01
 20
-8.02408776E+01
  0
VERTEX
  8
0
 62
4
 10
-3.09489645E+01
 20
-8.00959313E+01
  0
VERTEX
  8
0
 62
4
 10
-3.07316414E+01
 20
-7.99317068E+01
  0
VERTEX
  8
0
 62
4
 10
-3.05296792E+01
 20
-7.97494541E+01
  0
VERTEX
  8
0
 62
4
 10
-3.03446149E+01
 20
-7.95505602E+01
  0
VERTEX
  8
0
 62
4
 10
-3.01778571E+01
 20
-7.93365387E+01
  0
VERTEX
  8
0
 62
4
 10
-3.00306747E+01
 20
-7.91090186E+01
  0
VERTEX
  8
0
 62
4
 10
-2.99041880E+01
 20
-7.88697313E+01
  0
VERTEX
  8
0
 62
4
 10
-2.97993597E+01
 20
-7.86204980E+01
  0
VERTEX
  8
0
 62
4
 10
-2.97169874E+01
 20
-7.83632156E+01
  0
VERTEX
  8
0
 62
4
 10
-2.96576982E+01
 20
-7.80998420E+01
  0
VERTEX
  8
0
 62
4
 10
-2.96219431E+01
 20
-7.78323818E+01
  0
VERTEX
  8
0
 62
4
 10
-2.96099945E+01
 20
-7.75628704E+01
  0
SEQEND
  8
0
  0
ARC
  8
0
 62
4
 10
-4.45143995E+01
 20
-8.28882866E+01
 40
1.21769740E+01
 50
2.40462101E+02
 51
2.52020214E+02
  0
ARC
  8
0
 62
4
 10
-5.29855895E+01
 20
-8.28882866E+01
 40
1.21769740E+01
 50
2.87979786E+02
 51
2.99537899E+02
  0
POLYLINE
  8
0
 62
4
 66
1
  0
VERTEX
  8
0
 62
4
 10
-4.53499945E+01
 20
-9.34714332E+01
  0
VERTEX
  8
0
 62
4
 10
-4.53629325E+01
 20
-9.33834806E+01
  0
VERTEX
  8
0
 62
4
 10
-4.54016481E+01
 20
-9.32961975E+01
  0
VERTEX
  8
0
 62
4
 10
-4.54658467E+01
 20
-9.32102479E+01
  0
VERTEX
  8
0
 62
4
 10
-4.55550396E+01
 20
-9.31262862E+01
  0
VERTEX
  8
0
 62
4
 10
-4.56685480E+01
 20
-9.30449512E+01
  0
VERTEX
  8
0
 62
4
 10
-4.58055081E+01
 20
-9.29668620E+01
  0
VERTEX
  8
0
 62
4
 10
-4.59648775E+01
 20
-9.28926129E+01
  0
VERTEX
  8
0
 62
4
 10
-4.61454434E+01
 20
-9.28227690E+01
  0
VERTEX
  8
0
 62
4
 10
-4.63458314E+01
 20
-9.27578618E+01
  0
VERTEX
  8
0
 62
4
 10
-4.65645166E+01
 20
-9.26983853E+01
  0
VERTEX
  8
0
 62
4
 10
-4.67998346E+01
 20
-9.26447921E+01
  0
VERTEX
  8
0
 62
4
 10
-4.70499945E+01
 20
-9.25974902E+01
  0
VERTEX
  8
0
 62
4
 10
-4.73130924E+01
 20
-9.25568396E+01
  0
VERTEX
  8
0
 62
4
 10
-4.75871260E+01
 20
-9.25231495E+01
  0
VERTEX
  8
0
 62
4
 10
-4.78700097E+01
 20
-9.24966765E+01
  0
VERTEX
  8
0
 62
4
 10
-4.81595907E+01
 20
-9.24776219E+01
  0
VERTEX
  8
0
 62
4
 10
-4.84536650E+01
 20
-9.24661309E+01
  0
VERTEX
  8
0
 62
4
 10
-4.87499945E+01
 20
-9.24622908E+01
  0
VERTEX
  8
0
 62
4
 10
-4.90463240E+01
 20
-9.24661309E+01
  0
VERTEX
  8
0
 62
4
 10
-4.93403983E+01
 20
-9.24776219E+01
  0
VERTEX
  8
0
 62
4
 10
-4.96299793E+01
 20
-9.24966765E+01
  0
VERTEX
  8
0
 62
4
 10
-4.99128630E+01
 20
-9.25231495E+01
  0
VERTEX
  8
0
 62
4
 10
-5.01868966E+01
 20
-9.25568396E+01
  0
VERTEX
  8
0
 62
4
 10
-5.04499945E+01
 20
-9.25974902E+01
  0
VERTEX
  8
0
 62
4
 10
-5.07001544E+01
 20
-9.26447921E+01
  0
VERTEX
  8
0
 62
4
 10
-5.09354724E+01
 20
-9.26983853E+01
  0
VERTEX
  8
0
 62
4
 10
-5.11541576E+01
 20
-9.27578618E+01
  0
VERTEX
  8
0
 62
4
 10
-5.13545456E+01
 20
-9.28227690E+01
  0
VERTEX
  8
0
 62
4
 10
-5.15351115E+01
 20
-9.28926129E+01
  0
VERTEX
  8
0
 62
4
 10
-5.16944809E+01
 20
-9.29668620E+01
  0
VERTEX
  8
0
 62
4
 10
-5.18314410E+01
 20
-9.30449512E+01
  0
VERTEX
  8
0
 62
4
 10
-5.19449494E+01
 20
-9.31262862E+01
  0
VERTEX
  8
0
 62
4
 10
-5.20341423E+01
 20
-9.32102479E+01
  0
VERTEX
  8
0
 62
4
 10
-5.20983409E+01
 20
-9.32961975E+01
  0
VERTEX
  8
0
 62
4
 10
-5.21370565E+01
 20
-9.33834806E+01
  0
VERTEX
  8
0
 62
4
 10
-5.21499945E+01
 20
-9.34714332E+01
  0
VERTEX
  8
0
 62
4
 10
-5.21370565E+01
 20
-9.35593858E+01
  0
VERTEX
  8
0
 62
4
 10
-5.20983409E+01
 20
-9.36466689E+01
  0
VERTEX
  8
0
 62
4
 10
-5.20341423E+01
 20
-9.37326185E+01
  0
VERTEX
  8
0
 62
4
 10
-5.19449494E+01
 20
-9.38165802E+01
  0
VERTEX
  8
0
 62
4
 10
-5.18314410E+01
 20
-9.38979152E+01
  0
VERTEX
  8
0
 62
4
 10
-5.16944809E+01
 20
-9.39760044E+01
  0
VERTEX
  8
0
 62
4
 10
-5.15351114E+01
 20
-9.40502535E+01
  0
VERTEX
  8
0
 62
4
 10
-5.13545456E+01
 20
-9.41200974E+01
  0
VERTEX
  8
0
 62
4
 10
-5.11541576E+01
 20
-9.41850046E+01
  0
VERTEX
  8
0
 62
4
 10
-5.09354724E+01
 20
-9.42444811E+01
  0
VERTEX
  8
0
 62
4
 10
-5.07001544E+01
 20
-9.42980743E+01
  0
VERTEX
  8
0
 62
4
 10
-5.04499945E+01
 20
-9.43453762E+01
  0
VERTEX
  8
0
 62
4
 10
-5.01868966E+01
 20
-9.43860268E+01
  0
VERTEX
  8
0
 62
4
 10
-4.99128630E+01
 20
-9.44197169E+01
  0
VERTEX
  8
0
 62
4
 10
-4.96299792E+01
 20
-9.44461899E+01
  0
VERTEX
  8
0
 62
4
 10
-4.93403983E+01
 20
-9.44652445E+01
  0
VERTEX
  8
0
 62
4
 10
-4.90463240E+01
 20
-9.44767355E+01
  0
VERTEX
  8
0
 62
4
 10
-4.87499945E+01
 20
-9.44805756E+01
  0
VERTEX
  8
0
 62
4
 10
-4.84536650E+01
 20
-9.44767355E+01
  0
VERTEX
  8
0
 62
4
 10
-4.81595907E+01
 20
-9.44652445E+01
  0
VERTEX
  8
0
 62
4
 10
-4.78700097E+01
 20
-9.44461899E+01
  0
VERTEX
  8
0
 62
4
 10
-4.75871260E+01
 20
-9.44197169E+01
  0
VERTEX
  8
0
 62
4
 10
-4.73130924E+01
 20
-9.43860268E+01
  0
VERTEX
  8
0
 62
4
 10
-4.70499945E+01
 20
-9.43453762E+01
  0
VERTEX
  8
0
 62
4
 10
-4.67998346E+01
 20
-9.42980743E+01
  0
VERTEX
  8
0
 62
4
 10
-4.65645166E+01
 20
-9.42444811E+01
  0
VERTEX
  8
0
 62
4
 10
-4.63458314E+01
 20
-9.41850046E+01
  0
VERTEX
  8
0
 62
4
 10
-4.61454434E+01
 20
-9.41200974E+01
  0
VERTEX
  8
0
 62
4
 10
-4.59648775E+01
 20
-9.40502535E+01
  0
VERTEX
  8
0
 62
4
 10
-4.58055081E+01
 20
-9.39760044E+01
  0
VERTEX
  8
0
 62
4
 10
-4.56685480E+01
 20
-9.38979152E+01
  0
VERTEX
  8
0
 62
4
 10
-4.55550396E+01
 20
-9.38165802E+01
  0
VERTEX
  8
0
 62
4
 10
-4.54658467E+01
 20
-9.37326185E+01
  0
VERTEX
  8
0
 62
4
 10
-4.54016481E+01
 20
-9.36466689E+01
  0
VERTEX
  8
0
 62
4
 10
-4.53629325E+01
 20
-9.35593858E+01
  0
VERTEX
  8
0
 62
4
 10
-4.53499945E+01
 20
-9.34714332E+01
  0
SEQEND
  8
0
  0
ARC
  8
0
 62
4
 10
-5.92494946E+01
 20
-6.78154686E+01
 40
1.50050004E+00
 50
9.00190906E+01
 51
1.34401209E+02
  0
ARC
  8
0
 62
4
 10
-6.52494944E+01
 20
-6.72439246E+01
 40
5.00500378E-01
 50
9.00572530E+01
 51
1.79942747E+02
  0
ARC
  8
0
 62
4
 10
-6.52504941E+01
 20
-8.02439241E+01
 40
4.99500622E-01
 50
1.79942690E+02
 51
2.70057311E+02
  0
ARC
  8
0
 62
4
 10
-2.32504983E+01
 20
-6.78154724E+01
 40
1.50050386E+00
 50
1.92364101E-02
 51
8.99807637E+01
  0
LINE
  8
0
 62
4
 10
-3.92499945E+01
 20
-6.76862526E+01
 11
-4.12499945E+01
 21
-6.76862526E+01
  0
LINE
  8
0
 62
4
 10
-5.92499945E+01
 20
-8.95542120E+01
 11
-2.32499945E+01
 21
-8.95542120E+01
  0
LINE
  8
0
 62
4
 10
-5.92499945E+01
 20
-6.63149686E+01
 11
-5.62499945E+01
 21
-6.63149686E+01
  0
LINE
  8
0
 62
4
 10
-5.82499945E+01
 20
-8.63975999E+01
 11
-3.92499945E+01
 21
-8.63975999E+01
  0
LINE
  8
0
 62
4
 10
-5.82499945E+01
 20
-8.07277765E+01
 11
-5.82499945E+01
 21
-8.70921926E+01
  0
LINE
  8
0
 62
4
 10
-6.07499945E+01
 20
-8.07277765E+01
 11
-6.07499945E+01
 21
-9.06589346E+01
  0
LINE
  8
0
 62
4
 10
-3.92499945E+01
 20
-6.76862526E+01
 11
-3.92499945E+01
 21
-8.70921926E+01
  0
LINE
  8
0
 62
4
 10
-2.17499945E+01
 20
-6.78149686E+01
 11
-2.17499945E+01
 21
-9.06594344E+01
  0
LINE
  8
0
 62
4
 10
-7.57499945E+01
 20
-6.66901798E+01
 11
-7.07499945E+01
 21
-6.66901798E+01
  0
LINE
  8
0
 62
4
 10
-5.62499945E+01
 20
-8.00867799E+01
 11
-4.12499945E+01
 21
-8.00867799E+01
  0
LINE
  8
0
 62
4
 10
-5.62499945E+01
 20
-6.53146636E+01
 11
-4.12499945E+01
 21
-6.53146636E+01
  0
LINE
  8
0
 62
4
 10
-4.12499945E+01
 20
-5.37395636E+01
 11
-4.12499945E+01
 21
-8.44279844E+01
  0
LINE
  8
0
 62
4
 10
-6.92499945E+01
 20
-7.94934245E+01
 11
-6.57499945E+01
 21
-7.94934245E+01
  0
LINE
  8
0
 62
4
 10
-6.92499945E+01
 20
-6.79934245E+01
 11
-6.57499945E+01
 21
-6.79934245E+01
  0
LINE
  8
0
 62
4
 10
-6.92499945E+01
 20
-6.74934245E+01
 11
-6.92499945E+01
 21
-7.99934245E+01
  0
LINE
  8
0
 62
4
 10
-7.07499945E+01
 20
-7.99934245E+01
 11
-6.57499945E+01
 21
-7.99934245E+01
  0
LINE
  8
0
 62
4
 10
-7.07499945E+01
 20
-6.74934245E+01
 11
-6.57499945E+01
 21
-6.74934245E+01
  0
LINE
  8
0
 62
4
 10
-7.07499945E+01
 20
-6.66901798E+01
 11
-7.07499945E+01
 21
-8.07967784E+01
  0
LINE
  8
0
 62
4
 10
-7.57499945E+01
 20
-6.66901798E+01
 11
-7.57499945E+01
 21
-8.07967784E+01
  0
LINE
  8
0
 62
4
 10
-6.57499945E+01
 20
-6.72277765E+01
 11
-6.57499945E+01
 21
-8.02277765E+01
  0
LINE
  8
0
 62
4
 10
-5.62499945E+01
 20
-6.67434245E+01
 11
-6.52499945E+01
 21
-6.67434245E+01
  0
LINE
  8
0
 62
4
 10
-6.52499945E+01
 20
-8.07434245E+01
 11
-5.62499945E+01
 21
-8.07434245E+01
  0
LINE
  8
0
  6
CENTER
 62
6
 10
-4.87499945E+01
 20
-5.20899052E+01
 11
-4.87499945E+01
 21
-9.56647212E+01
  0
LINE
  8
0
 62
4
 10
-5.21499945E+01
 20
-9.34714332E+01
 11
-5.21499945E+01
 21
-9.13489772E+01
  0
LINE
  8
0
 62
4
 10
-4.53499945E+01
 20
-9.13489772E+01
 11
-4.53499945E+01
 21
-9.34714332E+01
  0
LINE
  8
0
 62
4
 10
-5.27499945E+01
 20
-9.08565733E+01
 11
-5.27499945E+01
 21
-9.13489772E+01
  0
LINE
  8
0
 62
4
 10
-4.47499945E+01
 20
-9.13489772E+01
 11
-4.47499945E+01
 21
-9.08565733E+01
  0
LINE
  8
0
 62
6
 10
-5.12499945E+01
 20
-5.22313346E+01
 11
-5.12499945E+01
 21
-5.37395636E+01
  0
LINE
  8
0
 62
4
 10
-5.47499945E+01
 20
-5.32313346E+01
 11
-5.44899945E+01
 21
-5.22313346E+01
  0
LINE
  8
0
 62
4
 10
-5.07499945E+01
 20
-5.32313346E+01
 11
-5.10199945E+01
 21
-5.22313346E+01
  0
LINE
  8
0
 62
4
 10
-5.10199945E+01
 20
-5.22313346E+01
 11
-5.44899945E+01
 21
-5.22313346E+01
  0
LINE
  8
0
 62
4
 10
-5.47499945E+01
 20
-5.32313346E+01
 11
-5.47499945E+01
 21
-5.37395636E+01
  0
LINE
  8
0
 62
4
 10
-5.07499945E+01
 20
-5.32313346E+01
 11
-5.07499945E+01
 21
-5.37395636E+01
  0
LINE
  8
0
 62
6
 10
-5.42499945E+01
 20
-5.22313346E+01
 11
-5.42499945E+01
 21
-5.37395636E+01
  0
LINE
  8
0
  6
CENTER
 62
6
 10
-5.27499945E+01
 20
-5.09713346E+01
 11
-5.27499945E+01
 21
-6.14713346E+01
  0
LINE
  8
0
 62
4
 10
-4.12499945E+01
 20
-5.37395636E+01
 11
-5.62499945E+01
 21
-5.37395636E+01
  0
LINE
  8
0
 62
4
 10
-4.22499945E+01
 20
-5.95446561E+01
 11
-5.52499945E+01
 21
-5.95446561E+01
  0
LINE
  8
0
 62
4
 10
-5.62499945E+01
 20
-5.37395636E+01
 11
-5.62499945E+01
 21
-8.44279844E+01
  0
LINE
  8
0
 62
6
 10
-4.62499945E+01
 20
-5.22313346E+01
 11
-4.62499945E+01
 21
-5.37395636E+01
  0
LINE
  8
0
 62
6
 10
-4.32499945E+01
 20
-5.22313346E+01
 11
-4.32499945E+01
 21
-5.37395636E+01
  0
LINE
  8
0
 62
4
 10
-4.67499945E+01
 20
-5.32313346E+01
 11
-4.64899945E+01
 21
-5.22313346E+01
  0
LINE
  8
0
 62
4
 10
-4.27499945E+01
 20
-5.32313346E+01
 11
-4.30199945E+01
 21
-5.22313346E+01
  0
LINE
  8
0
 62
4
 10
-4.30199945E+01
 20
-5.22313346E+01
 11
-4.64899945E+01
 21
-5.22313346E+01
  0
LINE
  8
0
 62
4
 10
-4.67499945E+01
 20
-5.32313346E+01
 11
-4.67499945E+01
 21
-5.37395636E+01
  0
LINE
  8
0
 62
4
 10
-4.27499945E+01
 20
-5.32313346E+01
 11
-4.27499945E+01
 21
-5.37395636E+01
  0
LINE
  8
0
  6
CENTER
 62
6
 10
-4.47499945E+01
 20
-5.09713346E+01
 11
-4.47499945E+01
 21
-6.14713346E+01
  0
LINE
  8
0
 62
4
 10
-7.57499945E+01
 20
-7.24402495E+01
 11
-7.07499945E+01
 21
-7.24402495E+01
  0
LINE
  8
0
 62
4
 10
-7.57499945E+01
 20
-8.07967784E+01
 11
-7.07499945E+01
 21
-8.07967784E+01
  0
LINE
  8
0
 62
4
 10
-4.12499945E+01
 20
-6.63149686E+01
 11
-2.32499945E+01
 21
-6.63149686E+01
  0
ARC
  8
0
 62
4
 10
-2.32494947E+01
 20
-9.06594344E+01
 40
1.49950029E+00
 50
2.69980903E+02
 51
1.90971113E-02
  0
LINE
  8
0
 62
4
 10
-5.92499945E+01
 20
-9.21589346E+01
 11
-5.21499945E+01
 21
-9.21589346E+01
  0
ARC
  8
0
 62
4
 10
-5.92504981E+01
 20
-9.06594383E+01
 40
1.49949647E+00
 50
1.79980757E+02
 51
2.70019243E+02
  0
LINE
  8
0
 62
4
 10
-7.57499945E+01
 20
-7.94926806E+01
 11
-7.07499945E+01
 21
-7.94926806E+01
  0
POLYLINE
  8
0
 62
4
 66
1
  0
VERTEX
  8
0
 62
4
 10
-4.57499945E+01
 20
-7.27007218E+01
  0
VERTEX
  8
0
 62
4
 10
-4.57614104E+01
 20
-7.24432268E+01
  0
VERTEX
  8
0
 62
4
 10
-4.57955712E+01
 20
-7.21876916E+01
  0
VERTEX
  8
0
 62
4
 10
-4.58522170E+01
 20
-7.19360608E+01
  0
VERTEX
  8
0
 62
4
 10
-4.59309166E+01
 20
-7.16902495E+01
  0
VERTEX
  8
0
 62
4
 10
-4.60310711E+01
 20
-7.14521286E+01
  0
VERTEX
  8
0
 62
4
 10
-4.61519183E+01
 20
-7.12235102E+01
  0
VERTEX
  8
0
 62
4
 10
-4.62925384E+01
 20
-7.10061342E+01
  0
VERTEX
  8
0
 62
4
 10
-4.64518612E+01
 20
-7.08016551E+01
  0
VERTEX
  8
0
 62
4
 10
-4.66286742E+01
 20
-7.06116291E+01
  0
VERTEX
  8
0
 62
4
 10
-4.68216317E+01
 20
-7.04375023E+01
  0
VERTEX
  8
0
 62
4
 10
-4.70292652E+01
 20
-7.02805999E+01
  0
VERTEX
  8
0
 62
4
 10
-4.72499945E+01
 20
-7.01421162E+01
  0
VERTEX
  8
0
 62
4
 10
-4.74821397E+01
 20
-7.00231050E+01
  0
VERTEX
  8
0
 62
4
 10
-4.77239341E+01
 20
-6.99244721E+01
  0
VERTEX
  8
0
 62
4
 10
-4.79735374E+01
 20
-6.98469681E+01
  0
VERTEX
  8
0
 62
4
 10
-4.82290500E+01
 20
-6.97911829E+01
  0
VERTEX
  8
0
 62
4
 10
-4.84885273E+01
 20
-6.97575410E+01
  0
VERTEX
  8
0
 62
4
 10
-4.87499945E+01
 20
-6.97462985E+01
  0
VERTEX
  8
0
 62
4
 10
-4.90114617E+01
 20
-6.97575410E+01
  0
VERTEX
  8
0
 62
4
 10
-4.92709390E+01
 20
-6.97911829E+01
  0
VERTEX
  8
0
 62
4
 10
-4.95264516E+01
 20
-6.98469681E+01
  0
VERTEX
  8
0
 62
4
 10
-4.97760549E+01
 20
-6.99244721E+01
  0
VERTEX
  8
0
 62
4
 10
-5.00178493E+01
 20
-7.00231050E+01
  0
VERTEX
  8
0
 62
4
 10
-5.02499945E+01
 20
-7.01421162E+01
  0
VERTEX
  8
0
 62
4
 10
-5.04707238E+01
 20
-7.02805999E+01
  0
VERTEX
  8
0
 62
4
 10
-5.06783573E+01
 20
-7.04375023E+01
  0
VERTEX
  8
0
 62
4
 10
-5.08713148E+01
 20
-7.06116291E+01
  0
VERTEX
  8
0
 62
4
 10
-5.10481278E+01
 20
-7.08016551E+01
  0
VERTEX
  8
0
 62
4
 10
-5.12074506E+01
 20
-7.10061342E+01
  0
VERTEX
  8
0
 62
4
 10
-5.13480707E+01
 20
-7.12235102E+01
  0
VERTEX
  8
0
 62
4
 10
-5.14689179E+01
 20
-7.14521286E+01
  0
VERTEX
  8
0
 62
4
 10
-5.15690724E+01
 20
-7.16902495E+01
  0
VERTEX
  8
0
 62
4
 10
-5.16477720E+01
 20
-7.19360608E+01
  0
VERTEX
  8
0
 62
4
 10
-5.17044178E+01
 20
-7.21876916E+01
  0
VERTEX
  8
0
 62
4
 10
-5.17385786E+01
 20
-7.24432269E+01
  0
VERTEX
  8
0
 62
4
 10
-5.17499945E+01
 20
-7.27007218E+01
  0
VERTEX
  8
0
 62
4
 10
-5.17385786E+01
 20
-7.29582168E+01
  0
VERTEX
  8
0
 62
4
 10
-5.17044178E+01
 20
-7.32137520E+01
  0
VERTEX
  8
0
 62
4
 10
-5.16477720E+01
 20
-7.34653828E+01
  0
VERTEX
  8
0
 62
4
 10
-5.15690724E+01
 20
-7.37111941E+01
  0
VERTEX
  8
0
 62
4
 10
-5.14689179E+01
 20
-7.39493150E+01
  0
VERTEX
  8
0
 62
4
 10
-5.13480707E+01
 20
-7.41779334E+01
  0
VERTEX
  8
0
 62
4
 10
-5.12074506E+01
 20
-7.43953094E+01
  0
VERTEX
  8
0
 62
4
 10
-5.10481278E+01
 20
-7.45997885E+01
  0
VERTEX
  8
0
 62
4
 10
-5.08713148E+01
 20
-7.47898145E+01
  0
VERTEX
  8
0
 62
4
 10
-5.06783573E+01
 20
-7.49639413E+01
  0
VERTEX
  8
0
 62
4
 10
-5.04707238E+01
 20
-7.51208437E+01
  0
VERTEX
  8
0
 62
4
 10
-5.02499945E+01
 20
-7.52593274E+01
  0
VERTEX
  8
0
 62
4
 10
-5.00178493E+01
 20
-7.53783386E+01
  0
VERTEX
  8
0
 62
4
 10
-4.97760549E+01
 20
-7.54769715E+01
  0
VERTEX
  8
0
 62
4
 10
-4.95264516E+01
 20
-7.55544755E+01
  0
VERTEX
  8
0
 62
4
 10
-4.92709390E+01
 20
-7.56102607E+01
  0
VERTEX
  8
0
 62
4
 10
-4.90114617E+01
 20
-7.56439026E+01
  0
VERTEX
  8
0
 62
4
 10
-4.87499945E+01
 20
-7.56551451E+01
  0
VERTEX
  8
0
 62
4
 10
-4.84885273E+01
 20
-7.56439026E+01
  0
VERTEX
  8
0
 62
4
 10
-4.82290500E+01
 20
-7.56102607E+01
  0
VERTEX
  8
0
 62
4
 10
-4.79735374E+01
 20
-7.55544755E+01
  0
VERTEX
  8
0
 62
4
 10
-4.77239341E+01
 20
-7.54769715E+01
  0
VERTEX
  8
0
 62
4
 10
-4.74821397E+01
 20
-7.53783386E+01
  0
VERTEX
  8
0
 62
4
 10
-4.72499945E+01
 20
-7.52593274E+01
  0
VERTEX
  8
0
 62
4
 10
-4.70292652E+01
 20
-7.51208436E+01
  0
VERTEX
  8
0
 62
4
 10
-4.68216317E+01
 20
-7.49639413E+01
  0
VERTEX
  8
0
 62
4
 10
-4.66286742E+01
 20
-7.47898145E+01
  0
VERTEX
  8
0
 62
4
 10
-4.64518612E+01
 20
-7.45997885E+01
  0
VERTEX
  8
0
 62
4
 10
-4.62925384E+01
 20
-7.43953094E+01
  0
VERTEX
  8
0
 62
4
 10
-4.61519183E+01
 20
-7.41779334E+01
  0
VERTEX
  8
0
 62
4
 10
-4.60310711E+01
 20
-7.39493150E+01
  0
VERTEX
  8
0
 62
4
 10
-4.59309166E+01
 20
-7.37111941E+01
  0
VERTEX
  8
0
 62
4
 10
-4.58522170E+01
 20
-7.34653828E+01
  0
VERTEX
  8
0
 62
4
 10
-4.57955712E+01
 20
-7.32137520E+01
  0
VERTEX
  8
0
 62
4
 10
-4.57614104E+01
 20
-7.29582167E+01
  0
VERTEX
  8
0
 62
4
 10
-4.57499945E+01
 20
-7.27007218E+01
  0
SEQEND
  8
0
  0
LINE
  8
0
  6
CENTER
 62
6
 10
-5.42365603E+01
 20
-7.27007218E+01
 11
-4.32634286E+01
 21
-7.27007218E+01
  0
LINE
  8
0
  6
CENTER
 62
6
 10
-3.27499945E+01
 20
-7.20408186E+01
 11
-3.27499945E+01
 21
-8.30849222E+01
  0
LINE
  8
0
  6
CENTER
 62
6
 10
-3.82720464E+01
 20
-7.75628704E+01
 11
-2.72279427E+01
 21
-7.75628704E+01
  0
POLYLINE
  8
0
 62
4
 66
1
  0
VERTEX
  8
0
 62
4
 10
-4.47499945E+01
 20
-9.08565733E+01
  0
VERTEX
  8
0
 62
4
 10
-4.47660973E+01
 20
-9.07943105E+01
  0
VERTEX
  8
0
 62
4
 10
-4.48142761E+01
 20
-9.07325490E+01
  0
VERTEX
  8
0
 62
4
 10
-4.48941431E+01
 20
-9.06717860E+01
  0
VERTEX
  8
0
 62
4
 10
-4.50050550E+01
 20
-9.06125109E+01
  0
VERTEX
  8
0
 62
4
 10
-4.51461190E+01
 20
-9.05552008E+01
  0
VERTEX
  8
0
 62
4
 10
-4.53161993E+01
 20
-9.05003172E+01
  0
VERTEX
  8
0
 62
4
 10
-4.55139265E+01
 20
-9.04483019E+01
  0
VERTEX
  8
0
 62
4
 10
-4.57377086E+01
 20
-9.03995739E+01
  0
VERTEX
  8
0
 62
4
 10
-4.59857439E+01
 20
-9.03545253E+01
  0
VERTEX
  8
0
 62
4
 10
-4.62560353E+01
 20
-9.03135189E+01
  0
VERTEX
  8
0
 62
4
 10
-4.65464066E+01
 20
-9.02768848E+01
  0
VERTEX
  8
0
 62
4
 10
-4.68545198E+01
 20
-9.02449181E+01
  0
VERTEX
  8
0
 62
4
 10
-4.71778944E+01
 20
-9.02178760E+01
  0
VERTEX
  8
0
 62
4
 10
-4.75139265E+01
 20
-9.01959764E+01
  0
VERTEX
  8
0
 62
4
 10
-4.78599108E+01
 20
-9.01793955E+01
  0
VERTEX
  8
0
 62
4
 10
-4.82130614E+01
 20
-9.01682668E+01
  0
VERTEX
  8
0
 62
4
 10
-4.85705352E+01
 20
-9.01626800E+01
  0
VERTEX
  8
0
 62
4
 10
-4.89294538E+01
 20
-9.01626800E+01
  0
VERTEX
  8
0
 62
4
 10
-4.92869276E+01
 20
-9.01682668E+01
  0
VERTEX
  8
0
 62
4
 10
-4.96400782E+01
 20
-9.01793955E+01
  0
VERTEX
  8
0
 62
4
 10
-4.99860625E+01
 20
-9.01959764E+01
  0
VERTEX
  8
0
 62
4
 10
-5.03220946E+01
 20
-9.02178760E+01
  0
VERTEX
  8
0
 62
4
 10
-5.06454691E+01
 20
-9.02449181E+01
  0
VERTEX
  8
0
 62
4
 10
-5.09535824E+01
 20
-9.02768848E+01
  0
VERTEX
  8
0
 62
4
 10
-5.12439537E+01
 20
-9.03135188E+01
  0
VERTEX
  8
0
 62
4
 10
-5.15142451E+01
 20
-9.03545253E+01
  0
VERTEX
  8
0
 62
4
 10
-5.17622804E+01
 20
-9.03995739E+01
  0
VERTEX
  8
0
 62
4
 10
-5.19860625E+01
 20
-9.04483019E+01
  0
VERTEX
  8
0
 62
4
 10
-5.21837897E+01
 20
-9.05003172E+01
  0
VERTEX
  8
0
 62
4
 10
-5.23538700E+01
 20
-9.05552008E+01
  0
VERTEX
  8
0
 62
4
 10
-5.24949340E+01
 20
-9.06125109E+01
  0
VERTEX
  8
0
 62
4
 10
-5.26058459E+01
 20
-9.06717860E+01
  0
VERTEX
  8
0
 62
4
 10
-5.26857129E+01
 20
-9.07325490E+01
  0
VERTEX
  8
0
 62
4
 10
-5.27338917E+01
 20
-9.07943105E+01
  0
VERTEX
  8
0
 62
4
 10
-5.27499945E+01
 20
-9.08565733E+01
  0
SEQEND
  8
0
  0
POLYLINE
  8
0
 62
4
 66
1
  0
VERTEX
  8
0
 62
4
 10
-4.53499945E+01
 20
-9.17148766E+01
  0
VERTEX
  8
0
 62
4
 10
-4.51769425E+01
 20
-9.16612205E+01
  0
VERTEX
  8
0
 62
4
 10
-4.50318995E+01
 20
-9.16051168E+01
  0
VERTEX
  8
0
 62
4
 10
-4.49160027E+01
 20
-9.15470052E+01
  0
VERTEX
  8
0
 62
4
 10
-4.48301604E+01
 20
-9.14873412E+01
  0
VERTEX
  8
0
 62
4
 10
-4.47750456E+01
 20
-9.14265926E+01
  0
VERTEX
  8
0
 62
4
 10
-4.47510904E+01
 20
-9.13652356E+01
  0
VERTEX
  8
0
 62
4
 10
-4.47584826E+01
 20
-9.13037511E+01
  0
VERTEX
  8
0
 62
4
 10
-4.47971641E+01
 20
-9.12426212E+01
  0
VERTEX
  8
0
 62
4
 10
-4.48668318E+01
 20
-9.11823249E+01
  0
VERTEX
  8
0
 62
4
 10
-4.49669395E+01
 20
-9.11233351E+01
  0
VERTEX
  8
0
 62
4
 10
-4.50967026E+01
 20
-9.10661141E+01
  0
VERTEX
  8
0
 62
4
 10
-4.52551037E+01
 20
-9.10111104E+01
  0
VERTEX
  8
0
 62
4
 10
-4.54409012E+01
 20
-9.09587552E+01
  0
VERTEX
  8
0
 62
4
 10
-4.56526387E+01
 20
-9.09094590E+01
  0
VERTEX
  8
0
 62
4
 10
-4.58886563E+01
 20
-9.08636082E+01
  0
VERTEX
  8
0
 62
4
 10
-4.61471038E+01
 20
-9.08215622E+01
  0
VERTEX
  8
0
 62
4
 10
-4.64259554E+01
 20
-9.07836506E+01
  0
VERTEX
  8
0
 62
4
 10
-4.67230250E+01
 20
-9.07501705E+01
  0
VERTEX
  8
0
 62
4
 10
-4.70359841E+01
 20
-9.07213845E+01
  0
VERTEX
  8
0
 62
4
 10
-4.73623792E+01
 20
-9.06975182E+01
  0
VERTEX
  8
0
 62
4
 10
-4.76996519E+01
 20
-9.06787587E+01
  0
VERTEX
  8
0
 62
4
 10
-4.80451581E+01
 20
-9.06652529E+01
  0
VERTEX
  8
0
 62
4
 10
-4.83961896E+01
 20
-9.06571069E+01
  0
VERTEX
  8
0
 62
4
 10
-4.87499945E+01
 20
-9.06543845E+01
  0
VERTEX
  8
0
 62
4
 10
-4.91037994E+01
 20
-9.06571069E+01
  0
VERTEX
  8
0
 62
4
 10
-4.94548309E+01
 20
-9.06652529E+01
  0
VERTEX
  8
0
 62
4
 10
-4.98003371E+01
 20
-9.06787587E+01
  0
VERTEX
  8
0
 62
4
 10
-5.01376097E+01
 20
-9.06975182E+01
  0
VERTEX
  8
0
 62
4
 10
-5.04640049E+01
 20
-9.07213845E+01
  0
VERTEX
  8
0
 62
4
 10
-5.07769639E+01
 20
-9.07501705E+01
  0
VERTEX
  8
0
 62
4
 10
-5.10740336E+01
 20
-9.07836506E+01
  0
VERTEX
  8
0
 62
4
 10
-5.13528852E+01
 20
-9.08215622E+01
  0
VERTEX
  8
0
 62
4
 10
-5.16113327E+01
 20
-9.08636082E+01
  0
VERTEX
  8
0
 62
4
 10
-5.18473503E+01
 20
-9.09094590E+01
  0
VERTEX
  8
0
 62
4
 10
-5.20590877E+01
 20
-9.09587552E+01
  0
VERTEX
  8
0
 62
4
 10
-5.22448853E+01
 20
-9.10111104E+01
  0
VERTEX
  8
0
 62
4
 10
-5.24032864E+01
 20
-9.10661141E+01
  0
VERTEX
  8
0
 62
4
 10
-5.25330495E+01
 20
-9.11233351E+01
  0
VERTEX
  8
0
 62
4
 10
-5.26331572E+01
 20
-9.11823249E+01
  0
VERTEX
  8
0
 62
4
 10
-5.27028249E+01
 20
-9.12426212E+01
  0
VERTEX
  8
0
 62
4
 10
-5.27415064E+01
 20
-9.13037511E+01
  0
VERTEX
  8
0
 62
4
 10
-5.27488986E+01
 20
-9.13652356E+01
  0
VERTEX
  8
0
 62
4
 10
-5.27249434E+01
 20
-9.14265926E+01
  0
VERTEX
  8
0
 62
4
 10
-5.26698286E+01
 20
-9.14873412E+01
  0
VERTEX
  8
0
 62
4
 10
-5.25839863E+01
 20
-9.15470052E+01
  0
VERTEX
  8
0
 62
4
 10
-5.24680895E+01
 20
-9.16051168E+01
  0
VERTEX
  8
0
 62
4
 10
-5.23230465E+01
 20
-9.16612205E+01
  0
VERTEX
  8
0
 62
4
 10
-5.21499945E+01
 20
-9.17148766E+01
  0
SEQEND
  8
0
  0
POLYLINE
  8
0
 62
4
 66
1
  0
VERTEX
  8
0
 62
4
 10
-4.53499945E+01
 20
-9.13489772E+01
  0
VERTEX
  8
0
 62
4
 10
-4.53636819E+01
 20
-9.12960538E+01
  0
VERTEX
  8
0
 62
4
 10
-4.54046339E+01
 20
-9.12435565E+01
  0
VERTEX
  8
0
 62
4
 10
-4.54725208E+01
 20
-9.11919080E+01
  0
VERTEX
  8
0
 62
4
 10
-4.55667959E+01
 20
-9.11415242E+01
  0
VERTEX
  8
0
 62
4
 10
-4.56867003E+01
 20
-9.10928106E+01
  0
VERTEX
  8
0
 62
4
 10
-4.58312686E+01
 20
-9.10461595E+01
  0
VERTEX
  8
0
 62
4
 10
-4.59993367E+01
 20
-9.10019466E+01
  0
VERTEX
  8
0
 62
4
 10
-4.61895515E+01
 20
-9.09605277E+01
  0
VERTEX
  8
0
 62
4
 10
-4.64003815E+01
 20
-9.09222364E+01
  0
VERTEX
  8
0
 62
4
 10
-4.66301292E+01
 20
-9.08873809E+01
  0
VERTEX
  8
0
 62
4
 10
-4.68769448E+01
 20
-9.08562420E+01
  0
VERTEX
  8
0
 62
4
 10
-4.71388410E+01
 20
-9.08290702E+01
  0
VERTEX
  8
0
 62
4
 10
-4.74137094E+01
 20
-9.08060845E+01
  0
VERTEX
  8
0
 62
4
 10
-4.76993367E+01
 20
-9.07874698E+01
  0
VERTEX
  8
0
 62
4
 10
-4.79934233E+01
 20
-9.07733761E+01
  0
VERTEX
  8
0
 62
4
 10
-4.82936014E+01
 20
-9.07639167E+01
  0
VERTEX
  8
0
 62
4
 10
-4.85974541E+01
 20
-9.07591679E+01
  0
VERTEX
  8
0
 62
4
 10
-4.89025349E+01
 20
-9.07591679E+01
  0
VERTEX
  8
0
 62
4
 10
-4.92063876E+01
 20
-9.07639167E+01
  0
VERTEX
  8
0
 62
4
 10
-4.95065657E+01
 20
-9.07733761E+01
  0
VERTEX
  8
0
 62
4
 10
-4.98006523E+01
 20
-9.07874698E+01
  0
VERTEX
  8
0
 62
4
 10
-5.00862796E+01
 20
-9.08060845E+01
  0
VERTEX
  8
0
 62
4
 10
-5.03611479E+01
 20
-9.08290702E+01
  0
VERTEX
  8
0
 62
4
 10
-5.06230442E+01
 20
-9.08562420E+01
  0
VERTEX
  8
0
 62
4
 10
-5.08698598E+01
 20
-9.08873809E+01
  0
VERTEX
  8
0
 62
4
 10
-5.10996075E+01
 20
-9.09222364E+01
  0
VERTEX
  8
0
 62
4
 10
-5.13104375E+01
 20
-9.09605277E+01
  0
VERTEX
  8
0
 62
4
 10
-5.15006523E+01
 20
-9.10019465E+01
  0
VERTEX
  8
0
 62
4
 10
-5.16687204E+01
 20
-9.10461595E+01
  0
VERTEX
  8
0
 62
4
 10
-5.18132886E+01
 20
-9.10928106E+01
  0
VERTEX
  8
0
 62
4
 10
-5.19331931E+01
 20
-9.11415242E+01
  0
VERTEX
  8
0
 62
4
 10
-5.20274682E+01
 20
-9.11919080E+01
  0
VERTEX
  8
0
 62
4
 10
-5.20953551E+01
 20
-9.12435565E+01
  0
VERTEX
  8
0
 62
4
 10
-5.21363071E+01
 20
-9.12960538E+01
  0
VERTEX
  8
0
 62
4
 10
-5.21499945E+01
 20
-9.13489772E+01
  0
SEQEND
  8
0
  0
LINE
  8
0
 62
4
 10
-4.53499945E+01
 20
-9.21589346E+01
 11
-2.32499945E+01
 21
-9.21589346E+01
  0
ARC
  8
0
 62
4
 10
-2.32494947E+01
 20
-8.80547118E+01
 40
1.49950029E+00
 50
2.69980903E+02
 51
1.90971113E-02
  0
ARC
  8
0
 62
4
 10
-5.92504981E+01
 20
-8.80547156E+01
 40
1.49949647E+00
 50
1.79980757E+02
 51
2.70019243E+02
  0
LINE
  8
0
 62
4
 10
2.44078782E+02
 20
-1.81832058E+02
 11
2.44431463E+02
 21
-1.82777582E+02
  0
LINE
  8
0
 62
4
 10
2.37798782E+02
 20
-1.81832058E+02
 11
2.37446100E+02
 21
-1.82777582E+02
  0
POLYLINE
  8
0
 62
4
 66
1
  0
VERTEX
  8
0
 62
4
 10
2.37446101E+02
 20
-1.82777582E+02
  0
VERTEX
  8
0
 62
4
 10
2.37439767E+02
 20
-1.82831282E+02
  0
VERTEX
  8
0
 62
4
 10
2.37460761E+02
 20
-1.82884870E+02
  0
VERTEX
  8
0
 62
4
 10
2.37508919E+02
 20
-1.82937927E+02
  0
VERTEX
  8
0
 62
4
 10
2.37583866E+02
 20
-1.82990038E+02
  0
VERTEX
  8
0
 62
4
 10
2.37685014E+02
 20
-1.83040797E+02
  0
VERTEX
  8
0
 62
4
 10
2.37811576E+02
 20
-1.83089807E+02
  0
VERTEX
  8
0
 62
4
 10
2.37962561E+02
 20
-1.83136685E+02
  0
VERTEX
  8
0
 62
4
 10
2.38136792E+02
 20
-1.83181065E+02
  0
VERTEX
  8
0
 62
4
 10
2.38332906E+02
 20
-1.83222601E+02
  0
VERTEX
  8
0
 62
4
 10
2.38549373E+02
 20
-1.83260967E+02
  0
VERTEX
  8
0
 62
4
 10
2.38784502E+02
 20
-1.83295866E+02
  0
VERTEX
  8
0
 62
4
 10
2.39036456E+02
 20
-1.83327023E+02
  0
VERTEX
  8
0
 62
4
 10
2.39303268E+02
 20
-1.83354196E+02
  0
VERTEX
  8
0
 62
4
 10
2.39582853E+02
 20
-1.83377172E+02
  0
VERTEX
  8
0
 62
4
 10
2.39873028E+02
 20
-1.83395772E+02
  0
VERTEX
  8
0
 62
4
 10
2.40171528E+02
 20
-1.83409851E+02
  0
VERTEX
  8
0
 62
4
 10
2.40476019E+02
 20
-1.83419298E+02
  0
VERTEX
  8
0
 62
4
 10
2.40784125E+02
 20
-1.83424040E+02
  0
VERTEX
  8
0
 62
4
 10
2.41093439E+02
 20
-1.83424040E+02
  0
VERTEX
  8
0
 62
4
 10
2.41401545E+02
 20
-1.83419298E+02
  0
VERTEX
  8
0
 62
4
 10
2.41706036E+02
 20
-1.83409851E+02
  0
VERTEX
  8
0
 62
4
 10
2.42004536E+02
 20
-1.83395772E+02
  0
VERTEX
  8
0
 62
4
 10
2.42294711E+02
 20
-1.83377172E+02
  0
VERTEX
  8
0
 62
4
 10
2.42574296E+02
 20
-1.83354196E+02
  0
VERTEX
  8
0
 62
4
 10
2.42841108E+02
 20
-1.83327023E+02
  0
VERTEX
  8
0
 62
4
 10
2.43093062E+02
 20
-1.83295866E+02
  0
VERTEX
  8
0
 62
4
 10
2.43328191E+02
 20
-1.83260967E+02
  0
VERTEX
  8
0
 62
4
 10
2.43544658E+02
 20
-1.83222601E+02
  0
VERTEX
  8
0
 62
4
 10
2.43740772E+02
 20
-1.83181065E+02
  0
VERTEX
  8
0
 62
4
 10
2.43915003E+02
 20
-1.83136685E+02
  0
VERTEX
  8
0
 62
4
 10
2.44065988E+02
 20
-1.83089807E+02
  0
VERTEX
  8
0
 62
4
 10
2.44192550E+02
 20
-1.83040797E+02
  0
VERTEX
  8
0
 62
4
 10
2.44293698E+02
 20
-1.82990038E+02
  0
VERTEX
  8
0
 62
4
 10
2.44368645E+02
 20
-1.82937927E+02
  0
VERTEX
  8
0
 62
4
 10
2.44416803E+02
 20
-1.82884870E+02
  0
VERTEX
  8
0
 62
4
 10
2.44437797E+02
 20
-1.82831282E+02
  0
VERTEX
  8
0
 62
4
 10
2.44431463E+02
 20
-1.82777582E+02
  0
SEQEND
  8
0
  0
POLYLINE
  8
0
 62
4
 66
1
  0
VERTEX
  8
0
 62
4
 10
2.44078782E+02
 20
-1.81832058E+02
  0
VERTEX
  8
0
 62
4
 10
2.44066833E+02
 20
-1.81784536E+02
  0
VERTEX
  8
0
 62
4
 10
2.44031078E+02
 20
-1.81737375E+02
  0
VERTEX
  8
0
 62
4
 10
2.43971789E+02
 20
-1.81690936E+02
  0
VERTEX
  8
0
 62
4
 10
2.43889417E+02
 20
-1.81645570E+02
  0
VERTEX
  8
0
 62
4
 10
2.43784588E+02
 20
-1.81601623E+02
  0
VERTEX
  8
0
 62
4
 10
2.43658102E+02
 20
-1.81559430E+02
  0
VERTEX
  8
0
 62
4
 10
2.43510919E+02
 20
-1.81519312E+02
  0
VERTEX
  8
0
 62
4
 10
2.43344162E+02
 20
-1.81481575E+02
  0
VERTEX
  8
0
 62
4
 10
2.43159097E+02
 20
-1.81446504E+02
  0
VERTEX
  8
0
 62
4
 10
2.42957135E+02
 20
-1.81414368E+02
  0
VERTEX
  8
0
 62
4
 10
2.42739812E+02
 20
-1.81385411E+02
  0
VERTEX
  8
0
 62
4
 10
2.42508782E+02
 20
-1.81359853E+02
  0
VERTEX
  8
0
 62
4
 10
2.42265803E+02
 20
-1.81337889E+02
  0
VERTEX
  8
0
 62
4
 10
2.42012725E+02
 20
-1.81319686E+02
  0
VERTEX
  8
0
 62
4
 10
2.41751474E+02
 20
-1.81305382E+02
  0
VERTEX
  8
0
 62
4
 10
2.41484037E+02
 20
-1.81295086E+02
  0
VERTEX
  8
0
 62
4
 10
2.41212451E+02
 20
-1.81288878E+02
  0
VERTEX
  8
0
 62
4
 10
2.40938782E+02
 20
-1.81286803E+02
  0
VERTEX
  8
0
 62
4
 10
2.40665113E+02
 20
-1.81288878E+02
  0
VERTEX
  8
0
 62
4
 10
2.40393527E+02
 20
-1.81295086E+02
  0
VERTEX
  8
0
 62
4
 10
2.40126090E+02
 20
-1.81305382E+02
  0
VERTEX
  8
0
 62
4
 10
2.39864839E+02
 20
-1.81319686E+02
  0
VERTEX
  8
0
 62
4
 10
2.39611761E+02
 20
-1.81337889E+02
  0
VERTEX
  8
0
 62
4
 10
2.39368782E+02
 20
-1.81359853E+02
  0
VERTEX
  8
0
 62
4
 10
2.39137752E+02
 20
-1.81385411E+02
  0
VERTEX
  8
0
 62
4
 10
2.38920429E+02
 20
-1.81414368E+02
  0
VERTEX
  8
0
 62
4
 10
2.38718467E+02
 20
-1.81446504E+02
  0
VERTEX
  8
0
 62
4
 10
2.38533402E+02
 20
-1.81481575E+02
  0
VERTEX
  8
0
 62
4
 10
2.38366645E+02
 20
-1.81519312E+02
  0
VERTEX
  8
0
 62
4
 10
2.38219462E+02
 20
-1.81559430E+02
  0
VERTEX
  8
0
 62
4
 10
2.38092976E+02
 20
-1.81601623E+02
  0
VERTEX
  8
0
 62
4
 10
2.37988147E+02
 20
-1.81645570E+02
  0
VERTEX
  8
0
 62
4
 10
2.37905775E+02
 20
-1.81690936E+02
  0
VERTEX
  8
0
 62
4
 10
2.37846486E+02
 20
-1.81737375E+02
  0
VERTEX
  8
0
 62
4
 10
2.37810731E+02
 20
-1.81784536E+02
  0
VERTEX
  8
0
 62
4
 10
2.37798782E+02
 20
-1.81832058E+02
  0
VERTEX
  8
0
 62
4
 10
2.37810731E+02
 20
-1.81879580E+02
  0
VERTEX
  8
0
 62
4
 10
2.37846486E+02
 20
-1.81926741E+02
  0
VERTEX
  8
0
 62
4
 10
2.37905775E+02
 20
-1.81973180E+02
  0
VERTEX
  8
0
 62
4
 10
2.37988147E+02
 20
-1.82018546E+02
  0
VERTEX
  8
0
 62
4
 10
2.38092976E+02
 20
-1.82062493E+02
  0
VERTEX
  8
0
 62
4
 10
2.38219462E+02
 20
-1.82104686E+02
  0
VERTEX
  8
0
 62
4
 10
2.38366645E+02
 20
-1.82144804E+02
  0
VERTEX
  8
0
 62
4
 10
2.38533402E+02
 20
-1.82182541E+02
  0
VERTEX
  8
0
 62
4
 10
2.38718467E+02
 20
-1.82217612E+02
  0
VERTEX
  8
0
 62
4
 10
2.38920429E+02
 20
-1.82249748E+02
  0
VERTEX
  8
0
 62
4
 10
2.39137752E+02
 20
-1.82278705E+02
  0
VERTEX
  8
0
 62
4
 10
2.39368782E+02
 20
-1.82304263E+02
  0
VERTEX
  8
0
 62
4
 10
2.39611761E+02
 20
-1.82326227E+02
  0
VERTEX
  8
0
 62
4
 10
2.39864839E+02
 20
-1.82344430E+02
  0
VERTEX
  8
0
 62
4
 10
2.40126090E+02
 20
-1.82358734E+02
  0
VERTEX
  8
0
 62
4
 10
2.40393527E+02
 20
-1.82369030E+02
  0
VERTEX
  8
0
 62
4
 10
2.40665113E+02
 20
-1.82375238E+02
  0
VERTEX
  8
0
 62
4
 10
2.40938782E+02
 20
-1.82377313E+02
  0
VERTEX
  8
0
 62
4
 10
2.41212451E+02
 20
-1.82375238E+02
  0
VERTEX
  8
0
 62
4
 10
2.41484037E+02
 20
-1.82369030E+02
  0
VERTEX
  8
0
 62
4
 10
2.41751474E+02
 20
-1.82358734E+02
  0
VERTEX
  8
0
 62
4
 10
2.42012725E+02
 20
-1.82344430E+02
  0
VERTEX
  8
0
 62
4
 10
2.42265803E+02
 20
-1.82326227E+02
  0
VERTEX
  8
0
 62
4
 10
2.42508782E+02
 20
-1.82304263E+02
  0
VERTEX
  8
0
 62
4
 10
2.42739812E+02
 20
-1.82278705E+02
  0
VERTEX
  8
0
 62
4
 10
2.42957135E+02
 20
-1.82249748E+02
  0
VERTEX
  8
0
 62
4
 10
2.43159097E+02
 20
-1.82217612E+02
  0
VERTEX
  8
0
 62
4
 10
2.43344162E+02
 20
-1.82182541E+02
  0
VERTEX
  8
0
 62
4
 10
2.43510919E+02
 20
-1.82144804E+02
  0
VERTEX
  8
0
 62
4
 10
2.43658102E+02
 20
-1.82104686E+02
  0
VERTEX
  8
0
 62
4
 10
2.43784588E+02
 20
-1.82062493E+02
  0
VERTEX
  8
0
 62
4
 10
2.43889417E+02
 20
-1.82018546E+02
  0
VERTEX
  8
0
 62
4
 10
2.43971789E+02
 20
-1.81973180E+02
  0
VERTEX
  8
0
 62
4
 10
2.44031078E+02
 20
-1.81926741E+02
  0
VERTEX
  8
0
 62
4
 10
2.44066833E+02
 20
-1.81879580E+02
  0
VERTEX
  8
0
 62
4
 10
2.44078782E+02
 20
-1.81832058E+02
  0
SEQEND
  8
0
  0
LINE
  8
0
  6
CENTER
 62
6
 10
2.40938782E+02
 20
-1.79677926E+02
 11
2.40938782E+02
 21
-1.81832058E+02
  0
LINE
  8
0
 62
4
 10
2.83938782E+02
 20
-1.52780229E+02
 11
2.78938782E+02
 21
-1.52780229E+02
  0
LINE
  8
0
 62
4
 10
2.67438782E+02
 20
-1.83914042E+02
 11
2.67438782E+02
 21
-1.81809944E+02
  0
LINE
  8
0
 62
4
 10
2.31438782E+02
 20
-1.83914042E+02
 11
2.31438782E+02
 21
-1.81809944E+02
  0
LINE
  8
0
 62
4
 10
2.47438782E+02
 20
-1.81129071E+02
 11
2.31438782E+02
 21
-1.81129071E+02
  0
ARC
  8
0
 62
4
 10
2.67439282E+02
 20
-1.82628571E+02
 40
1.49950029E+00
 50
3.59980903E+02
 51
9.00190969E+01
  0
LINE
  8
0
 62
4
 10
2.67438782E+02
 20
-1.81129071E+02
 11
2.66438782E+02
 21
-1.81129071E+02
  0
ARC
  8
0
 62
4
 10
2.31438282E+02
 20
-1.82628571E+02
 40
1.49950029E+00
 50
8.99809029E+01
 51
1.80019097E+02
  0
POLYLINE
  8
0
 62
4
 66
1
  0
VERTEX
  8
0
 62
4
 10
2.62938782E+02
 20
-2.10236108E+02
  0
VERTEX
  8
0
 62
4
 10
2.62930922E+02
 20
-2.10062092E+02
  0
VERTEX
  8
0
 62
4
 10
2.62907402E+02
 20
-2.09889444E+02
  0
VERTEX
  8
0
 62
4
 10
2.62868409E+02
 20
-2.09719521E+02
  0
VERTEX
  8
0
 62
4
 10
2.62814248E+02
 20
-2.09553658E+02
  0
VERTEX
  8
0
 62
4
 10
2.62745345E+02
 20
-2.09393160E+02
  0
VERTEX
  8
0
 62
4
 10
2.62662242E+02
 20
-2.09239288E+02
  0
VERTEX
  8
0
 62
4
 10
2.62565592E+02
 20
-2.09093251E+02
  0
VERTEX
  8
0
 62
4
 10
2.62456154E+02
 20
-2.08956197E+02
  0
VERTEX
  8
0
 62
4
 10
2.62334790E+02
 20
-2.08829204E+02
  0
VERTEX
  8
0
 62
4
 10
2.62202452E+02
 20
-2.08713270E+02
  0
VERTEX
  8
0
 62
4
 10
2.62060181E+02
 20
-2.08609306E+02
  0
VERTEX
  8
0
 62
4
 10
2.61909096E+02
 20
-2.08518129E+02
  0
VERTEX
  8
0
 62
4
 10
2.61750384E+02
 20
-2.08440456E+02
  0
VERTEX
  8
0
 62
4
 10
2.61585292E+02
 20
-2.08376897E+02
  0
VERTEX
  8
0
 62
4
 10
2.61415118E+02
 20
-2.08327953E+02
  0
VERTEX
  8
0
 62
4
 10
2.61241200E+02
 20
-2.08294007E+02
  0
VERTEX
  8
0
 62
4
 10
2.61064905E+02
 20
-2.08275327E+02
  0
VERTEX
  8
0
 62
4
 10
2.60887619E+02
 20
-2.08272059E+02
  0
VERTEX
  8
0
 62
4
 10
2.60710735E+02
 20
-2.08284230E+02
  0
VERTEX
  8
0
 62
4
 10
2.60535643E+02
 20
-2.08311743E+02
  0
VERTEX
  8
0
 62
4
 10
2.60363721E+02
 20
-2.08354383E+02
  0
VERTEX
  8
0
 62
4
 10
2.60196318E+02
 20
-2.08411813E+02
  0
VERTEX
  8
0
 62
4
 10
2.60034752E+02
 20
-2.08483583E+02
  0
VERTEX
  8
0
 62
4
 10
2.59880291E+02
 20
-2.08569129E+02
  0
VERTEX
  8
0
 62
4
 10
2.59734151E+02
 20
-2.08667777E+02
  0
VERTEX
  8
0
 62
4
 10
2.59597479E+02
 20
-2.08778754E+02
  0
VERTEX
  8
0
 62
4
 10
2.59471351E+02
 20
-2.08901185E+02
  0
VERTEX
  8
0
 62
4
 10
2.59356757E+02
 20
-2.09034110E+02
  0
VERTEX
  8
0
 62
4
 10
2.59254598E+02
 20
-2.09176483E+02
  0
VERTEX
  8
0
 62
4
 10
2.59165678E+02
 20
-2.09327185E+02
  0
VERTEX
  8
0
 62
4
 10
2.59090695E+02
 20
-2.09485031E+02
  0
VERTEX
  8
0
 62
4
 10
2.59030239E+02
 20
-2.09648781E+02
  0
VERTEX
  8
0
 62
4
 10
2.58984784E+02
 20
-2.09817148E+02
  0
VERTEX
  8
0
 62
4
 10
2.58954689E+02
 20
-2.09988807E+02
  0
VERTEX
  8
0
 62
4
 10
2.58940190E+02
 20
-2.10162411E+02
  0
VERTEX
  8
0
 62
4
 10
2.58941400E+02
 20
-2.10336594E+02
  0
SEQEND
  8
0
  0
POLYLINE
  8
0
 62
4
 66
1
  0
VERTEX
  8
0
 62
4
 10
2.62673782E+02
 20
-2.10610729E+02
  0
VERTEX
  8
0
 62
4
 10
2.62667180E+02
 20
-2.10461811E+02
  0
VERTEX
  8
0
 62
4
 10
2.62647423E+02
 20
-2.10314027E+02
  0
VERTEX
  8
0
 62
4
 10
2.62614663E+02
 20
-2.10168500E+02
  0
VERTEX
  8
0
 62
4
 10
2.62569149E+02
 20
-2.10026339E+02
  0
VERTEX
  8
0
 62
4
 10
2.62511226E+02
 20
-2.09888626E+02
  0
VERTEX
  8
0
 62
4
 10
2.62441336E+02
 20
-2.09756408E+02
  0
VERTEX
  8
0
 62
4
 10
2.62360011E+02
 20
-2.09630693E+02
  0
VERTEX
  8
0
 62
4
 10
2.62267869E+02
 20
-2.09512435E+02
  0
VERTEX
  8
0
 62
4
 10
2.62165612E+02
 20
-2.09402537E+02
  0
VERTEX
  8
0
 62
4
 10
2.62054019E+02
 20
-2.09301834E+02
  0
VERTEX
  8
0
 62
4
 10
2.61933937E+02
 20
-2.09211092E+02
  0
VERTEX
  8
0
 62
4
 10
2.61806282E+02
 20
-2.09131002E+02
  0
VERTEX
  8
0
 62
4
 10
2.61672025E+02
 20
-2.09062174E+02
  0
VERTEX
  8
0
 62
4
 10
2.61532187E+02
 20
-2.09005131E+02
  0
VERTEX
  8
0
 62
4
 10
2.61387833E+02
 20
-2.08960308E+02
  0
VERTEX
  8
0
 62
4
 10
2.61240062E+02
 20
-2.08928046E+02
  0
VERTEX
  8
0
 62
4
 10
2.61089997E+02
 20
-2.08908589E+02
  0
VERTEX
  8
0
 62
4
 10
2.60938782E+02
 20
-2.08902088E+02
  0
VERTEX
  8
0
 62
4
 10
2.60787567E+02
 20
-2.08908589E+02
  0
VERTEX
  8
0
 62
4
 10
2.60637502E+02
 20
-2.08928046E+02
  0
VERTEX
  8
0
 62
4
 10
2.60489731E+02
 20
-2.08960308E+02
  0
VERTEX
  8
0
 62
4
 10
2.60345377E+02
 20
-2.09005131E+02
  0
VERTEX
  8
0
 62
4
 10
2.60205539E+02
 20
-2.09062174E+02
  0
VERTEX
  8
0
 62
4
 10
2.60071282E+02
 20
-2.09131002E+02
  0
VERTEX
  8
0
 62
4
 10
2.59943627E+02
 20
-2.09211092E+02
  0
VERTEX
  8
0
 62
4
 10
2.59823545E+02
 20
-2.09301834E+02
  0
VERTEX
  8
0
 62
4
 10
2.59711952E+02
 20
-2.09402537E+02
  0
VERTEX
  8
0
 62
4
 10
2.59609695E+02
 20
-2.09512435E+02
  0
VERTEX
  8
0
 62
4
 10
2.59517553E+02
 20
-2.09630693E+02
  0
VERTEX
  8
0
 62
4
 10
2.59436228E+02
 20
-2.09756408E+02
  0
VERTEX
  8
0
 62
4
 10
2.59366338E+02
 20
-2.09888626E+02
  0
VERTEX
  8
0
 62
4
 10
2.59308415E+02
 20
-2.10026339E+02
  0
VERTEX
  8
0
 62
4
 10
2.59262901E+02
 20
-2.10168500E+02
  0
VERTEX
  8
0
 62
4
 10
2.59230141E+02
 20
-2.10314027E+02
  0
VERTEX
  8
0
 62
4
 10
2.59210384E+02
 20
-2.10461811E+02
  0
VERTEX
  8
0
 62
4
 10
2.59203782E+02
 20
-2.10610729E+02
  0
VERTEX
  8
0
 62
4
 10
2.59210384E+02
 20
-2.10759647E+02
  0
VERTEX
  8
0
 62
4
 10
2.59230141E+02
 20
-2.10907431E+02
  0
VERTEX
  8
0
 62
4
 10
2.59262901E+02
 20
-2.11052958E+02
  0
VERTEX
  8
0
 62
4
 10
2.59308415E+02
 20
-2.11195119E+02
  0
VERTEX
  8
0
 62
4
 10
2.59366338E+02
 20
-2.11332832E+02
  0
VERTEX
  8
0
 62
4
 10
2.59436228E+02
 20
-2.11465050E+02
  0
VERTEX
  8
0
 62
4
 10
2.59517553E+02
 20
-2.11590765E+02
  0
VERTEX
  8
0
 62
4
 10
2.59609695E+02
 20
-2.11709023E+02
  0
VERTEX
  8
0
 62
4
 10
2.59711952E+02
 20
-2.11818921E+02
  0
VERTEX
  8
0
 62
4
 10
2.59823545E+02
 20
-2.11919624E+02
  0
VERTEX
  8
0
 62
4
 10
2.59943627E+02
 20
-2.12010366E+02
  0
VERTEX
  8
0
 62
4
 10
2.60071282E+02
 20
-2.12090456E+02
  0
VERTEX
  8
0
 62
4
 10
2.60205539E+02
 20
-2.12159284E+02
  0
VERTEX
  8
0
 62
4
 10
2.60345377E+02
 20
-2.12216327E+02
  0
VERTEX
  8
0
 62
4
 10
2.60489731E+02
 20
-2.12261150E+02
  0
VERTEX
  8
0
 62
4
 10
2.60637502E+02
 20
-2.12293412E+02
  0
VERTEX
  8
0
 62
4
 10
2.60787567E+02
 20
-2.12312869E+02
  0
VERTEX
  8
0
 62
4
 10
2.60938782E+02
 20
-2.12319370E+02
  0
VERTEX
  8
0
 62
4
 10
2.61089997E+02
 20
-2.12312869E+02
  0
VERTEX
  8
0
 62
4
 10
2.61240062E+02
 20
-2.12293412E+02
  0
VERTEX
  8
0
 62
4
 10
2.61387833E+02
 20
-2.12261150E+02
  0
VERTEX
  8
0
 62
4
 10
2.61532187E+02
 20
-2.12216327E+02
  0
VERTEX
  8
0
 62
4
 10
2.61672025E+02
 20
-2.12159284E+02
  0
VERTEX
  8
0
 62
4
 10
2.61806282E+02
 20
-2.12090456E+02
  0
VERTEX
  8
0
 62
4
 10
2.61933937E+02
 20
-2.12010366E+02
  0
VERTEX
  8
0
 62
4
 10
2.62054019E+02
 20
-2.11919624E+02
  0
VERTEX
  8
0
 62
4
 10
2.62165612E+02
 20
-2.11818921E+02
  0
VERTEX
  8
0
 62
4
 10
2.62267869E+02
 20
-2.11709023E+02
  0
VERTEX
  8
0
 62
4
 10
2.62360011E+02
 20
-2.11590765E+02
  0
VERTEX
  8
0
 62
4
 10
2.62441336E+02
 20
-2.11465050E+02
  0
VERTEX
  8
0
 62
4
 10
2.62511226E+02
 20
-2.11332832E+02
  0
VERTEX
  8
0
 62
4
 10
2.62569149E+02
 20
-2.11195119E+02
  0
VERTEX
  8
0
 62
4
 10
2.62614663E+02
 20
-2.11052958E+02
  0
VERTEX
  8
0
 62
4
 10
2.62647423E+02
 20
-2.10907431E+02
  0
VERTEX
  8
0
 62
4
 10
2.62667180E+02
 20
-2.10759647E+02
  0
VERTEX
  8
0
 62
4
 10
2.62673782E+02
 20
-2.10610729E+02
  0
SEQEND
  8
0
  0
POLYLINE
  8
0
 62
4
 66
1
  0
VERTEX
  8
0
 62
4
 10
2.62938782E+02
 20
-2.10437081E+02
  0
VERTEX
  8
0
 62
4
 10
2.62931171E+02
 20
-2.10265847E+02
  0
VERTEX
  8
0
 62
4
 10
2.62908398E+02
 20
-2.10095916E+02
  0
VERTEX
  8
0
 62
4
 10
2.62870634E+02
 20
-2.09928581E+02
  0
VERTEX
  8
0
 62
4
 10
2.62818167E+02
 20
-2.09765117E+02
  0
VERTEX
  8
0
 62
4
 10
2.62751398E+02
 20
-2.09606767E+02
  0
VERTEX
  8
0
 62
4
 10
2.62670833E+02
 20
-2.09454735E+02
  0
VERTEX
  8
0
 62
4
 10
2.62577086E+02
 20
-2.09310180E+02
  0
VERTEX
  8
0
 62
4
 10
2.62470871E+02
 20
-2.09174202E+02
  0
VERTEX
  8
0
 62
4
 10
2.62352996E+02
 20
-2.09047834E+02
  0
VERTEX
  8
0
 62
4
 10
2.62224357E+02
 20
-2.08932040E+02
  0
VERTEX
  8
0
 62
4
 10
2.62085935E+02
 20
-2.08827700E+02
  0
VERTEX
  8
0
 62
4
 10
2.61938782E+02
 20
-2.08735608E+02
  0
VERTEX
  8
0
 62
4
 10
2.61784019E+02
 20
-2.08656466E+02
  0
VERTEX
  8
0
 62
4
 10
2.61622822E+02
 20
-2.08590875E+02
  0
VERTEX
  8
0
 62
4
 10
2.61456420E+02
 20
-2.08539335E+02
  0
VERTEX
  8
0
 62
4
 10
2.61286078E+02
 20
-2.08502238E+02
  0
VERTEX
  8
0
 62
4
 10
2.61113093E+02
 20
-2.08479866E+02
  0
VERTEX
  8
0
 62
4
 10
2.60938782E+02
 20
-2.08472390E+02
  0
VERTEX
  8
0
 62
4
 10
2.60764471E+02
 20
-2.08479866E+02
  0
VERTEX
  8
0
 62
4
 10
2.60591486E+02
 20
-2.08502238E+02
  0
VERTEX
  8
0
 62
4
 10
2.60421144E+02
 20
-2.08539335E+02
  0
VERTEX
  8
0
 62
4
 10
2.60254742E+02
 20
-2.08590875E+02
  0
VERTEX
  8
0
 62
4
 10
2.60093545E+02
 20
-2.08656466E+02
  0
VERTEX
  8
0
 62
4
 10
2.59938782E+02
 20
-2.08735608E+02
  0
VERTEX
  8
0
 62
4
 10
2.59791629E+02
 20
-2.08827700E+02
  0
VERTEX
  8
0
 62
4
 10
2.59653207E+02
 20
-2.08932040E+02
  0
VERTEX
  8
0
 62
4
 10
2.59524568E+02
 20
-2.09047834E+02
  0
VERTEX
  8
0
 62
4
 10
2.59406693E+02
 20
-2.09174202E+02
  0
VERTEX
  8
0
 62
4
 10
2.59300478E+02
 20
-2.09310180E+02
  0
VERTEX
  8
0
 62
4
 10
2.59206731E+02
 20
-2.09454735E+02
  0
VERTEX
  8
0
 62
4
 10
2.59126166E+02
 20
-2.09606767E+02
  0
VERTEX
  8
0
 62
4
 10
2.59059397E+02
 20
-2.09765117E+02
  0
VERTEX
  8
0
 62
4
 10
2.59006930E+02
 20
-2.09928581E+02
  0
VERTEX
  8
0
 62
4
 10
2.58969166E+02
 20
-2.10095916E+02
  0
VERTEX
  8
0
 62
4
 10
2.58946393E+02
 20
-2.10265847E+02
  0
VERTEX
  8
0
 62
4
 10
2.58938782E+02
 20
-2.10437081E+02
  0
VERTEX
  8
0
 62
4
 10
2.58946393E+02
 20
-2.10608315E+02
  0
VERTEX
  8
0
 62
4
 10
2.58969166E+02
 20
-2.10778246E+02
  0
VERTEX
  8
0
 62
4
 10
2.59006930E+02
 20
-2.10945581E+02
  0
VERTEX
  8
0
 62
4
 10
2.59059397E+02
 20
-2.11109045E+02
  0
VERTEX
  8
0
 62
4
 10
2.59126166E+02
 20
-2.11267395E+02
  0
VERTEX
  8
0
 62
4
 10
2.59206731E+02
 20
-2.11419427E+02
  0
VERTEX
  8
0
 62
4
 10
2.59300478E+02
 20
-2.11563982E+02
  0
VERTEX
  8
0
 62
4
 10
2.59406693E+02
 20
-2.11699960E+02
  0
VERTEX
  8
0
 62
4
 10
2.59524568E+02
 20
-2.11826328E+02
  0
VERTEX
  8
0
 62
4
 10
2.59653207E+02
 20
-2.11942122E+02
  0
VERTEX
  8
0
 62
4
 10
2.59791629E+02
 20
-2.12046462E+02
  0
VERTEX
  8
0
 62
4
 10
2.59938782E+02
 20
-2.12138554E+02
  0
VERTEX
  8
0
 62
4
 10
2.60093545E+02
 20
-2.12217696E+02
  0
VERTEX
  8
0
 62
4
 10
2.60254742E+02
 20
-2.12283287E+02
  0
VERTEX
  8
0
 62
4
 10
2.60421144E+02
 20
-2.12334827E+02
  0
VERTEX
  8
0
 62
4
 10
2.60591486E+02
 20
-2.12371924E+02
  0
VERTEX
  8
0
 62
4
 10
2.60764471E+02
 20
-2.12394296E+02
  0
VERTEX
  8
0
 62
4
 10
2.60938782E+02
 20
-2.12401772E+02
  0
VERTEX
  8
0
 62
4
 10
2.61113093E+02
 20
-2.12394296E+02
  0
VERTEX
  8
0
 62
4
 10
2.61286078E+02
 20
-2.12371924E+02
  0
VERTEX
  8
0
 62
4
 10
2.61456420E+02
 20
-2.12334827E+02
  0
VERTEX
  8
0
 62
4
 10
2.61622822E+02
 20
-2.12283287E+02
  0
VERTEX
  8
0
 62
4
 10
2.61784019E+02
 20
-2.12217696E+02
  0
VERTEX
  8
0
 62
4
 10
2.61938782E+02
 20
-2.12138554E+02
  0
VERTEX
  8
0
 62
4
 10
2.62085935E+02
 20
-2.12046462E+02
  0
VERTEX
  8
0
 62
4
 10
2.62224357E+02
 20
-2.11942122E+02
  0
VERTEX
  8
0
 62
4
 10
2.62352996E+02
 20
-2.11826328E+02
  0
VERTEX
  8
0
 62
4
 10
2.62470871E+02
 20
-2.11699960E+02
  0
VERTEX
  8
0
 62
4
 10
2.62577086E+02
 20
-2.11563982E+02
  0
VERTEX
  8
0
 62
4
 10
2.62670833E+02
 20
-2.11419427E+02
  0
VERTEX
  8
0
 62
4
 10
2.62751398E+02
 20
-2.11267395E+02
  0
VERTEX
  8
0
 62
4
 10
2.62818167E+02
 20
-2.11109045E+02
  0
VERTEX
  8
0
 62
4
 10
2.62870634E+02
 20
-2.10945581E+02
  0
VERTEX
  8
0
 62
4
 10
2.62908398E+02
 20
-2.10778246E+02
  0
VERTEX
  8
0
 62
4
 10
2.62931171E+02
 20
-2.10608315E+02
  0
VERTEX
  8
0
 62
4
 10
2.62938782E+02
 20
-2.10437081E+02
  0
SEQEND
  8
0
  0
POLYLINE
  8
0
 62
6
 66
1
  0
VERTEX
  8
0
 62
6
 10
2.62438782E+02
 20
-2.10605805E+02
  0
VERTEX
  8
0
 62
6
 10
2.62433074E+02
 20
-2.10477058E+02
  0
VERTEX
  8
0
 62
6
 10
2.62415994E+02
 20
-2.10349290E+02
  0
VERTEX
  8
0
 62
6
 10
2.62387671E+02
 20
-2.10223474E+02
  0
VERTEX
  8
0
 62
6
 10
2.62348321E+02
 20
-2.10100569E+02
  0
VERTEX
  8
0
 62
6
 10
2.62298244E+02
 20
-2.09981508E+02
  0
VERTEX
  8
0
 62
6
 10
2.62237820E+02
 20
-2.09867199E+02
  0
VERTEX
  8
0
 62
6
 10
2.62167510E+02
 20
-2.09758511E+02
  0
VERTEX
  8
0
 62
6
 10
2.62087849E+02
 20
-2.09656272E+02
  0
VERTEX
  8
0
 62
6
 10
2.61999442E+02
 20
-2.09561259E+02
  0
VERTEX
  8
0
 62
6
 10
2.61902963E+02
 20
-2.09474195E+02
  0
VERTEX
  8
0
 62
6
 10
2.61799147E+02
 20
-2.09395744E+02
  0
VERTEX
  8
0
 62
6
 10
2.61688782E+02
 20
-2.09326502E+02
  0
VERTEX
  8
0
 62
6
 10
2.61572709E+02
 20
-2.09266997E+02
  0
VERTEX
  8
0
 62
6
 10
2.61451812E+02
 20
-2.09217680E+02
  0
VERTEX
  8
0
 62
6
 10
2.61327011E+02
 20
-2.09178928E+02
  0
VERTEX
  8
0
 62
6
 10
2.61199254E+02
 20
-2.09151036E+02
  0
VERTEX
  8
0
 62
6
 10
2.61069516E+02
 20
-2.09134215E+02
  0
VERTEX
  8
0
 62
6
 10
2.60938782E+02
 20
-2.09128593E+02
  0
VERTEX
  8
0
 62
6
 10
2.60808048E+02
 20
-2.09134215E+02
  0
VERTEX
  8
0
 62
6
 10
2.60678310E+02
 20
-2.09151036E+02
  0
VERTEX
  8
0
 62
6
 10
2.60550553E+02
 20
-2.09178928E+02
  0
VERTEX
  8
0
 62
6
 10
2.60425752E+02
 20
-2.09217680E+02
  0
VERTEX
  8
0
 62
6
 10
2.60304855E+02
 20
-2.09266997E+02
  0
VERTEX
  8
0
 62
6
 10
2.60188782E+02
 20
-2.09326502E+02
  0
VERTEX
  8
0
 62
6
 10
2.60078417E+02
 20
-2.09395744E+02
  0
VERTEX
  8
0
 62
6
 10
2.59974601E+02
 20
-2.09474195E+02
  0
VERTEX
  8
0
 62
6
 10
2.59878122E+02
 20
-2.09561259E+02
  0
VERTEX
  8
0
 62
6
 10
2.59789715E+02
 20
-2.09656272E+02
  0
VERTEX
  8
0
 62
6
 10
2.59710054E+02
 20
-2.09758511E+02
  0
VERTEX
  8
0
 62
6
 10
2.59639744E+02
 20
-2.09867199E+02
  0
VERTEX
  8
0
 62
6
 10
2.59579320E+02
 20
-2.09981508E+02
  0
VERTEX
  8
0
 62
6
 10
2.59529243E+02
 20
-2.10100569E+02
  0
VERTEX
  8
0
 62
6
 10
2.59489893E+02
 20
-2.10223474E+02
  0
VERTEX
  8
0
 62
6
 10
2.59461570E+02
 20
-2.10349290E+02
  0
VERTEX
  8
0
 62
6
 10
2.59444490E+02
 20
-2.10477058E+02
  0
VERTEX
  8
0
 62
6
 10
2.59438782E+02
 20
-2.10605805E+02
  0
VERTEX
  8
0
 62
6
 10
2.59444490E+02
 20
-2.10734552E+02
  0
VERTEX
  8
0
 62
6
 10
2.59461570E+02
 20
-2.10862320E+02
  0
VERTEX
  8
0
 62
6
 10
2.59489893E+02
 20
-2.10988136E+02
  0
VERTEX
  8
0
 62
6
 10
2.59529243E+02
 20
-2.11111041E+02
  0
VERTEX
  8
0
 62
6
 10
2.59579320E+02
 20
-2.11230102E+02
  0
VERTEX
  8
0
 62
6
 10
2.59639744E+02
 20
-2.11344411E+02
  0
VERTEX
  8
0
 62
6
 10
2.59710054E+02
 20
-2.11453099E+02
  0
VERTEX
  8
0
 62
6
 10
2.59789715E+02
 20
-2.11555338E+02
  0
VERTEX
  8
0
 62
6
 10
2.59878122E+02
 20
-2.11650351E+02
  0
VERTEX
  8
0
 62
6
 10
2.59974601E+02
 20
-2.11737415E+02
  0
VERTEX
  8
0
 62
6
 10
2.60078417E+02
 20
-2.11815866E+02
  0
VERTEX
  8
0
 62
6
 10
2.60188782E+02
 20
-2.11885108E+02
  0
VERTEX
  8
0
 62
6
 10
2.60304855E+02
 20
-2.11944613E+02
  0
VERTEX
  8
0
 62
6
 10
2.60425752E+02
 20
-2.11993930E+02
  0
VERTEX
  8
0
 62
6
 10
2.60550553E+02
 20
-2.12032682E+02
  0
VERTEX
  8
0
 62
6
 10
2.60678310E+02
 20
-2.12060574E+02
  0
VERTEX
  8
0
 62
6
 10
2.60808048E+02
 20
-2.12077395E+02
  0
VERTEX
  8
0
 62
6
 10
2.60938782E+02
 20
-2.12083017E+02
  0
VERTEX
  8
0
 62
6
 10
2.61069516E+02
 20
-2.12077395E+02
  0
VERTEX
  8
0
 62
6
 10
2.61199254E+02
 20
-2.12060574E+02
  0
VERTEX
  8
0
 62
6
 10
2.61327011E+02
 20
-2.12032682E+02
  0
VERTEX
  8
0
 62
6
 10
2.61451812E+02
 20
-2.11993930E+02
  0
VERTEX
  8
0
 62
6
 10
2.61572709E+02
 20
-2.11944613E+02
  0
VERTEX
  8
0
 62
6
 10
2.61688782E+02
 20
-2.11885108E+02
  0
VERTEX
  8
0
 62
6
 10
2.61799147E+02
 20
-2.11815866E+02
  0
VERTEX
  8
0
 62
6
 10
2.61902963E+02
 20
-2.11737415E+02
  0
VERTEX
  8
0
 62
6
 10
2.61999442E+02
 20
-2.11650351E+02
  0
VERTEX
  8
0
 62
6
 10
2.62087849E+02
 20
-2.11555338E+02
  0
VERTEX
  8
0
 62
6
 10
2.62167510E+02
 20
-2.11453099E+02
  0
VERTEX
  8
0
 62
6
 10
2.62237820E+02
 20
-2.11344411E+02
  0
VERTEX
  8
0
 62
6
 10
2.62298244E+02
 20
-2.11230102E+02
  0
VERTEX
  8
0
 62
6
 10
2.62348321E+02
 20
-2.11111041E+02
  0
VERTEX
  8
0
 62
6
 10
2.62387671E+02
 20
-2.10988135E+02
  0
VERTEX
  8
0
 62
6
 10
2.62415994E+02
 20
-2.10862320E+02
  0
VERTEX
  8
0
 62
6
 10
2.62433074E+02
 20
-2.10734552E+02
  0
VERTEX
  8
0
 62
6
 10
2.62438782E+02
 20
-2.10605805E+02
  0
SEQEND
  8
0
  0
POLYLINE
  8
0
 62
4
 66
1
  0
VERTEX
  8
0
 62
4
 10
2.54938782E+02
 20
-2.10236108E+02
  0
VERTEX
  8
0
 62
4
 10
2.54930922E+02
 20
-2.10062092E+02
  0
VERTEX
  8
0
 62
4
 10
2.54907402E+02
 20
-2.09889444E+02
  0
VERTEX
  8
0
 62
4
 10
2.54868409E+02
 20
-2.09719521E+02
  0
VERTEX
  8
0
 62
4
 10
2.54814248E+02
 20
-2.09553658E+02
  0
VERTEX
  8
0
 62
4
 10
2.54745345E+02
 20
-2.09393160E+02
  0
VERTEX
  8
0
 62
4
 10
2.54662242E+02
 20
-2.09239288E+02
  0
VERTEX
  8
0
 62
4
 10
2.54565592E+02
 20
-2.09093251E+02
  0
VERTEX
  8
0
 62
4
 10
2.54456154E+02
 20
-2.08956197E+02
  0
VERTEX
  8
0
 62
4
 10
2.54334790E+02
 20
-2.08829204E+02
  0
VERTEX
  8
0
 62
4
 10
2.54202452E+02
 20
-2.08713270E+02
  0
VERTEX
  8
0
 62
4
 10
2.54060181E+02
 20
-2.08609306E+02
  0
VERTEX
  8
0
 62
4
 10
2.53909096E+02
 20
-2.08518129E+02
  0
VERTEX
  8
0
 62
4
 10
2.53750384E+02
 20
-2.08440456E+02
  0
VERTEX
  8
0
 62
4
 10
2.53585292E+02
 20
-2.08376897E+02
  0
VERTEX
  8
0
 62
4
 10
2.53415118E+02
 20
-2.08327953E+02
  0
VERTEX
  8
0
 62
4
 10
2.53241200E+02
 20
-2.08294007E+02
  0
VERTEX
  8
0
 62
4
 10
2.53064905E+02
 20
-2.08275327E+02
  0
VERTEX
  8
0
 62
4
 10
2.52887619E+02
 20
-2.08272059E+02
  0
VERTEX
  8
0
 62
4
 10
2.52710735E+02
 20
-2.08284230E+02
  0
VERTEX
  8
0
 62
4
 10
2.52535643E+02
 20
-2.08311743E+02
  0
VERTEX
  8
0
 62
4
 10
2.52363721E+02
 20
-2.08354383E+02
  0
VERTEX
  8
0
 62
4
 10
2.52196318E+02
 20
-2.08411813E+02
  0
VERTEX
  8
0
 62
4
 10
2.52034752E+02
 20
-2.08483583E+02
  0
VERTEX
  8
0
 62
4
 10
2.51880291E+02
 20
-2.08569129E+02
  0
VERTEX
  8
0
 62
4
 10
2.51734151E+02
 20
-2.08667777E+02
  0
VERTEX
  8
0
 62
4
 10
2.51597479E+02
 20
-2.08778754E+02
  0
VERTEX
  8
0
 62
4
 10
2.51471351E+02
 20
-2.08901185E+02
  0
VERTEX
  8
0
 62
4
 10
2.51356757E+02
 20
-2.09034110E+02
  0
VERTEX
  8
0
 62
4
 10
2.51254598E+02
 20
-2.09176483E+02
  0
VERTEX
  8
0
 62
4
 10
2.51165678E+02
 20
-2.09327185E+02
  0
VERTEX
  8
0
 62
4
 10
2.51090695E+02
 20
-2.09485031E+02
  0
VERTEX
  8
0
 62
4
 10
2.51030239E+02
 20
-2.09648781E+02
  0
VERTEX
  8
0
 62
4
 10
2.50984784E+02
 20
-2.09817148E+02
  0
VERTEX
  8
0
 62
4
 10
2.50954689E+02
 20
-2.09988807E+02
  0
VERTEX
  8
0
 62
4
 10
2.50940190E+02
 20
-2.10162411E+02
  0
VERTEX
  8
0
 62
4
 10
2.50941400E+02
 20
-2.10336594E+02
  0
SEQEND
  8
0
  0
POLYLINE
  8
0
 62
4
 66
1
  0
VERTEX
  8
0
 62
4
 10
2.54673782E+02
 20
-2.10610729E+02
  0
VERTEX
  8
0
 62
4
 10
2.54667180E+02
 20
-2.10461811E+02
  0
VERTEX
  8
0
 62
4
 10
2.54647423E+02
 20
-2.10314027E+02
  0
VERTEX
  8
0
 62
4
 10
2.54614663E+02
 20
-2.10168500E+02
  0
VERTEX
  8
0
 62
4
 10
2.54569149E+02
 20
-2.10026339E+02
  0
VERTEX
  8
0
 62
4
 10
2.54511226E+02
 20
-2.09888626E+02
  0
VERTEX
  8
0
 62
4
 10
2.54441336E+02
 20
-2.09756408E+02
  0
VERTEX
  8
0
 62
4
 10
2.54360011E+02
 20
-2.09630693E+02
  0
VERTEX
  8
0
 62
4
 10
2.54267869E+02
 20
-2.09512435E+02
  0
VERTEX
  8
0
 62
4
 10
2.54165612E+02
 20
-2.09402537E+02
  0
VERTEX
  8
0
 62
4
 10
2.54054019E+02
 20
-2.09301834E+02
  0
VERTEX
  8
0
 62
4
 10
2.53933937E+02
 20
-2.09211092E+02
  0
VERTEX
  8
0
 62
4
 10
2.53806282E+02
 20
-2.09131002E+02
  0
VERTEX
  8
0
 62
4
 10
2.53672025E+02
 20
-2.09062174E+02
  0
VERTEX
  8
0
 62
4
 10
2.53532187E+02
 20
-2.09005131E+02
  0
VERTEX
  8
0
 62
4
 10
2.53387833E+02
 20
-2.08960308E+02
  0
VERTEX
  8
0
 62
4
 10
2.53240062E+02
 20
-2.08928046E+02
  0
VERTEX
  8
0
 62
4
 10
2.53089997E+02
 20
-2.08908589E+02
  0
VERTEX
  8
0
 62
4
 10
2.52938782E+02
 20
-2.08902088E+02
  0
VERTEX
  8
0
 62
4
 10
2.52787567E+02
 20
-2.08908589E+02
  0
VERTEX
  8
0
 62
4
 10
2.52637502E+02
 20
-2.08928046E+02
  0
VERTEX
  8
0
 62
4
 10
2.52489731E+02
 20
-2.08960308E+02
  0
VERTEX
  8
0
 62
4
 10
2.52345377E+02
 20
-2.09005131E+02
  0
VERTEX
  8
0
 62
4
 10
2.52205539E+02
 20
-2.09062174E+02
  0
VERTEX
  8
0
 62
4
 10
2.52071282E+02
 20
-2.09131002E+02
  0
VERTEX
  8
0
 62
4
 10
2.51943627E+02
 20
-2.09211092E+02
  0
VERTEX
  8
0
 62
4
 10
2.51823545E+02
 20
-2.09301834E+02
  0
VERTEX
  8
0
 62
4
 10
2.51711952E+02
 20
-2.09402537E+02
  0
VERTEX
  8
0
 62
4
 10
2.51609695E+02
 20
-2.09512435E+02
  0
VERTEX
  8
0
 62
4
 10
2.51517553E+02
 20
-2.09630693E+02
  0
VERTEX
  8
0
 62
4
 10
2.51436228E+02
 20
-2.09756408E+02
  0
VERTEX
  8
0
 62
4
 10
2.51366338E+02
 20
-2.09888626E+02
  0
VERTEX
  8
0
 62
4
 10
2.51308415E+02
 20
-2.10026339E+02
  0
VERTEX
  8
0
 62
4
 10
2.51262901E+02
 20
-2.10168500E+02
  0
VERTEX
  8
0
 62
4
 10
2.51230141E+02
 20
-2.10314027E+02
  0
VERTEX
  8
0
 62
4
 10
2.51210384E+02
 20
-2.10461811E+02
  0
VERTEX
  8
0
 62
4
 10
2.51203782E+02
 20
-2.10610729E+02
  0
VERTEX
  8
0
 62
4
 10
2.51210384E+02
 20
-2.10759647E+02
  0
VERTEX
  8
0
 62
4
 10
2.51230141E+02
 20
-2.10907431E+02
  0
VERTEX
  8
0
 62
4
 10
2.51262901E+02
 20
-2.11052958E+02
  0
VERTEX
  8
0
 62
4
 10
2.51308415E+02
 20
-2.11195119E+02
  0
VERTEX
  8
0
 62
4
 10
2.51366338E+02
 20
-2.11332832E+02
  0
VERTEX
  8
0
 62
4
 10
2.51436228E+02
 20
-2.11465050E+02
  0
VERTEX
  8
0
 62
4
 10
2.51517553E+02
 20
-2.11590765E+02
  0
VERTEX
  8
0
 62
4
 10
2.51609695E+02
 20
-2.11709023E+02
  0
VERTEX
  8
0
 62
4
 10
2.51711952E+02
 20
-2.11818921E+02
  0
VERTEX
  8
0
 62
4
 10
2.51823545E+02
 20
-2.11919624E+02
  0
VERTEX
  8
0
 62
4
 10
2.51943627E+02
 20
-2.12010366E+02
  0
VERTEX
  8
0
 62
4
 10
2.52071282E+02
 20
-2.12090456E+02
  0
VERTEX
  8
0
 62
4
 10
2.52205539E+02
 20
-2.12159284E+02
  0
VERTEX
  8
0
 62
4
 10
2.52345377E+02
 20
-2.12216327E+02
  0
VERTEX
  8
0
 62
4
 10
2.52489731E+02
 20
-2.12261150E+02
  0
VERTEX
  8
0
 62
4
 10
2.52637502E+02
 20
-2.12293412E+02
  0
VERTEX
  8
0
 62
4
 10
2.52787567E+02
 20
-2.12312869E+02
  0
VERTEX
  8
0
 62
4
 10
2.52938782E+02
 20
-2.12319370E+02
  0
VERTEX
  8
0
 62
4
 10
2.53089997E+02
 20
-2.12312869E+02
  0
VERTEX
  8
0
 62
4
 10
2.53240062E+02
 20
-2.12293412E+02
  0
VERTEX
  8
0
 62
4
 10
2.53387833E+02
 20
-2.12261150E+02
  0
VERTEX
  8
0
 62
4
 10
2.53532187E+02
 20
-2.12216327E+02
  0
VERTEX
  8
0
 62
4
 10
2.53672025E+02
 20
-2.12159284E+02
  0
VERTEX
  8
0
 62
4
 10
2.53806282E+02
 20
-2.12090456E+02
  0
VERTEX
  8
0
 62
4
 10
2.53933937E+02
 20
-2.12010366E+02
  0
VERTEX
  8
0
 62
4
 10
2.54054019E+02
 20
-2.11919624E+02
  0
VERTEX
  8
0
 62
4
 10
2.54165612E+02
 20
-2.11818921E+02
  0
VERTEX
  8
0
 62
4
 10
2.54267869E+02
 20
-2.11709023E+02
  0
VERTEX
  8
0
 62
4
 10
2.54360011E+02
 20
-2.11590765E+02
  0
VERTEX
  8
0
 62
4
 10
2.54441336E+02
 20
-2.11465050E+02
  0
VERTEX
  8
0
 62
4
 10
2.54511226E+02
 20
-2.11332832E+02
  0
VERTEX
  8
0
 62
4
 10
2.54569149E+02
 20
-2.11195119E+02
  0
VERTEX
  8
0
 62
4
 10
2.54614663E+02
 20
-2.11052958E+02
  0
VERTEX
  8
0
 62
4
 10
2.54647423E+02
 20
-2.10907431E+02
  0
VERTEX
  8
0
 62
4
 10
2.54667180E+02
 20
-2.10759647E+02
  0
VERTEX
  8
0
 62
4
 10
2.54673782E+02
 20
-2.10610729E+02
  0
SEQEND
  8
0
  0
POLYLINE
  8
0
 62
4
 66
1
  0
VERTEX
  8
0
 62
4
 10
2.54938782E+02
 20
-2.10437081E+02
  0
VERTEX
  8
0
 62
4
 10
2.54931171E+02
 20
-2.10265847E+02
  0
VERTEX
  8
0
 62
4
 10
2.54908398E+02
 20
-2.10095916E+02
  0
VERTEX
  8
0
 62
4
 10
2.54870634E+02
 20
-2.09928581E+02
  0
VERTEX
  8
0
 62
4
 10
2.54818167E+02
 20
-2.09765117E+02
  0
VERTEX
  8
0
 62
4
 10
2.54751398E+02
 20
-2.09606767E+02
  0
VERTEX
  8
0
 62
4
 10
2.54670833E+02
 20
-2.09454735E+02
  0
VERTEX
  8
0
 62
4
 10
2.54577086E+02
 20
-2.09310180E+02
  0
VERTEX
  8
0
 62
4
 10
2.54470871E+02
 20
-2.09174202E+02
  0
VERTEX
  8
0
 62
4
 10
2.54352996E+02
 20
-2.09047834E+02
  0
VERTEX
  8
0
 62
4
 10
2.54224357E+02
 20
-2.08932040E+02
  0
VERTEX
  8
0
 62
4
 10
2.54085935E+02
 20
-2.08827700E+02
  0
VERTEX
  8
0
 62
4
 10
2.53938782E+02
 20
-2.08735608E+02
  0
VERTEX
  8
0
 62
4
 10
2.53784019E+02
 20
-2.08656466E+02
  0
VERTEX
  8
0
 62
4
 10
2.53622822E+02
 20
-2.08590875E+02
  0
VERTEX
  8
0
 62
4
 10
2.53456420E+02
 20
-2.08539335E+02
  0
VERTEX
  8
0
 62
4
 10
2.53286078E+02
 20
-2.08502238E+02
  0
VERTEX
  8
0
 62
4
 10
2.53113093E+02
 20
-2.08479866E+02
  0
VERTEX
  8
0
 62
4
 10
2.52938782E+02
 20
-2.08472390E+02
  0
VERTEX
  8
0
 62
4
 10
2.52764471E+02
 20
-2.08479866E+02
  0
VERTEX
  8
0
 62
4
 10
2.52591486E+02
 20
-2.08502238E+02
  0
VERTEX
  8
0
 62
4
 10
2.52421144E+02
 20
-2.08539335E+02
  0
VERTEX
  8
0
 62
4
 10
2.52254742E+02
 20
-2.08590875E+02
  0
VERTEX
  8
0
 62
4
 10
2.52093545E+02
 20
-2.08656466E+02
  0
VERTEX
  8
0
 62
4
 10
2.51938782E+02
 20
-2.08735608E+02
  0
VERTEX
  8
0
 62
4
 10
2.51791629E+02
 20
-2.08827700E+02
  0
VERTEX
  8
0
 62
4
 10
2.51653207E+02
 20
-2.08932040E+02
  0
VERTEX
  8
0
 62
4
 10
2.51524568E+02
 20
-2.09047834E+02
  0
VERTEX
  8
0
 62
4
 10
2.51406693E+02
 20
-2.09174202E+02
  0
VERTEX
  8
0
 62
4
 10
2.51300478E+02
 20
-2.09310180E+02
  0
VERTEX
  8
0
 62
4
 10
2.51206731E+02
 20
-2.09454735E+02
  0
VERTEX
  8
0
 62
4
 10
2.51126166E+02
 20
-2.09606767E+02
  0
VERTEX
  8
0
 62
4
 10
2.51059397E+02
 20
-2.09765117E+02
  0
VERTEX
  8
0
 62
4
 10
2.51006930E+02
 20
-2.09928581E+02
  0
VERTEX
  8
0
 62
4
 10
2.50969166E+02
 20
-2.10095916E+02
  0
VERTEX
  8
0
 62
4
 10
2.50946393E+02
 20
-2.10265847E+02
  0
VERTEX
  8
0
 62
4
 10
2.50938782E+02
 20
-2.10437081E+02
  0
VERTEX
  8
0
 62
4
 10
2.50946393E+02
 20
-2.10608315E+02
  0
VERTEX
  8
0
 62
4
 10
2.50969166E+02
 20
-2.10778246E+02
  0
VERTEX
  8
0
 62
4
 10
2.51006930E+02
 20
-2.10945581E+02
  0
VERTEX
  8
0
 62
4
 10
2.51059397E+02
 20
-2.11109045E+02
  0
VERTEX
  8
0
 62
4
 10
2.51126166E+02
 20
-2.11267395E+02
  0
VERTEX
  8
0
 62
4
 10
2.51206731E+02
 20
-2.11419427E+02
  0
VERTEX
  8
0
 62
4
 10
2.51300478E+02
 20
-2.11563982E+02
  0
VERTEX
  8
0
 62
4
 10
2.51406693E+02
 20
-2.11699960E+02
  0
VERTEX
  8
0
 62
4
 10
2.51524568E+02
 20
-2.11826328E+02
  0
VERTEX
  8
0
 62
4
 10
2.51653207E+02
 20
-2.11942122E+02
  0
VERTEX
  8
0
 62
4
 10
2.51791629E+02
 20
-2.12046462E+02
  0
VERTEX
  8
0
 62
4
 10
2.51938782E+02
 20
-2.12138554E+02
  0
VERTEX
  8
0
 62
4
 10
2.52093545E+02
 20
-2.12217696E+02
  0
VERTEX
  8
0
 62
4
 10
2.52254742E+02
 20
-2.12283287E+02
  0
VERTEX
  8
0
 62
4
 10
2.52421144E+02
 20
-2.12334827E+02
  0
VERTEX
  8
0
 62
4
 10
2.52591486E+02
 20
-2.12371924E+02
  0
VERTEX
  8
0
 62
4
 10
2.52764471E+02
 20
-2.12394296E+02
  0
VERTEX
  8
0
 62
4
 10
2.52938782E+02
 20
-2.12401772E+02
  0
VERTEX
  8
0
 62
4
 10
2.53113093E+02
 20
-2.12394296E+02
  0
VERTEX
  8
0
 62
4
 10
2.53286078E+02
 20
-2.12371924E+02
  0
VERTEX
  8
0
 62
4
 10
2.53456420E+02
 20
-2.12334827E+02
  0
VERTEX
  8
0
 62
4
 10
2.53622822E+02
 20
-2.12283287E+02
  0
VERTEX
  8
0
 62
4
 10
2.53784019E+02
 20
-2.12217696E+02
  0
VERTEX
  8
0
 62
4
 10
2.53938782E+02
 20
-2.12138554E+02
  0
VERTEX
  8
0
 62
4
 10
2.54085935E+02
 20
-2.12046462E+02
  0
VERTEX
  8
0
 62
4
 10
2.54224357E+02
 20
-2.11942122E+02
  0
VERTEX
  8
0
 62
4
 10
2.54352996E+02
 20
-2.11826328E+02
  0
VERTEX
  8
0
 62
4
 10
2.54470871E+02
 20
-2.11699960E+02
  0
VERTEX
  8
0
 62
4
 10
2.54577086E+02
 20
-2.11563982E+02
  0
VERTEX
  8
0
 62
4
 10
2.54670833E+02
 20
-2.11419427E+02
  0
VERTEX
  8
0
 62
4
 10
2.54751398E+02
 20
-2.11267395E+02
  0
VERTEX
  8
0
 62
4
 10
2.54818167E+02
 20
-2.11109045E+02
  0
VERTEX
  8
0
 62
4
 10
2.54870634E+02
 20
-2.10945581E+02
  0
VERTEX
  8
0
 62
4
 10
2.54908398E+02
 20
-2.10778246E+02
  0
VERTEX
  8
0
 62
4
 10
2.54931171E+02
 20
-2.10608315E+02
  0
VERTEX
  8
0
 62
4
 10
2.54938782E+02
 20
-2.10437081E+02
  0
SEQEND
  8
0
  0
POLYLINE
  8
0
 62
6
 66
1
  0
VERTEX
  8
0
 62
6
 10
2.54438782E+02
 20
-2.10605805E+02
  0
VERTEX
  8
0
 62
6
 10
2.54433074E+02
 20
-2.10477058E+02
  0
VERTEX
  8
0
 62
6
 10
2.54415994E+02
 20
-2.10349290E+02
  0
VERTEX
  8
0
 62
6
 10
2.54387671E+02
 20
-2.10223474E+02
  0
VERTEX
  8
0
 62
6
 10
2.54348321E+02
 20
-2.10100569E+02
  0
VERTEX
  8
0
 62
6
 10
2.54298244E+02
 20
-2.09981508E+02
  0
VERTEX
  8
0
 62
6
 10
2.54237820E+02
 20
-2.09867199E+02
  0
VERTEX
  8
0
 62
6
 10
2.54167510E+02
 20
-2.09758511E+02
  0
VERTEX
  8
0
 62
6
 10
2.54087849E+02
 20
-2.09656272E+02
  0
VERTEX
  8
0
 62
6
 10
2.53999442E+02
 20
-2.09561259E+02
  0
VERTEX
  8
0
 62
6
 10
2.53902963E+02
 20
-2.09474195E+02
  0
VERTEX
  8
0
 62
6
 10
2.53799147E+02
 20
-2.09395744E+02
  0
VERTEX
  8
0
 62
6
 10
2.53688782E+02
 20
-2.09326502E+02
  0
VERTEX
  8
0
 62
6
 10
2.53572709E+02
 20
-2.09266997E+02
  0
VERTEX
  8
0
 62
6
 10
2.53451812E+02
 20
-2.09217680E+02
  0
VERTEX
  8
0
 62
6
 10
2.53327011E+02
 20
-2.09178928E+02
  0
VERTEX
  8
0
 62
6
 10
2.53199254E+02
 20
-2.09151036E+02
  0
VERTEX
  8
0
 62
6
 10
2.53069516E+02
 20
-2.09134215E+02
  0
VERTEX
  8
0
 62
6
 10
2.52938782E+02
 20
-2.09128593E+02
  0
VERTEX
  8
0
 62
6
 10
2.52808048E+02
 20
-2.09134215E+02
  0
VERTEX
  8
0
 62
6
 10
2.52678310E+02
 20
-2.09151036E+02
  0
VERTEX
  8
0
 62
6
 10
2.52550553E+02
 20
-2.09178928E+02
  0
VERTEX
  8
0
 62
6
 10
2.52425752E+02
 20
-2.09217680E+02
  0
VERTEX
  8
0
 62
6
 10
2.52304855E+02
 20
-2.09266997E+02
  0
VERTEX
  8
0
 62
6
 10
2.52188782E+02
 20
-2.09326502E+02
  0
VERTEX
  8
0
 62
6
 10
2.52078417E+02
 20
-2.09395744E+02
  0
VERTEX
  8
0
 62
6
 10
2.51974601E+02
 20
-2.09474195E+02
  0
VERTEX
  8
0
 62
6
 10
2.51878122E+02
 20
-2.09561259E+02
  0
VERTEX
  8
0
 62
6
 10
2.51789715E+02
 20
-2.09656272E+02
  0
VERTEX
  8
0
 62
6
 10
2.51710054E+02
 20
-2.09758511E+02
  0
VERTEX
  8
0
 62
6
 10
2.51639744E+02
 20
-2.09867199E+02
  0
VERTEX
  8
0
 62
6
 10
2.51579320E+02
 20
-2.09981508E+02
  0
VERTEX
  8
0
 62
6
 10
2.51529243E+02
 20
-2.10100569E+02
  0
VERTEX
  8
0
 62
6
 10
2.51489893E+02
 20
-2.10223474E+02
  0
VERTEX
  8
0
 62
6
 10
2.51461570E+02
 20
-2.10349290E+02
  0
VERTEX
  8
0
 62
6
 10
2.51444490E+02
 20
-2.10477058E+02
  0
VERTEX
  8
0
 62
6
 10
2.51438782E+02
 20
-2.10605805E+02
  0
VERTEX
  8
0
 62
6
 10
2.51444490E+02
 20
-2.10734552E+02
  0
VERTEX
  8
0
 62
6
 10
2.51461570E+02
 20
-2.10862320E+02
  0
VERTEX
  8
0
 62
6
 10
2.51489893E+02
 20
-2.10988136E+02
  0
VERTEX
  8
0
 62
6
 10
2.51529243E+02
 20
-2.11111041E+02
  0
VERTEX
  8
0
 62
6
 10
2.51579320E+02
 20
-2.11230102E+02
  0
VERTEX
  8
0
 62
6
 10
2.51639744E+02
 20
-2.11344411E+02
  0
VERTEX
  8
0
 62
6
 10
2.51710054E+02
 20
-2.11453099E+02
  0
VERTEX
  8
0
 62
6
 10
2.51789715E+02
 20
-2.11555338E+02
  0
VERTEX
  8
0
 62
6
 10
2.51878122E+02
 20
-2.11650351E+02
  0
VERTEX
  8
0
 62
6
 10
2.51974601E+02
 20
-2.11737415E+02
  0
VERTEX
  8
0
 62
6
 10
2.52078417E+02
 20
-2.11815866E+02
  0
VERTEX
  8
0
 62
6
 10
2.52188782E+02
 20
-2.11885108E+02
  0
VERTEX
  8
0
 62
6
 10
2.52304855E+02
 20
-2.11944613E+02
  0
VERTEX
  8
0
 62
6
 10
2.52425752E+02
 20
-2.11993930E+02
  0
VERTEX
  8
0
 62
6
 10
2.52550553E+02
 20
-2.12032682E+02
  0
VERTEX
  8
0
 62
6
 10
2.52678310E+02
 20
-2.12060574E+02
  0
VERTEX
  8
0
 62
6
 10
2.52808048E+02
 20
-2.12077395E+02
  0
VERTEX
  8
0
 62
6
 10
2.52938782E+02
 20
-2.12083017E+02
  0
VERTEX
  8
0
 62
6
 10
2.53069516E+02
 20
-2.12077395E+02
  0
VERTEX
  8
0
 62
6
 10
2.53199254E+02
 20
-2.12060574E+02
  0
VERTEX
  8
0
 62
6
 10
2.53327011E+02
 20
-2.12032682E+02
  0
VERTEX
  8
0
 62
6
 10
2.53451812E+02
 20
-2.11993930E+02
  0
VERTEX
  8
0
 62
6
 10
2.53572709E+02
 20
-2.11944613E+02
  0
VERTEX
  8
0
 62
6
 10
2.53688782E+02
 20
-2.11885108E+02
  0
VERTEX
  8
0
 62
6
 10
2.53799147E+02
 20
-2.11815866E+02
  0
VERTEX
  8
0
 62
6
 10
2.53902963E+02
 20
-2.11737415E+02
  0
VERTEX
  8
0
 62
6
 10
2.53999442E+02
 20
-2.11650351E+02
  0
VERTEX
  8
0
 62
6
 10
2.54087849E+02
 20
-2.11555338E+02
  0
VERTEX
  8
0
 62
6
 10
2.54167510E+02
 20
-2.11453099E+02
  0
VERTEX
  8
0
 62
6
 10
2.54237820E+02
 20
-2.11344411E+02
  0
VERTEX
  8
0
 62
6
 10
2.54298244E+02
 20
-2.11230102E+02
  0
VERTEX
  8
0
 62
6
 10
2.54348321E+02
 20
-2.11111041E+02
  0
VERTEX
  8
0
 62
6
 10
2.54387671E+02
 20
-2.10988135E+02
  0
VERTEX
  8
0
 62
6
 10
2.54415994E+02
 20
-2.10862320E+02
  0
VERTEX
  8
0
 62
6
 10
2.54433074E+02
 20
-2.10734552E+02
  0
VERTEX
  8
0
 62
6
 10
2.54438782E+02
 20
-2.10605805E+02
  0
SEQEND
  8
0
  0
LINE
  8
0
 62
4
 10
2.32938782E+02
 20
-2.03091046E+02
 11
2.32938782E+02
 21
-2.04407727E+02
  0
LINE
  8
0
 62
4
 10
2.65938782E+02
 20
-2.03091046E+02
 11
2.65938782E+02
 21
-2.04407727E+02
  0
LINE
  8
0
 62
4
 10
2.65938782E+02
 20
-2.03094210E+02
 11
2.68938782E+02
 21
-1.99675924E+02
  0
LINE
  8
0
 62
4
 10
2.32938782E+02
 20
-2.03094210E+02
 11
2.29938782E+02
 21
-1.99675924E+02
  0
LINE
  8
0
  6
CENTER
 62
6
 10
2.60938782E+02
 20
-2.05612482E+02
 11
2.60938782E+02
 21
-2.15602482E+02
  0
LINE
  8
0
 62
4
 10
2.64438782E+02
 20
-1.79195188E+02
 11
2.49438782E+02
 21
-1.79195188E+02
  0
LINE
  8
0
 62
4
 10
2.63368947E+02
 20
-2.05035134E+02
 11
2.50260375E+02
 21
-2.05035134E+02
  0
LINE
  8
0
 62
4
 10
2.64438782E+02
 20
-1.52955079E+02
 11
2.49438782E+02
 21
-1.52955079E+02
  0
LINE
  8
0
 62
4
 10
2.49438782E+02
 20
-1.89070861E+02
 11
2.64438782E+02
 21
-1.89070861E+02
  0
LINE
  8
0
 62
4
 10
2.49438782E+02
 20
-2.15411395E+02
 11
2.64438782E+02
 21
-2.15411395E+02
  0
LINE
  8
0
 62
4
 10
2.64438782E+02
 20
-1.89070861E+02
 11
2.64438782E+02
 21
-2.15411395E+02
  0
LINE
  8
0
 62
4
 10
2.49438782E+02
 20
-1.89070861E+02
 11
2.49438782E+02
 21
-2.15411395E+02
  0
LINE
  8
0
  6
CENTER
 62
6
 10
2.52938782E+02
 20
-2.05612482E+02
 11
2.52938782E+02
 21
-2.15602482E+02
  0
LINE
  8
0
  6
CENTER
 62
6
 10
2.47938782E+02
 20
-2.10605805E+02
 11
2.65938782E+02
 21
-2.10605805E+02
  0
LINE
  8
0
 62
4
 10
2.77438782E+02
 20
-1.54415166E+02
 11
2.73938782E+02
 21
-1.54415166E+02
  0
LINE
  8
0
 62
4
 10
2.67438782E+02
 20
-1.84466523E+02
 11
2.31438782E+02
 21
-1.84466523E+02
  0
LINE
  8
0
 62
4
 10
2.83938782E+02
 20
-1.57601971E+02
 11
2.78938782E+02
 21
-1.57601971E+02
  0
LINE
  8
0
 62
4
 10
2.83938782E+02
 20
-1.64997877E+02
 11
2.78938782E+02
 21
-1.64997877E+02
  0
LINE
  8
0
 62
4
 10
2.64438782E+02
 20
-1.53165166E+02
 11
2.73438782E+02
 21
-1.53165166E+02
  0
LINE
  8
0
 62
4
 10
2.73938782E+02
 20
-1.53668308E+02
 11
2.73938782E+02
 21
-1.66668308E+02
  0
LINE
  8
0
 62
4
 10
2.83938782E+02
 20
-1.52780229E+02
 11
2.83938782E+02
 21
-1.67562193E+02
  0
LINE
  8
0
 62
4
 10
2.78938782E+02
 20
-1.52780229E+02
 11
2.78938782E+02
 21
-1.67562193E+02
  0
LINE
  8
0
 62
4
 10
2.78938782E+02
 20
-1.53915166E+02
 11
2.73938782E+02
 21
-1.53915166E+02
  0
LINE
  8
0
 62
4
 10
2.78938782E+02
 20
-1.66415166E+02
 11
2.73938782E+02
 21
-1.66415166E+02
  0
LINE
  8
0
 62
4
 10
2.77438782E+02
 20
-1.53915166E+02
 11
2.77438782E+02
 21
-1.66415166E+02
  0
LINE
  8
0
 62
4
 10
2.77438782E+02
 20
-1.65915166E+02
 11
2.73938782E+02
 21
-1.65915166E+02
  0
LINE
  8
0
 62
4
 10
2.73438782E+02
 20
-1.67165166E+02
 11
2.64938782E+02
 21
-1.67165166E+02
  0
LINE
  8
0
 62
4
 10
2.49438782E+02
 20
-2.03091046E+02
 11
2.32938782E+02
 21
-2.03091046E+02
  0
LINE
  8
0
 62
4
 10
2.83938782E+02
 20
-1.67562193E+02
 11
2.78938782E+02
 21
-1.67562193E+02
  0
LINE
  8
0
 62
4
 10
2.49438782E+02
 20
-1.99672760E+02
 11
2.29938782E+02
 21
-1.99672760E+02
  0
LINE
  8
0
 62
4
 10
2.49438782E+02
 20
-1.98195548E+02
 11
2.29938782E+02
 21
-1.98195548E+02
  0
LINE
  8
0
 62
4
 10
2.64438782E+02
 20
-1.55559802E+02
 11
2.49438782E+02
 21
-1.55559802E+02
  0
LINE
  8
0
 62
4
 10
2.66438782E+02
 20
-1.80527292E+02
 11
2.47438782E+02
 21
-1.80527292E+02
  0
LINE
  8
0
 62
4
 10
2.68938782E+02
 20
-1.82629071E+02
 11
2.68938782E+02
 21
-1.99672760E+02
  0
LINE
  8
0
 62
4
 10
2.68938782E+02
 20
-1.99672760E+02
 11
2.64438782E+02
 21
-1.99672760E+02
  0
LINE
  8
0
 62
4
 10
2.68938782E+02
 20
-1.98195548E+02
 11
2.64438782E+02
 21
-1.98195548E+02
  0
LINE
  8
0
 62
4
 10
2.66438782E+02
 20
-1.80527292E+02
 11
2.66438782E+02
 21
-1.84466523E+02
  0
LINE
  8
0
 62
4
 10
2.49438782E+02
 20
-1.52955079E+02
 11
2.49438782E+02
 21
-1.80527292E+02
  0
LINE
  8
0
 62
4
 10
2.64438782E+02
 20
-1.52955079E+02
 11
2.64438782E+02
 21
-1.80527292E+02
  0
LINE
  8
0
 62
4
 10
2.47438782E+02
 20
-1.80527292E+02
 11
2.47438782E+02
 21
-1.84466523E+02
  0
LINE
  8
0
 62
4
 10
2.29938782E+02
 20
-1.82629071E+02
 11
2.29938782E+02
 21
-1.99672760E+02
  0
LINE
  8
0
 62
4
 10
2.65938782E+02
 20
-2.03091046E+02
 11
2.64438782E+02
 21
-2.03091046E+02
  0
ARC
  8
0
 62
4
 10
2.73439281E+02
 20
-1.53664666E+02
 40
4.99500622E-01
 50
3.59942689E+02
 51
9.00573103E+01
  0
ARC
  8
0
 62
4
 10
2.64938282E+02
 20
-1.67664666E+02
 40
4.99500622E-01
 50
8.99426895E+01
 51
1.80057310E+02
  0
ARC
  8
0
 62
4
 10
2.31438282E+02
 20
-1.85966023E+02
 40
1.49950029E+00
 50
8.99809029E+01
 51
1.80019097E+02
  0
ARC
  8
0
 62
4
 10
2.73438282E+02
 20
-1.66664666E+02
 40
5.00500378E-01
 50
2.70057253E+02
 51
3.59942747E+02
  0
ARC
  8
0
 62
4
 10
2.67439282E+02
 20
-1.85966023E+02
 40
1.49950029E+00
 50
3.59980903E+02
 51
9.00190969E+01
  0
CIRCLE
  8
0
 62
7
 10
6.30943909E+01
 20
-2.07057736E+02
 40
2.45850000E+00
  0
CIRCLE
  8
0
 62
7
 10
1.10094360E+02
 20
-2.07057706E+02
 40
2.45850000E+00
  0
CIRCLE
  8
0
 62
7
 10
-2.76249969E+02
 20
-2.07057736E+02
 40
2.45850000E+00
  0
CIRCLE
  8
0
 62
7
 10
-2.29250000E+02
 20
-2.07057706E+02
 40
2.45850000E+00
  0
LINE
  8
0
 62
2
 10
1.83875739E+02
 20
-2.34690652E+02
 11
2.03381388E+02
 21
-2.00905878E+02
  0
LINE
  8
0
 62
2
 10
-1.16361521E+01
 20
-2.34690652E+02
 11
7.86949604E+00
 21
-2.00905878E+02
  0
LINE
  8
0
 62
7
 10
3.40438751E+02
 20
-2.21557706E+02
 11
3.31438751E+02
 21
-2.21557706E+02
  0
LINE
  8
0
 62
2
 10
3.40438751E+02
 20
-2.22377713E+02
 11
3.31438751E+02
 21
-2.22377713E+02
  0
LINE
  8
0
 62
2
 10
-1.32249969E+02
 20
-2.22377713E+02
 11
-1.23249969E+02
 21
-2.22377713E+02
  0
LINE
  8
0
 62
7
 10
-1.32249969E+02
 20
-2.21557706E+02
 11
-1.23249969E+02
 21
-2.21557706E+02
  0
LINE
  8
0
 62
2
 10
-1.32249969E+02
 20
-9.37376982E+01
 11
-1.23249969E+02
 21
-9.37376982E+01
  0
LINE
  8
0
 62
7
 10
-1.32249969E+02
 20
-9.45577056E+01
 11
-1.23249969E+02
 21
-9.45577056E+01
  0
LINE
  8
0
 62
2
 10
-1.32249969E+02
 20
-7.73777129E+01
 11
-1.23249969E+02
 21
-7.73777129E+01
  0
LINE
  8
0
 62
7
 10
-1.32249969E+02
 20
-7.65577056E+01
 11
-1.23249969E+02
 21
-7.65577056E+01
  0
LINE
  8
0
 62
4
 10
3.50232980E+02
 20
-2.22763477E+02
 11
3.41644523E+02
 21
-2.22763477E+02
  0
ARC
  8
0
 62
4
 10
3.25644523E+02
 20
-2.30557706E+02
 40
2.57942282E+01
 50
2.03555500E-13
 51
1.75879541E+01
  0
ARC
  8
0
 62
4
 10
3.66232979E+02
 20
-2.30557706E+02
 40
2.57942282E+01
 50
1.62412046E+02
 51
1.80000000E+02
  0
LINE
  8
0
 62
4
 10
3.50232980E+02
 20
-2.14969248E+02
 11
3.41644523E+02
 21
-2.14969248E+02
  0
LINE
  8
0
 62
4
 10
3.50232980E+02
 20
-2.14969248E+02
 11
3.51438751E+02
 21
-2.17057706E+02
  0
LINE
  8
0
 62
4
 10
3.41644523E+02
 20
-2.14969248E+02
 11
3.40438751E+02
 21
-2.17057706E+02
  0
LINE
  8
0
 62
4
 10
3.40438751E+02
 20
-2.30557706E+02
 11
3.40438751E+02
 21
-2.17057706E+02
  0
LINE
  8
0
 62
4
 10
3.51438751E+02
 20
-2.30557706E+02
 11
3.51438751E+02
 21
-2.17057706E+02
  0
ARC
  8
0
 62
4
 10
3.47339473E+02
 20
-2.18866363E+02
 40
6.90072132E+00
 50
1.45615752E+02
 51
2.14384248E+02
  0
ARC
  8
0
 62
4
 10
3.44538030E+02
 20
-2.18866363E+02
 40
6.90072132E+00
 50
3.25615752E+02
 51
3.43842480E+01
  0
LINE
  8
0
 62
4
 10
-2.39249969E+02
 20
-2.30557706E+02
 11
-2.39249969E+02
 21
-2.22763477E+02
  0
LINE
  8
0
 62
4
 10
-2.66249969E+02
 20
-2.22763477E+02
 11
-2.66249969E+02
 21
-2.30557706E+02
  0
LINE
  8
0
 62
4
 10
-2.52749969E+02
 20
-2.14969248E+02
 11
-2.66249969E+02
 21
-2.22763477E+02
  0
ARC
  8
0
 62
4
 10
-2.52749969E+02
 20
-2.30557706E+02
 40
1.35000000E+01
 50
0.00000000E+00
 51
1.80000000E+02
  0
LINE
  8
0
 62
4
 10
-2.39249969E+02
 20
-2.22763477E+02
 11
-2.52749969E+02
 21
-2.14969248E+02
  0
ARC
  8
0
 62
4
 10
-1.17455741E+02
 20
-2.30557706E+02
 40
2.57942282E+01
 50
1.62412046E+02
 51
1.80000000E+02
  0
ARC
  8
0
 62
4
 10
-1.58044198E+02
 20
-2.30557706E+02
 40
2.57942282E+01
 50
2.54444375E-13
 51
1.75879541E+01
  0
LINE
  8
0
 62
4
 10
-1.42044198E+02
 20
-2.22763477E+02
 11
-1.33455741E+02
 21
-2.22763477E+02
  0
LINE
  8
0
 62
4
 10
-1.42044198E+02
 20
-2.14969248E+02
 11
-1.33455741E+02
 21
-2.14969248E+02
  0
LINE
  8
0
 62
4
 10
-1.42044198E+02
 20
-2.14969248E+02
 11
-1.43249969E+02
 21
-2.17057706E+02
  0
LINE
  8
0
 62
4
 10
-1.33455741E+02
 20
-2.14969248E+02
 11
-1.32249969E+02
 21
-2.17057706E+02
  0
LINE
  8
0
 62
4
 10
-1.32249969E+02
 20
-2.30557706E+02
 11
-1.32249969E+02
 21
-2.17057706E+02
  0
LINE
  8
0
 62
4
 10
-1.43249969E+02
 20
-2.30557706E+02
 11
-1.43249969E+02
 21
-2.17057706E+02
  0
ARC
  8
0
 62
4
 10
-1.39150691E+02
 20
-2.18866363E+02
 40
6.90072132E+00
 50
3.25615752E+02
 51
3.43842480E+01
  0
ARC
  8
0
 62
4
 10
-1.36349248E+02
 20
-2.18866363E+02
 40
6.90072132E+00
 50
1.45615752E+02
 51
2.14384248E+02
  0
LINE
  8
0
 62
4
 10
-1.33455741E+02
 20
-8.55577056E+01
 11
-1.42044198E+02
 21
-8.55577056E+01
  0
LINE
  8
0
 62
4
 10
-1.32249969E+02
 20
-9.90577056E+01
 11
-1.43249969E+02
 21
-9.90577056E+01
  0
ARC
  8
0
 62
4
 10
-1.51746362E+02
 20
-9.23077056E+01
 40
1.94963929E+01
 50
3.39743842E+02
 51
2.02561580E+01
  0
ARC
  8
0
 62
4
 10
-1.23753577E+02
 20
-9.23077056E+01
 40
1.94963929E+01
 50
1.59743842E+02
 51
2.00256158E+02
  0
LINE
  8
0
 62
4
 10
-1.32249969E+02
 20
-7.20577056E+01
 11
-1.43249969E+02
 21
-7.20577056E+01
  0
ARC
  8
0
 62
4
 10
-1.51746362E+02
 20
-7.88077056E+01
 40
1.94963929E+01
 50
3.39743842E+02
 51
2.02561580E+01
  0
ARC
  8
0
 62
4
 10
-1.23753577E+02
 20
-7.88077056E+01
 40
1.94963929E+01
 50
1.59743842E+02
 51
2.00256158E+02
  0
LINE
  8
0
 62
4
 10
-1.43249969E+02
 20
-7.20577056E+01
 11
-1.43249969E+02
 21
-9.90577056E+01
  0
LINE
  8
0
 62
4
 10
-1.32249969E+02
 20
-7.20577056E+01
 11
-1.32249969E+02
 21
-9.90577056E+01
  0
TEXT
  8
0
 62
7
 10
-3.47600562E+02
 20
2.28100000E+02
 40
6.30000019E+00
  1
DDAH50*75
 41
1.00000015E+00
  7
MONOTXT
  0
LINE
  8
0
 62
7
 10
-2.24530931E+02
 20
-3.53863052E+00
 11
1.78669069E+02
 21
-3.53863052E+00
  0
LINE
  8
0
 62
7
 10
-2.24530931E+02
 20
-1.35386305E+01
 11
-2.24530931E+02
 21
6.46136947E+00
  0
LINE
  8
0
 62
7
 10
-2.24530931E+02
 20
6.46136948E+00
 11
1.78669069E+02
 21
6.46136948E+00
  0
LINE
  8
0
 62
7
 10
-2.24530931E+02
 20
-1.35386305E+01
 11
1.78669069E+02
 21
-1.35386305E+01
  0
LINE
  8
0
 62
7
 10
-1.74130931E+02
 20
-1.35386305E+01
 11
-1.74130931E+02
 21
6.46136947E+00
  0
LINE
  8
0
 62
7
 10
-1.48930931E+02
 20
-1.35386305E+01
 11
-1.48930931E+02
 21
6.46136947E+00
  0
LINE
  8
0
 62
7
 10
-1.23730931E+02
 20
-1.35386305E+01
 11
-1.23730931E+02
 21
6.46136947E+00
  0
LINE
  8
0
 62
7
 10
-9.85309313E+01
 20
-1.35386305E+01
 11
-9.85309313E+01
 21
6.46136947E+00
  0
LINE
  8
0
 62
7
 10
-7.33309313E+01
 20
-1.35386305E+01
 11
-7.33309313E+01
 21
6.46136947E+00
  0
LINE
  8
0
 62
7
 10
-4.81309313E+01
 20
-1.35386305E+01
 11
-4.81309313E+01
 21
6.46136947E+00
  0
LINE
  8
0
 62
7
 10
-2.29309313E+01
 20
-1.35386305E+01
 11
-2.29309313E+01
 21
6.46136947E+00
  0
LINE
  8
0
 62
7
 10
2.26906872E+00
 20
-1.35386305E+01
 11
2.26906872E+00
 21
6.46136947E+00
  0
LINE
  8
0
 62
7
 10
2.74690687E+01
 20
-1.35386305E+01
 11
2.74690687E+01
 21
6.46136947E+00
  0
LINE
  8
0
 62
7
 10
5.26690687E+01
 20
-1.35386305E+01
 11
5.26690687E+01
 21
6.46136947E+00
  0
LINE
  8
0
 62
7
 10
7.78690687E+01
 20
-1.35386305E+01
 11
7.78690687E+01
 21
6.46136947E+00
  0
LINE
  8
0
 62
7
 10
1.03069069E+02
 20
-1.35386305E+01
 11
1.03069069E+02
 21
6.46136947E+00
  0
LINE
  8
0
 62
7
 10
1.28269069E+02
 20
-1.35386305E+01
 11
1.28269069E+02
 21
6.46136947E+00
  0
LINE
  8
0
 62
7
 10
1.53469069E+02
 20
-1.35386305E+01
 11
1.53469069E+02
 21
6.46136947E+00
  0
TEXT
  8
0
 62
7
 10
-1.67141868E+02
 20
-1.68863062E+00
 40
6.30000019E+00
  1
50
 41
1.00000000E+00
  7
MONOTXT
  0
TEXT
  8
0
 62
7
 10
-1.70291869E+02
 20
-1.16886306E+01
 40
6.30000019E+00
  1
-25
 41
1.00000000E+00
  7
MONOTXT
  0
TEXT
  8
0
 62
7
 10
-2.17541869E+02
 20
-1.68863062E+00
 40
6.30000019E+00
  1
STROKE
 41
1.00000000E+00
  7
MONOTXT
  0
TEXT
  8
0
 62
7
 10
-2.20691869E+02
 20
-1.16886306E+01
 40
6.30000019E+00
  1
STRETCH
 41
1.00000000E+00
  7
MONOTXT
  0
TEXT
  8
0
 62
7
 10
-1.41941868E+02
 20
-1.68863062E+00
 40
6.30000019E+00
  1
75
 41
1.00000000E+00
  7
MONOTXT
  0
TEXT
  8
0
 62
7
 10
-1.38791868E+02
 20
-1.16886306E+01
 40
6.30000019E+00
  1
0
 41
1.00000000E+00
  7
MONOTXT
  0
TEXT
  8
0
 62
7
 10
-1.19891869E+02
 20
-1.68863062E+00
 40
6.30000019E+00
  1
100
 41
1.00000000E+00
  7
MONOTXT
  0
TEXT
  8
0
 62
7
 10
-1.16741868E+02
 20
-1.16886306E+01
 40
6.30000019E+00
  1
25
 41
1.00000000E+00
  7
MONOTXT
  0
TEXT
  8
0
 62
7
 10
-9.46918690E+01
 20
-1.68863062E+00
 40
6.30000019E+00
  1
150
 41
1.00000000E+00
  7
MONOTXT
  0
TEXT
  8
0
 62
7
 10
-9.15418689E+01
 20
-1.16886306E+01
 40
6.30000019E+00
  1
75
 41
1.00000000E+00
  7
MONOTXT
  0
TEXT
  8
0
 62
7
 10
-6.94918690E+01
 20
-1.68863062E+00
 40
6.30000019E+00
  1
200
 41
1.00000000E+00
  7
MONOTXT
  0
TEXT
  8
0
 62
7
 10
-6.94918690E+01
 20
-1.16886306E+01
 40
6.30000019E+00
  1
125
 41
1.00000000E+00
  7
MONOTXT
  0
TEXT
  8
0
 62
7
 10
-4.42918690E+01
 20
-1.68863062E+00
 40
6.30000019E+00
  1
250
 41
1.00000000E+00
  7
MONOTXT
  0
TEXT
  8
0
 62
7
 10
-4.42918690E+01
 20
-1.16886306E+01
 40
6.30000019E+00
  1
175
 41
1.00000000E+00
  7
MONOTXT
  0
TEXT
  8
0
 62
7
 10
-1.90918690E+01
 20
-1.68863062E+00
 40
6.30000019E+00
  1
300
 41
1.00000000E+00
  7
MONOTXT
  0
TEXT
  8
0
 62
7
 10
-1.90918690E+01
 20
-1.16886306E+01
 40
6.30000019E+00
  1
225
 41
1.00000000E+00
  7
MONOTXT
  0
TEXT
  8
0
 62
7
 10
6.10813103E+00
 20
-1.68863062E+00
 40
6.30000019E+00
  1
350
 41
1.00000000E+00
  7
MONOTXT
  0
TEXT
  8
0
 62
7
 10
6.10813103E+00
 20
-1.16886306E+01
 40
6.30000019E+00
  1
275
 41
1.00000000E+00
  7
MONOTXT
  0
TEXT
  8
0
 62
7
 10
3.13081310E+01
 20
-1.68863062E+00
 40
6.30000019E+00
  1
400
 41
1.00000000E+00
  7
MONOTXT
  0
TEXT
  8
0
 62
7
 10
3.13081310E+01
 20
-1.16886306E+01
 40
6.30000019E+00
  1
325
 41
1.00000000E+00
  7
MONOTXT
  0
TEXT
  8
0
 62
7
 10
5.65081310E+01
 20
-1.68863062E+00
 40
6.30000019E+00
  1
450
 41
1.00000000E+00
  7
MONOTXT
  0
TEXT
  8
0
 62
7
 10
5.65081310E+01
 20
-1.16886306E+01
 40
6.30000019E+00
  1
375
 41
1.00000000E+00
  7
MONOTXT
  0
TEXT
  8
0
 62
7
 10
8.17081310E+01
 20
-1.68863062E+00
 40
6.30000019E+00
  1
500
 41
1.00000000E+00
  7
MONOTXT
  0
TEXT
  8
0
 62
7
 10
8.17081310E+01
 20
-1.16886306E+01
 40
6.30000019E+00
  1
425
 41
1.00000000E+00
  7
MONOTXT
  0
TEXT
  8
0
 62
7
 10
1.06908131E+02
 20
-1.68863062E+00
 40
6.30000019E+00
  1
600
 41
1.00000000E+00
  7
MONOTXT
  0
TEXT
  8
0
 62
7
 10
1.06908131E+02
 20
-1.16886306E+01
 40
6.30000019E+00
  1
525
 41
1.00000000E+00
  7
MONOTXT
  0
TEXT
  8
0
 62
7
 10
1.32108131E+02
 20
-1.68863062E+00
 40
6.30000019E+00
  1
700
 41
1.00000000E+00
  7
MONOTXT
  0
TEXT
  8
0
 62
7
 10
1.32108131E+02
 20
-1.16886306E+01
 40
6.30000019E+00
  1
625
 41
1.00000000E+00
  7
MONOTXT
  0
TEXT
  8
0
 62
7
 10
-6.00418698E+01
 20
1.03113694E+01
 40
6.30000019E+00
  1
STRETCH LIST
 41
1.05263158E+00
  7
MONOTXT
  0
TEXT
  8
0
 62
7
 10
1.52758131E+02
 20
1.03113694E+01
 40
6.30000019E+00
  1
(mm)
 41
1.00000000E+00
  7
MONOTXT
  0
LINE
  8
0
 62
7
 10
1.78669069E+02
 20
-1.35386305E+01
 11
1.78669069E+02
 21
6.46136947E+00
  0
TEXT
  8
0
 62
7
 10
1.57308131E+02
 20
-1.68863062E+00
 40
6.30000019E+00
  1
800
 41
1.00000000E+00
  7
MONOTXT
  0
TEXT
  8
0
 62
7
 10
1.57308131E+02
 20
-1.16886306E+01
 40
6.30000019E+00
  1
725
 41
1.00000000E+00
  7
MONOTXT
  0
TEXT
  8
0
 10
-4.61502877E+01
 20
2.44478397E+02
 40
6.30000019E+00
  1
STRETCH LINE
 41
1.05263174E+00
  7
MONOTXT
  0
LINE
  8
0
 62
7
 10
-6.42500000E+01
 20
-8.07434245E+01
 11
-6.42500000E+01
 21
-1.16583925E+02
  0
LINE
  8
0
  6
CENTER
 62
2
 10
2.64438782E+02
 20
-2.07057721E+02
 11
3.11042236E+02
 21
-2.07057721E+02
  0
LINE
  8
0
 62
2
 10
-1.51569916E+02
 20
-9.37376982E+01
 11
-1.43249969E+02
 21
-9.37376982E+01
  0
LINE
  8
0
 62
7
 10
-1.50749908E+02
 20
-9.45577056E+01
 11
-1.43249969E+02
 21
-9.45577056E+01
  0
LINE
  8
0
 62
2
 10
-1.51569916E+02
 20
-7.73777129E+01
 11
-1.43249969E+02
 21
-7.73777129E+01
  0
LINE
  8
0
 62
7
 10
-1.50749908E+02
 20
-7.65577056E+01
 11
-1.43249969E+02
 21
-7.65577056E+01
  0
LINE
  8
0
  6
CENTER
 62
2
 10
-1.55283264E+02
 20
-8.55577056E+01
 11
-6.07499945E+01
 21
-8.55577056E+01
  0
LINE
  8
0
 62
7
 10
-9.72499847E+01
 20
-6.70577056E+01
 11
-9.72499847E+01
 21
-1.04057675E+02
  0
LINE
  8
0
 62
7
 10
-1.05249985E+02
 20
-6.85576750E+01
 11
-1.05249985E+02
 21
-1.02557675E+02
  0
LINE
  8
0
 62
7
 10
-9.67500000E+01
 20
-6.65577056E+01
 11
-9.52500000E+01
 21
-6.65577056E+01
  0
LINE
  8
0
 62
7
 10
-1.09750000E+02
 20
-6.85577056E+01
 11
-1.05241455E+02
 21
-6.85577056E+01
  0
LINE
  8
0
 62
7
 10
-1.05250000E+02
 20
-6.85577056E+01
 11
-1.05250000E+02
 21
-6.85491606E+01
  0
LINE
  8
0
 62
7
 10
-1.05008727E+02
 20
-6.82991174E+01
 11
-9.72500282E+01
 21
-6.80281776E+01
  0
LINE
  8
0
 62
7
 10
-1.10250000E+02
 20
-6.90577361E+01
 11
-1.10250000E+02
 21
-1.02057675E+02
  0
LINE
  8
0
 62
7
 10
-9.67500000E+01
 20
-1.04557706E+02
 11
-9.52500000E+01
 21
-1.04557706E+02
  0
LINE
  8
0
 62
7
 10
-1.09750000E+02
 20
-1.02557706E+02
 11
-1.05241455E+02
 21
-1.02557706E+02
  0
LINE
  8
0
 62
7
 10
-1.05250000E+02
 20
-1.02557706E+02
 11
-1.05250000E+02
 21
-1.02566250E+02
  0
LINE
  8
0
 62
7
 10
-1.05008754E+02
 20
-1.02816125E+02
 11
-9.72500550E+01
 21
-1.03087064E+02
  0
LINE
  8
0
 62
7
 10
-9.52500000E+01
 20
-5.53432128E+01
 11
-9.52500000E+01
 21
-1.15772122E+02
  0
LINE
  8
0
  6
CENTER
 62
2
 10
-7.12500153E+01
 20
-1.05028866E+02
 11
-7.12500153E+01
 21
-8.84398619E+01
  0
LINE
  8
0
  6
CENTER
 62
2
 10
-8.00952759E+01
 20
-9.75577361E+01
 11
-6.26207581E+01
 21
-9.75577361E+01
  0
LINE
  8
0
 62
7
 10
-9.52500034E+01
 20
-5.53430993E+01
 11
-6.42499791E+01
 21
-5.45313351E+01
  0
LINE
  8
0
 62
7
 10
-9.02500000E+01
 20
-1.05557736E+02
 11
-9.02500000E+01
 21
-6.55577361E+01
  0
LINE
  8
0
  6
CENTER
 62
2
 10
-7.72500458E+01
 20
-8.97998320E+01
 11
-7.72500458E+01
 21
-6.62134215E+01
  0
LINE
  8
0
  6
CENTER
 62
2
 10
-8.66601715E+01
 20
-7.85577971E+01
 11
-7.57499945E+01
 21
-7.85577971E+01
  0
LINE
  8
0
 62
7
 10
-6.42500000E+01
 20
-5.45314452E+01
 11
-6.42500000E+01
 21
-6.67434245E+01
  0
LINE
  8
0
 62
7
 10
-9.52500297E+01
 20
-1.15772160E+02
 11
-6.42500054E+01
 21
-1.16583924E+02
  0
LINE
  8
0
 62
7
 10
-8.82500000E+01
 20
-6.35577361E+01
 11
-6.42500000E+01
 21
-6.35577361E+01
  0
LINE
  8
0
 62
7
 10
-8.82500000E+01
 20
-1.07557736E+02
 11
-6.42500000E+01
 21
-1.07557736E+02
  0
LINE
  8
0
 62
7
 10
-8.40583954E+01
 20
-7.55577971E+01
 11
-7.57499945E+01
 21
-7.55577971E+01
  0
LINE
  8
0
  6
CENTER
 62
2
 10
-2.28177170E+01
 20
-1.09057690E+02
 11
-9.73534546E+01
 21
-1.09057690E+02
  0
LINE
  8
0
 62
7
 10
-2.12877423E+01
 20
-1.06407696E+02
 11
-6.42500000E+01
 21
-1.06407696E+02
  0
LINE
  8
0
 62
7
 10
-2.43476917E+01
 20
-1.11707684E+02
 11
-6.42500000E+01
 21
-1.11707684E+02
  0
LINE
  8
0
 62
7
 10
-1.17249985E+02
 20
-7.70577056E+01
 11
-1.17249985E+02
 21
-9.40577056E+01
  0
LINE
  8
0
 62
7
 10
-1.11750031E+02
 20
-9.55576903E+01
 11
-1.10250046E+02
 21
-9.55576903E+01
  0
LINE
  8
0
 62
7
 10
-1.11749969E+02
 20
-7.55576750E+01
 11
-1.10250000E+02
 21
-7.55576750E+01
  0
LINE
  8
0
 62
7
 10
-2.48384342E+01
 20
-1.12557675E+02
 11
-6.42500000E+01
 21
-1.12557675E+02
  0
LINE
  8
0
 62
7
 10
-1.23249969E+02
 20
-9.45577056E+01
 11
-1.23249969E+02
 21
-7.65577056E+01
  0
LINE
  8
0
 62
7
 10
-1.20249969E+02
 20
-8.55577513E+01
 11
-1.20249969E+02
 21
-7.70577056E+01
  0
LINE
  8
0
 62
7
 10
-1.20249969E+02
 20
-8.55577513E+01
 11
-1.20249969E+02
 21
-9.40577056E+01
  0
LINE
  8
0
 62
7
 10
-6.95179293E+01
 20
-9.75577367E+01
 11
-7.03839532E+01
 21
-9.60577303E+01
  0
LINE
  8
0
 62
7
 10
-7.03839874E+01
 20
-9.60577361E+01
 11
-7.21159821E+01
 21
-9.60577361E+01
  0
LINE
  8
0
 62
7
 10
-7.29819652E+01
 20
-9.75577745E+01
 11
-7.21159565E+01
 21
-9.60577945E+01
  0
LINE
  8
0
 62
7
 10
-7.21159570E+01
 20
-9.90578054E+01
 11
-7.29819962E+01
 21
-9.75577725E+01
  0
LINE
  8
0
 62
7
 10
-7.03839874E+01
 20
-9.90577666E+01
 11
-7.21159821E+01
 21
-9.90577666E+01
  0
LINE
  8
0
 62
7
 10
-6.95179446E+01
 20
-9.75577836E+01
 11
-7.03839685E+01
 21
-9.90577901E+01
  0
LINE
  8
0
 62
7
 10
6.33844514E+00
 20
-5.85577361E+01
 11
-4.12499945E+01
 21
-5.85577361E+01
  0
LINE
  8
0
  6
CENTER
 62
2
 10
4.31772800E+00
 20
-6.20577208E+01
 11
-4.12499945E+01
 21
-6.20577208E+01
  0
LINE
  8
0
 62
7
 10
2.78775331E+00
 20
-6.47077147E+01
 11
-4.12499945E+01
 21
-6.47077147E+01
  0
LINE
  8
0
 62
7
 10
5.84770269E+00
 20
-5.94077269E+01
 11
-4.12499945E+01
 21
-5.94077269E+01
  0
LINE
  8
0
 62
7
 10
-1.20249969E+02
 20
-9.40577056E+01
 11
-1.13250015E+02
 21
-9.40577056E+01
  0
LINE
  8
0
 62
7
 10
-1.20249969E+02
 20
-7.70577056E+01
 11
-1.13250015E+02
 21
-7.70577056E+01
  0
LINE
  8
0
 62
7
 10
-1.13250028E+02
 20
-9.40576973E+01
 11
-1.11750059E+02
 21
-9.55576665E+01
  0
LINE
  8
0
 62
7
 10
-1.13250062E+02
 20
-7.70576450E+01
 11
-1.11750032E+02
 21
-7.55576151E+01
  0
LINE
  8
0
 62
7
 10
-1.23249969E+02
 20
-7.73777129E+01
 11
-1.20249969E+02
 21
-7.73777129E+01
  0
LINE
  8
0
 62
7
 10
-1.23249969E+02
 20
-9.37376982E+01
 11
-1.20249969E+02
 21
-9.37376982E+01
  0
ARC
  8
0
 62
7
 10
-1.09750000E+02
 20
-6.90577361E+01
 40
5.00000000E-01
 50
8.99999818E+01
 51
1.79999964E+02
  0
ARC
  8
0
 62
7
 10
-1.05000000E+02
 20
-6.85491606E+01
 40
2.50000000E-01
 50
9.19988093E+01
 51
1.79999964E+02
  0
ARC
  8
0
 62
7
 10
-9.67500000E+01
 20
-6.70577056E+01
 40
5.00000000E-01
 50
8.99999818E+01
 51
1.79999964E+02
  0
ARC
  8
0
 62
7
 10
-9.67500000E+01
 20
-1.04057706E+02
 40
5.00000000E-01
 50
1.79999981E+02
 51
2.69999963E+02
  0
ARC
  8
0
 62
7
 10
-1.05000000E+02
 20
-1.02566250E+02
 40
2.50000000E-01
 50
1.79999981E+02
 51
2.68001136E+02
  0
ARC
  8
0
 62
7
 10
-1.09750000E+02
 20
-1.02057675E+02
 40
5.00000000E-01
 50
1.79999981E+02
 51
2.69999963E+02
  0
ARC
  8
0
 62
7
 10
-8.82500000E+01
 20
-6.55577361E+01
 40
2.00000000E+00
 50
8.99999818E+01
 51
1.79999964E+02
  0
ARC
  8
0
 62
7
 10
-8.82500000E+01
 20
-1.05557736E+02
 40
2.00000000E+00
 50
1.79999981E+02
 51
2.70000018E+02
  0
CIRCLE
  8
0
 62
7
 10
-7.12500153E+01
 20
-9.75577361E+01
 40
5.00000000E+00
  0
ARC
  8
0
 62
7
 10
-7.72500458E+01
 20
-7.85577971E+01
 40
8.71000004E+00
 50
8.00829797E+01
 51
3.50512921E+02
  0
ARC
  8
0
 62
7
 10
-7.72500458E+01
 20
-7.85577971E+01
 40
7.44000006E+00
 50
7.83683038E+01
 51
3.48874384E+02
  0
ARC
  8
0
 62
2
 10
-7.72500458E+01
 20
-7.85577971E+01
 40
8.32999992E+00
 50
7.96256860E+01
 51
3.50075855E+02
  0
CIRCLE
  8
0
 62
7
 10
-7.12500153E+01
 20
-9.75577361E+01
 40
2.59999990E+00
  0
LINE
  8
0
 62
7
 10
-1.52249969E+02
 20
-9.30576750E+01
 11
-1.52249969E+02
 21
-7.80578581E+01
  0
LINE
  8
0
 62
7
 10
-1.50749969E+02
 20
-9.45577056E+01
 11
-1.50749969E+02
 21
-7.65577056E+01
  0
LINE
  8
0
 62
7
 10
-1.52249923E+02
 20
-7.80578481E+01
 11
-1.50749877E+02
 21
-7.65578478E+01
  0
LINE
  8
0
 62
7
 10
-1.52249995E+02
 20
-9.30576357E+01
 11
-1.50749960E+02
 21
-9.45576252E+01
  0
LINE
  8
0
 62
7
 10
-6.42500000E+01
 20
-5.85577361E+01
 11
-5.62499945E+01
 21
-5.85577361E+01
  0
LINE
  8
0
 62
7
 10
-5.62499945E+01
 20
-5.94077269E+01
 11
-6.42500000E+01
 21
-5.94077269E+01
  0
LINE
  8
0
 62
7
 10
-5.62499945E+01
 20
-6.47077147E+01
 11
-6.42500000E+01
 21
-6.47077147E+01
  0
LINE
  8
0
 62
2
 10
-2.81231976E+01
 20
-1.18247052E+02
 11
7.86949604E+00
 21
-5.59058781E+01
  0
LINE
  8
0
  6
CENTER
 62
2
 10
-2.17499945E+01
 20
-8.55577056E+01
 11
-9.24999451E+00
 21
-8.55577056E+01
  0
LINE
  8
0
  6
CENTER
 62
2
 10
-5.62499945E+01
 20
-6.20577208E+01
 11
-9.73534546E+01
 21
-6.20577208E+01
  0
LINE
  8
0
 62
7
 10
2.64438782E+02
 20
-2.09707715E+02
 11
2.72438782E+02
 21
-2.09707715E+02
  0
LINE
  8
0
 62
7
 10
2.65938782E+02
 20
-2.03557736E+02
 11
2.72438782E+02
 21
-2.03557736E+02
  0
LINE
  8
0
 62
7
 10
2.64438782E+02
 20
-2.04407727E+02
 11
2.72438782E+02
 21
-2.04407727E+02
  0
LINE
  8
0
 62
7
 10
3.18438782E+02
 20
-2.14057736E+02
 11
3.18438782E+02
 21
-2.30557706E+02
  0
LINE
  8
0
 62
7
 10
3.05438782E+02
 20
-2.12057706E+02
 11
3.05438782E+02
 21
-2.30557706E+02
  0
LINE
  8
0
 62
7
 10
3.03438782E+02
 20
-2.00343197E+02
 11
3.03438782E+02
 21
-2.30557706E+02
  0
LINE
  8
0
 62
7
 10
2.72438782E+02
 20
-1.99557706E+02
 11
2.72438782E+02
 21
-2.30557706E+02
  0
LINE
  8
0
 62
7
 10
3.13438782E+02
 20
-2.13557706E+02
 11
3.13438782E+02
 21
-2.30557706E+02
  0
LINE
  8
0
 62
7
 10
3.28438751E+02
 20
-2.21557706E+02
 11
3.28438751E+02
 21
-2.30557706E+02
  0
LINE
  8
0
 62
7
 10
3.25438858E+02
 20
-2.25289853E+02
 11
3.21438797E+02
 21
-2.25289853E+02
  0
LINE
  8
0
 62
2
 10
3.27472437E+02
 20
-2.26744222E+02
 11
3.24938736E+02
 21
-2.30557706E+02
  0
LINE
  8
0
 62
2
 10
3.24938756E+02
 20
-2.30557706E+02
 11
3.21438767E+02
 21
-2.25289857E+02
  0
LINE
  8
0
 62
7
 10
3.25438766E+02
 20
-2.20557675E+02
 11
3.25438766E+02
 21
-2.25289853E+02
  0
LINE
  8
0
 62
7
 10
3.21438797E+02
 20
-2.25289853E+02
 11
3.21438797E+02
 21
-2.30557706E+02
  0
LINE
  8
0
 62
7
 10
3.31438751E+02
 20
-2.30557706E+02
 11
3.31438751E+02
 21
-2.21557706E+02
  0
LINE
  8
0
 62
7
 10
3.60438751E+02
 20
-2.30557706E+02
 11
3.60438751E+02
 21
-2.23057858E+02
  0
LINE
  8
0
 62
7
 10
3.58938751E+02
 20
-2.30557706E+02
 11
3.58938751E+02
 21
-2.21557706E+02
  0
LINE
  8
0
 62
7
 10
3.58938690E+02
 20
-2.21557706E+02
 11
3.51438751E+02
 21
-2.21557706E+02
  0
LINE
  8
0
 62
2
 10
3.59758698E+02
 20
-2.22377713E+02
 11
3.51438751E+02
 21
-2.22377713E+02
  0
LINE
  8
0
 62
7
 10
3.60438697E+02
 20
-2.23057836E+02
 11
3.58938651E+02
 21
-2.21557836E+02
  0
LINE
  8
0
 62
7
 10
3.04938782E+02
 20
-2.11557706E+02
 11
3.03438782E+02
 21
-2.11557706E+02
  0
LINE
  8
0
 62
7
 10
3.17938782E+02
 20
-2.13557706E+02
 11
3.13430237E+02
 21
-2.13557706E+02
  0
LINE
  8
0
 62
7
 10
3.13438782E+02
 20
-2.13557706E+02
 11
3.13438782E+02
 21
-2.13549161E+02
  0
LINE
  8
0
 62
7
 10
3.13197519E+02
 20
-2.13299208E+02
 11
3.05438805E+02
 21
-2.13028268E+02
  0
LINE
  8
0
 62
7
 10
2.98438782E+02
 20
-1.99557706E+02
 11
2.72438782E+02
 21
-1.99557706E+02
  0
LINE
  8
0
 62
7
 10
3.03438820E+02
 20
-2.00343201E+02
 11
2.72438781E+02
 21
-1.99531436E+02
  0
LINE
  8
0
 62
7
 10
2.98438782E+02
 20
-2.00212308E+02
 11
2.98438782E+02
 21
-1.99557706E+02
  0
LINE
  8
0
 62
7
 10
3.25438858E+02
 20
-2.20557721E+02
 11
3.18438828E+02
 21
-2.20557721E+02
  0
LINE
  8
0
  6
CENTER
 62
2
 10
2.85438950E+02
 20
-1.97372647E+02
 11
2.85438950E+02
 21
-2.09257916E+02
  0
LINE
  8
0
 62
7
 10
3.28438762E+02
 20
-2.21557708E+02
 11
3.25438774E+02
 21
-2.20557722E+02
  0
LINE
  8
0
 62
7
 10
3.28438736E+02
 20
-2.27435264E+02
 11
3.25438744E+02
 21
-2.25289858E+02
  0
LINE
  8
0
 62
7
 10
3.31438751E+02
 20
-2.22377713E+02
 11
3.28438751E+02
 21
-2.22377713E+02
  0
ARC
  8
0
 62
7
 10
3.29938751E+02
 20
-2.30557706E+02
 40
9.99998474E+00
 50
1.48211648E+02
 51
1.80000000E+02
  0
ARC
  8
0
 62
7
 10
3.04938782E+02
 20
-2.12057706E+02
 40
5.00000000E-01
 50
3.59721787E-05
 51
9.00000179E+01
  0
ARC
  8
0
 62
7
 10
3.13188782E+02
 20
-2.13549161E+02
 40
2.50000000E-01
 50
2.23118003E-05
 51
8.80011768E+01
  0
ARC
  8
0
 62
7
 10
3.17938782E+02
 20
-2.14057736E+02
 40
5.00000000E-01
 50
3.59721787E-05
 51
9.00000179E+01
  0
LINE
  8
0
 62
7
 10
2.01850337E+02
 20
-2.03557736E+02
 11
2.32938782E+02
 21
-2.03557736E+02
  0
LINE
  8
0
 62
7
 10
2.01359594E+02
 20
-2.04407727E+02
 11
2.49438782E+02
 21
-2.04407727E+02
  0
LINE
  8
0
  6
CENTER
 62
2
 10
1.99829619E+02
 20
-2.07057721E+02
 11
2.49438782E+02
 21
-2.07057721E+02
  0
LINE
  8
0
 62
7
 10
1.98299645E+02
 20
-2.09707715E+02
 11
2.49438782E+02
 21
-2.09707715E+02
  0
LINE
  8
0
  6
CENTER
 62
2
 10
3.64211975E+02
 20
-2.30557706E+02
 11
1.86261897E+02
 21
-2.30557706E+02
  0
CIRCLE
  8
0
 62
2
 10
6.30943909E+01
 20
-2.07057736E+02
 40
3.00000000E+00
  0
CIRCLE
  8
0
 62
2
 10
1.10094391E+02
 20
-2.07057736E+02
 40
3.00000000E+00
  0
ARC
  8
0
 62
7
 10
8.65943909E+01
 20
-2.30557706E+02
 40
1.90000000E+01
 50
0.00000000E+00
 51
1.80000000E+02
  0
ARC
  8
0
 62
7
 10
1.13594391E+02
 20
-2.20026349E+02
 40
1.00000000E+00
 50
3.59721781E-05
 51
8.28192267E+01
  0
ARC
  8
0
 62
7
 10
1.10125763E+02
 20
-2.15057629E+02
 40
1.00000000E+00
 50
7.17900183E+00
 51
9.02255559E+01
  0
ARC
  8
0
 62
7
 10
1.02094452E+02
 20
-2.07026318E+02
 40
1.00000000E+00
 50
3.59775350E+02
 51
8.28192267E+01
  0
ARC
  8
0
 62
7
 10
9.71257629E+01
 20
-2.03557721E+02
 40
1.00000000E+00
 50
7.18159727E+00
 51
9.00000162E+01
  0
ARC
  8
0
 62
7
 10
1.01094391E+02
 20
-2.03057690E+02
 40
3.00000000E+00
 50
1.87181037E+02
 51
2.69999984E+02
  0
ARC
  8
0
 62
7
 10
1.14094391E+02
 20
-2.16057721E+02
 40
3.00000000E+00
 50
1.79999995E+02
 51
2.62819249E+02
  0
CIRCLE
  8
0
 62
7
 10
1.10094391E+02
 20
-2.07057690E+02
 40
4.50000000E+00
  0
ARC
  8
0
 62
7
 10
1.14094391E+02
 20
-2.03057751E+02
 40
3.50000000E+00
 50
2.23117997E-05
 51
8.99999750E+01
  0
ARC
  8
0
 62
7
 10
1.14094391E+02
 20
-2.03057751E+02
 40
3.00000000E+00
 50
2.23117997E-05
 51
8.99999750E+01
  0
ARC
  8
0
 62
7
 10
1.10094391E+02
 20
-2.07057690E+02
 40
7.00000000E+00
 50
1.79775319E+02
 51
2.70224577E+02
  0
ARC
  8
0
 62
7
 10
1.13594391E+02
 20
-2.28557706E+02
 40
1.00000000E+00
 50
2.70000052E+02
 51
3.59721781E-05
  0
ARC
  8
0
 62
7
 10
8.85943909E+01
 20
-2.03557736E+02
 40
1.00000000E+00
 50
9.00000025E+01
 51
1.80000046E+02
  0
ARC
  8
0
 62
7
 10
1.03202972E+02
 20
-2.11120709E+02
 40
1.00000000E+00
 50
3.15000662E+02
 51
3.05222541E+01
  0
CIRCLE
  8
0
 62
7
 10
1.10094391E+02
 20
-2.07057690E+02
 40
5.00000000E+00
  0
ARC
  8
0
 62
7
 10
1.06494171E+02
 20
-2.28557706E+02
 40
1.00000000E+00
 50
1.85739485E+02
 51
2.70000038E+02
  0
ARC
  8
0
 62
7
 10
8.85943909E+01
 20
-2.10657956E+02
 40
1.00000000E+00
 50
1.80000036E+02
 51
2.64260549E+02
  0
ARC
  8
0
 62
7
 10
9.92514343E+01
 20
-2.15072247E+02
 40
1.00000000E+00
 50
2.30739011E+02
 51
3.15000026E+02
  0
ARC
  8
0
 62
7
 10
1.02079865E+02
 20
-2.17900677E+02
 40
1.00000000E+00
 50
1.35000014E+02
 51
2.19261011E+02
  0
ARC
  8
0
 62
7
 10
7.60630188E+01
 20
-2.03557721E+02
 40
1.00000000E+00
 50
9.00000162E+01
 51
1.72818444E+02
  0
ARC
  8
0
 62
7
 10
7.20943909E+01
 20
-2.03057690E+02
 40
3.00000000E+00
 50
2.69999984E+02
 51
3.52818976E+02
  0
ARC
  8
0
 62
7
 10
7.10943909E+01
 20
-2.07026318E+02
 40
1.00000000E+00
 50
9.71808057E+01
 51
1.80224691E+02
  0
ARC
  8
0
 62
7
 10
6.30944519E+01
 20
-2.07057690E+02
 40
7.00000000E+00
 50
2.69775448E+02
 51
2.24721868E-01
  0
ARC
  8
0
 62
7
 10
6.30630798E+01
 20
-2.15057629E+02
 40
1.00000000E+00
 50
8.97744765E+01
 51
1.72821039E+02
  0
ARC
  8
0
 62
7
 10
5.90944519E+01
 20
-2.16057721E+02
 40
3.00000000E+00
 50
2.77180780E+02
 51
1.86693353E-05
  0
ARC
  8
0
 62
7
 10
5.95944519E+01
 20
-2.20026349E+02
 40
1.00000000E+00
 50
9.71808057E+01
 51
1.80000005E+02
  0
CIRCLE
  8
0
 62
7
 10
6.30943909E+01
 20
-2.07057736E+02
 40
4.50000000E+00
  0
ARC
  8
0
 62
7
 10
5.90944519E+01
 20
-2.03057706E+02
 40
3.50000000E+00
 50
9.00000162E+01
 51
1.80000005E+02
  0
ARC
  8
0
 62
7
 10
6.99858093E+01
 20
-2.11120755E+02
 40
1.00000000E+00
 50
1.49477556E+02
 51
2.24999381E+02
  0
ARC
  8
0
 62
7
 10
1.06031403E+02
 20
-2.13949155E+02
 40
1.00000000E+00
 50
5.94777466E+01
 51
1.34999343E+02
  0
CIRCLE
  8
0
 62
7
 10
6.30943909E+01
 20
-2.07057736E+02
 40
5.00000000E+00
  0
ARC
  8
0
 62
7
 10
8.45943909E+01
 20
-2.03557736E+02
 40
1.00000000E+00
 50
3.59721781E-05
 51
9.00000162E+01
  0
ARC
  8
0
 62
7
 10
5.90944519E+01
 20
-2.03057736E+02
 40
3.00000000E+00
 50
9.00000162E+01
 51
1.80000005E+02
  0
ARC
  8
0
 62
7
 10
5.95944519E+01
 20
-2.28557706E+02
 40
1.00000000E+00
 50
1.79999995E+02
 51
2.70000038E+02
  0
ARC
  8
0
 62
7
 10
6.66946716E+01
 20
-2.28557721E+02
 40
1.00000000E+00
 50
2.70000038E+02
 51
3.54260543E+02
  0
ARC
  8
0
 62
7
 10
7.39373474E+01
 20
-2.15072232E+02
 40
1.00000000E+00
 50
2.25000000E+02
 51
3.09261001E+02
  0
ARC
  8
0
 62
7
 10
7.11089172E+01
 20
-2.17900662E+02
 40
1.00000000E+00
 50
3.20739045E+02
 51
4.50000423E+01
  0
ARC
  8
0
 62
7
 10
8.45943909E+01
 20
-2.10657956E+02
 40
1.00000000E+00
 50
2.75739515E+02
 51
3.59721781E-05
  0
LINE
  8
0
 62
7
 10
1.10094393E+02
 20
-2.03593637E+02
 11
1.13094391E+02
 21
-2.05325687E+02
  0
LINE
  8
0
 62
7
 10
1.13094391E+02
 20
-2.05325680E+02
 11
1.13094391E+02
 21
-2.08789792E+02
  0
LINE
  8
0
 62
7
 10
1.13094389E+02
 20
-2.08789788E+02
 11
1.10094387E+02
 21
-2.10521840E+02
  0
LINE
  8
0
 62
7
 10
1.10094391E+02
 20
-2.10521839E+02
 11
1.07094393E+02
 21
-2.08789789E+02
  0
LINE
  8
0
 62
7
 10
1.07094391E+02
 20
-2.05325680E+02
 11
1.07094391E+02
 21
-2.08789792E+02
  0
LINE
  8
0
 62
7
 10
1.10094389E+02
 20
-2.03593636E+02
 11
1.07094387E+02
 21
-2.05325688E+02
  0
LINE
  8
0
 62
7
 10
6.30943906E+01
 20
-2.03593635E+02
 11
6.60943924E+01
 21
-2.05325686E+02
  0
LINE
  8
0
 62
7
 10
6.60943909E+01
 20
-2.05325680E+02
 11
6.60943909E+01
 21
-2.08789792E+02
  0
LINE
  8
0
 62
7
 10
6.60943894E+01
 20
-2.08789788E+02
 11
6.30943910E+01
 21
-2.10521838E+02
  0
LINE
  8
0
 62
7
 10
6.30943924E+01
 20
-2.10521839E+02
 11
6.00943906E+01
 21
-2.08789787E+02
  0
LINE
  8
0
 62
7
 10
6.00943909E+01
 20
-2.05325680E+02
 11
6.00943909E+01
 21
-2.08789792E+02
  0
LINE
  8
0
 62
7
 10
6.30943894E+01
 20
-2.03593636E+02
 11
6.00943910E+01
 21
-2.05325686E+02
  0
LINE
  8
0
  6
CENTER
 62
2
 10
9.35945129E+01
 20
-1.97372647E+02
 11
9.35945129E+01
 21
-2.09257916E+02
  0
LINE
  8
0
 62
7
 10
6.20943909E+01
 20
-2.14809354E+02
 11
6.20943909E+01
 21
-2.16057721E+02
  0
LINE
  8
0
 62
7
 10
7.08456726E+01
 20
-2.06057736E+02
 11
7.20943909E+01
 21
-2.06057736E+02
  0
LINE
  8
0
 62
7
 10
1.02342804E+02
 20
-2.06057660E+02
 11
1.01094391E+02
 21
-2.06057660E+02
  0
LINE
  8
0
 62
7
 10
1.11094391E+02
 20
-2.14809109E+02
 11
1.11094391E+02
 21
-2.16057721E+02
  0
LINE
  8
0
 62
7
 10
5.55944519E+01
 20
-2.30557706E+02
 11
5.55944519E+01
 21
-2.03057706E+02
  0
LINE
  8
0
 62
7
 10
1.08594391E+02
 20
-1.99557706E+02
 11
1.08594391E+02
 21
-2.00057706E+02
  0
LINE
  8
0
 62
7
 10
6.45943909E+01
 20
-1.99557706E+02
 11
6.45943909E+01
 21
-2.00057736E+02
  0
LINE
  8
0
 62
7
 10
5.85944519E+01
 20
-2.30557706E+02
 11
5.85944519E+01
 21
-2.20026349E+02
  0
LINE
  8
0
  6
CENTER
 62
2
 10
8.65943909E+01
 20
-1.95797055E+02
 11
8.65943909E+01
 21
-2.30557706E+02
  0
LINE
  8
0
 62
7
 10
5.60944519E+01
 20
-2.30557706E+02
 11
5.60944519E+01
 21
-2.03057736E+02
  0
LINE
  8
0
  6
CENTER
 62
2
 10
1.10094391E+02
 20
-1.97504025E+02
 11
1.10094391E+02
 21
-2.14942074E+02
  0
LINE
  8
0
 62
7
 10
1.17594391E+02
 20
-2.30557706E+02
 11
1.17594391E+02
 21
-2.03057736E+02
  0
LINE
  8
0
 62
7
 10
1.17094391E+02
 20
-2.30557706E+02
 11
1.17094391E+02
 21
-2.03057736E+02
  0
LINE
  8
0
 62
7
 10
1.14594391E+02
 20
-2.30557706E+02
 11
1.14594391E+02
 21
-2.20026349E+02
  0
LINE
  8
0
 62
7
 10
7.60630188E+01
 20
-2.02557721E+02
 11
9.71257629E+01
 21
-2.02557721E+02
  0
LINE
  8
0
 62
7
 10
5.90944519E+01
 20
-2.00057736E+02
 11
1.14094391E+02
 21
-2.00057706E+02
  0
LINE
  8
0
 62
7
 10
1.13594391E+02
 20
-2.29557675E+02
 11
1.06494171E+02
 21
-2.29557675E+02
  0
LINE
  8
0
 62
7
 10
1.01372826E+02
 20
-2.17193661E+02
 11
1.05324364E+02
 21
-2.13242124E+02
  0
LINE
  8
0
 62
7
 10
9.99586129E+01
 20
-2.15779447E+02
 11
1.03910194E+02
 21
-2.11827867E+02
  0
LINE
  8
0
 62
7
 10
7.32304137E+01
 20
-2.15779179E+02
 11
6.92788969E+01
 21
-2.11827664E+02
  0
LINE
  8
0
 62
7
 10
7.18161788E+01
 20
-2.17193414E+02
 11
6.78646620E+01
 21
-2.13241899E+02
  0
LINE
  8
0
 62
7
 10
5.95944519E+01
 20
-2.29557721E+02
 11
6.66946716E+01
 21
-2.29557721E+02
  0
LINE
  8
0
  6
CENTER
 62
2
 10
5.31412659E+01
 20
-2.07057736E+02
 11
7.28438416E+01
 21
-2.07057736E+02
  0
LINE
  8
0
 62
7
 10
8.55943909E+01
 20
-2.03557736E+02
 11
8.55943909E+01
 21
-2.10657956E+02
  0
LINE
  8
0
 62
7
 10
5.90944519E+01
 20
-1.99557706E+02
 11
1.14094391E+02
 21
-1.99557706E+02
  0
LINE
  8
0
 62
7
 10
8.75943909E+01
 20
-2.03557736E+02
 11
8.75943909E+01
 21
-2.10657986E+02
  0
LINE
  8
0
  6
CENTER
 62
2
 10
6.30943909E+01
 20
-1.97079465E+02
 11
6.30943909E+01
 21
-2.16782086E+02
  0
LINE
  8
0
  6
CENTER
 62
2
 10
5.19465027E+01
 20
-2.30557706E+02
 11
1.21109467E+02
 21
-2.30557706E+02
  0
LINE
  8
0
  6
CENTER
 62
2
 10
1.00707306E+02
 20
-2.07057736E+02
 11
1.19826996E+02
 21
-2.07057736E+02
  0
ARC
  8
0
 62
7
 10
-8.82500000E+01
 20
-1.16057736E+02
 40
2.00000000E+00
 50
8.99999818E+01
 51
1.79999964E+02
  0
LINE
  8
0
 62
7
 10
-8.82500000E+01
 20
-1.14057736E+02
 11
-6.42500000E+01
 21
-1.14057736E+02
  0
ARC
  8
0
 62
7
 10
-1.09750000E+02
 20
-2.14057736E+02
 40
5.00000000E-01
 50
8.99999818E+01
 51
1.79999964E+02
  0
ARC
  8
0
 62
7
 10
-1.05000000E+02
 20
-2.13549161E+02
 40
2.50000000E-01
 50
9.19988230E+01
 51
1.79999977E+02
  0
ARC
  8
0
 62
7
 10
-9.67500000E+01
 20
-2.12057706E+02
 40
5.00000000E-01
 50
8.99999818E+01
 51
1.79999964E+02
  0
ARC
  8
0
 62
7
 10
-2.52749969E+02
 20
-2.30557706E+02
 40
7.49999237E+00
 50
0.00000000E+00
 51
1.80000000E+02
  0
ARC
  8
0
 62
2
 10
-2.52749969E+02
 20
-2.30557706E+02
 40
8.18000031E+00
 50
0.00000000E+00
 51
1.80000000E+02
  0
ARC
  8
0
 62
7
 10
-2.52749969E+02
 20
-2.30557706E+02
 40
8.99999237E+00
 50
0.00000000E+00
 51
1.80000000E+02
  0
CIRCLE
  8
0
 62
2
 10
-2.29249969E+02
 20
-2.07057736E+02
 40
3.00000000E+00
  0
CIRCLE
  8
0
 62
2
 10
-2.76249969E+02
 20
-2.07057736E+02
 40
3.00000000E+00
  0
ARC
  8
0
 62
7
 10
-1.21749969E+02
 20
-2.30557706E+02
 40
9.99998474E+00
 50
0.00000000E+00
 51
3.17883527E+01
  0
ARC
  8
0
 62
7
 10
-2.52749969E+02
 20
-2.30557706E+02
 40
1.70000000E+01
 50
0.00000000E+00
 51
1.80000000E+02
  0
ARC
  8
0
 62
7
 10
-2.52749969E+02
 20
-2.30557706E+02
 40
1.90000000E+01
 50
0.00000000E+00
 51
1.80000000E+02
  0
ARC
  8
0
 62
7
 10
-2.52749969E+02
 20
-2.30557706E+02
 40
1.75294495E+01
 50
0.00000000E+00
 51
1.80000000E+02
  0
ARC
  8
0
 62
7
 10
-2.79749969E+02
 20
-2.20026349E+02
 40
1.00000000E+00
 50
9.71807714E+01
 51
1.79999964E+02
  0
ARC
  8
0
 62
7
 10
-2.76281342E+02
 20
-2.15057629E+02
 40
1.00000000E+00
 50
8.97744422E+01
 51
1.72820998E+02
  0
ARC
  8
0
 62
7
 10
-2.68250031E+02
 20
-2.07026318E+02
 40
1.00000000E+00
 50
9.71807714E+01
 51
1.80224650E+02
  0
ARC
  8
0
 62
7
 10
-2.63281342E+02
 20
-2.03557721E+02
 40
1.00000000E+00
 50
8.99999818E+01
 51
1.72818402E+02
  0
ARC
  8
0
 62
7
 10
-2.67249969E+02
 20
-2.03057690E+02
 40
3.00000000E+00
 50
2.70000018E+02
 51
3.52818957E+02
  0
ARC
  8
0
 62
7
 10
-2.80249969E+02
 20
-2.16057721E+02
 40
3.00000000E+00
 50
2.77180753E+02
 51
0.00000000E+00
  0
CIRCLE
  8
0
 62
7
 10
-2.76249969E+02
 20
-2.07057690E+02
 40
4.50000000E+00
  0
ARC
  8
0
 62
7
 10
-2.80249969E+02
 20
-2.03057751E+02
 40
3.50000000E+00
 50
9.00000231E+01
 51
1.79999977E+02
  0
ARC
  8
0
 62
7
 10
-2.80249969E+02
 20
-2.03057751E+02
 40
3.00000000E+00
 50
9.00000231E+01
 51
1.79999977E+02
  0
ARC
  8
0
 62
7
 10
-2.72186920E+02
 20
-2.13949139E+02
 40
1.00000000E+00
 50
4.50006194E+01
 51
1.20522431E+02
  0
ARC
  8
0
 62
7
 10
-2.76249969E+02
 20
-2.07057690E+02
 40
7.00000000E+00
 50
2.69775421E+02
 51
2.24686703E-01
  0
ARC
  8
0
 62
7
 10
-2.79749969E+02
 20
-2.28557706E+02
 40
1.00000000E+00
 50
1.79999964E+02
 51
2.69999946E+02
  0
ARC
  8
0
 62
7
 10
-2.54749969E+02
 20
-2.03557736E+02
 40
1.00000000E+00
 50
3.59999959E+02
 51
8.99999956E+01
  0
ARC
  8
0
 62
7
 10
-2.69358551E+02
 20
-2.11120709E+02
 40
1.00000000E+00
 50
1.49477747E+02
 51
2.24999340E+02
  0
CIRCLE
  8
0
 62
7
 10
-2.76249969E+02
 20
-2.07057690E+02
 40
5.00000000E+00
  0
ARC
  8
0
 62
7
 10
-2.72649750E+02
 20
-2.28557706E+02
 40
1.00000000E+00
 50
2.69999963E+02
 51
3.54260510E+02
  0
ARC
  8
0
 62
7
 10
-2.54749969E+02
 20
-2.10657956E+02
 40
1.00000000E+00
 50
2.75739453E+02
 51
3.59999959E+02
  0
ARC
  8
0
 62
7
 10
-2.65407013E+02
 20
-2.15072247E+02
 40
1.00000000E+00
 50
2.24999972E+02
 51
3.09260983E+02
  0
ARC
  8
0
 62
7
 10
-2.68235443E+02
 20
-2.17900677E+02
 40
1.00000000E+00
 50
3.20738994E+02
 51
4.49999910E+01
  0
ARC
  8
0
 62
7
 10
-2.42218597E+02
 20
-2.03557721E+02
 40
1.00000000E+00
 50
7.18156141E+00
 51
8.99999818E+01
  0
ARC
  8
0
 62
7
 10
-2.38249969E+02
 20
-2.03057690E+02
 40
3.00000000E+00
 50
1.87181024E+02
 51
2.70000018E+02
  0
ARC
  8
0
 62
7
 10
-2.37249969E+02
 20
-2.07026318E+02
 40
1.00000000E+00
 50
3.59775314E+02
 51
8.28191923E+01
  0
ARC
  8
0
 62
7
 10
-2.29250031E+02
 20
-2.07057690E+02
 40
7.00000000E+00
 50
1.79775278E+02
 51
2.70224550E+02
  0
ARC
  8
0
 62
7
 10
-2.29218658E+02
 20
-2.15057629E+02
 40
1.00000000E+00
 50
7.17896597E+00
 51
9.02255215E+01
  0
ARC
  8
0
 62
7
 10
-2.25250031E+02
 20
-2.16057721E+02
 40
3.00000000E+00
 50
1.79999981E+02
 51
2.62819221E+02
  0
ARC
  8
0
 62
7
 10
-2.25750031E+02
 20
-2.20026349E+02
 40
1.00000000E+00
 50
0.00000000E+00
 51
8.28191923E+01
  0
CIRCLE
  8
0
 62
7
 10
-2.29249969E+02
 20
-2.07057736E+02
 40
4.50000000E+00
  0
ARC
  8
0
 62
7
 10
-2.25250031E+02
 20
-2.03057706E+02
 40
3.50000000E+00
 50
0.00000000E+00
 51
8.99999818E+01
  0
ARC
  8
0
 62
7
 10
-2.36141388E+02
 20
-2.11120755E+02
 40
1.00000000E+00
 50
3.15000624E+02
 51
3.05224488E+01
  0
ARC
  8
0
 62
7
 10
-2.33312958E+02
 20
-2.13949155E+02
 40
1.00000000E+00
 50
5.94777518E+01
 51
1.34999345E+02
  0
CIRCLE
  8
0
 62
7
 10
-2.29249969E+02
 20
-2.07057736E+02
 40
5.00000000E+00
  0
ARC
  8
0
 62
7
 10
-2.50749969E+02
 20
-2.03557736E+02
 40
1.00000000E+00
 50
8.99999818E+01
 51
1.79999964E+02
  0
ARC
  8
0
 62
7
 10
-2.25250031E+02
 20
-2.03057736E+02
 40
3.00000000E+00
 50
0.00000000E+00
 51
8.99999818E+01
  0
ARC
  8
0
 62
7
 10
-2.25750031E+02
 20
-2.28557706E+02
 40
1.00000000E+00
 50
2.69999963E+02
 51
0.00000000E+00
  0
ARC
  8
0
 62
7
 10
-2.32850250E+02
 20
-2.28557721E+02
 40
1.00000000E+00
 50
1.85739458E+02
 51
2.69999963E+02
  0
ARC
  8
0
 62
7
 10
-2.40092926E+02
 20
-2.15072232E+02
 40
1.00000000E+00
 50
2.30738998E+02
 51
3.14999995E+02
  0
ARC
  8
0
 62
7
 10
-2.37264496E+02
 20
-2.17900662E+02
 40
1.00000000E+00
 50
1.34999959E+02
 51
2.19260957E+02
  0
ARC
  8
0
 62
7
 10
-2.50749969E+02
 20
-2.10657956E+02
 40
1.00000000E+00
 50
1.79999964E+02
 51
2.64260484E+02
  0
LINE
  8
0
 62
7
 10
-1.23249969E+02
 20
-2.22377713E+02
 11
-1.20249969E+02
 21
-2.22377713E+02
  0
LINE
  8
0
 62
7
 10
-1.20249955E+02
 20
-2.27435264E+02
 11
-1.17249963E+02
 21
-2.25289858E+02
  0
LINE
  8
0
 62
7
 10
-1.20249980E+02
 20
-2.21557708E+02
 11
-1.17249992E+02
 21
-2.20557722E+02
  0
LINE
  8
0
  6
CENTER
 62
2
 10
-7.72501678E+01
 20
-1.97372647E+02
 11
-7.72501678E+01
 21
-2.09257916E+02
  0
LINE
  8
0
 62
7
 10
-1.17250076E+02
 20
-2.20557721E+02
 11
-1.10250046E+02
 21
-2.20557721E+02
  0
LINE
  8
0
 62
7
 10
6.33844514E+00
 20
-2.03557736E+02
 11
-6.42500000E+01
 21
-2.03557736E+02
  0
LINE
  8
0
 62
7
 10
-9.02500000E+01
 20
-2.00212308E+02
 11
-9.02500000E+01
 21
-1.99557706E+02
  0
LINE
  8
0
 62
7
 10
-9.52500386E+01
 20
-2.00343201E+02
 11
-6.42499991E+01
 21
-1.99531436E+02
  0
LINE
  8
0
 62
7
 10
-9.02500000E+01
 20
-1.99557706E+02
 11
-6.42500000E+01
 21
-1.99557706E+02
  0
LINE
  8
0
 62
7
 10
-1.05008737E+02
 20
-2.13299208E+02
 11
-9.72500233E+01
 21
-2.13028268E+02
  0
LINE
  8
0
 62
7
 10
-1.05250000E+02
 20
-2.13557706E+02
 11
-1.05250000E+02
 21
-2.13549161E+02
  0
LINE
  8
0
 62
7
 10
-1.09750000E+02
 20
-2.13557706E+02
 11
-1.05241455E+02
 21
-2.13557706E+02
  0
LINE
  8
0
 62
7
 10
-9.67500000E+01
 20
-2.11557706E+02
 11
-9.52500000E+01
 21
-2.11557706E+02
  0
LINE
  8
0
 62
7
 10
5.84770269E+00
 20
-2.04407727E+02
 11
-6.42500000E+01
 21
-2.04407727E+02
  0
LINE
  8
0
  6
CENTER
 62
2
 10
4.31772800E+00
 20
-2.07057721E+02
 11
-9.73534546E+01
 21
-2.07057721E+02
  0
LINE
  8
0
 62
7
 10
2.78775331E+00
 20
-2.09707715E+02
 11
-6.42500000E+01
 21
-2.09707715E+02
  0
LINE
  8
0
 62
7
 10
-1.52249915E+02
 20
-2.23057836E+02
 11
-1.50749869E+02
 21
-2.21557836E+02
  0
LINE
  8
0
 62
2
 10
-1.51569916E+02
 20
-2.22377713E+02
 11
-1.43249969E+02
 21
-2.22377713E+02
  0
LINE
  8
0
 62
7
 10
-1.50749908E+02
 20
-2.21557706E+02
 11
-1.43249969E+02
 21
-2.21557706E+02
  0
LINE
  8
0
 62
7
 10
-1.50749969E+02
 20
-2.30557706E+02
 11
-1.50749969E+02
 21
-2.21557706E+02
  0
LINE
  8
0
 62
7
 10
-1.52249969E+02
 20
-2.30557706E+02
 11
-1.52249969E+02
 21
-2.23057858E+02
  0
LINE
  8
0
 62
7
 10
-1.23249969E+02
 20
-2.30557706E+02
 11
-1.23249969E+02
 21
-2.21557706E+02
  0
LINE
  8
0
  6
CENTER
 62
2
 10
-2.59750092E+02
 20
-1.97372647E+02
 11
-2.59750092E+02
 21
-2.09257916E+02
  0
LINE
  8
0
 62
7
 10
-1.13250015E+02
 20
-2.25289853E+02
 11
-1.13250015E+02
 21
-2.30557706E+02
  0
LINE
  8
0
 62
7
 10
-1.17249985E+02
 20
-2.20557675E+02
 11
-1.17249985E+02
 21
-2.25289853E+02
  0
LINE
  8
0
 62
2
 10
-1.16749975E+02
 20
-2.30557706E+02
 11
-1.13249985E+02
 21
-2.25289857E+02
  0
LINE
  8
0
 62
2
 10
-1.19283655E+02
 20
-2.26744222E+02
 11
-1.16749954E+02
 21
-2.30557706E+02
  0
LINE
  8
0
 62
7
 10
-1.17250076E+02
 20
-2.25289853E+02
 11
-1.13250015E+02
 21
-2.25289853E+02
  0
LINE
  8
0
 62
7
 10
-1.20249969E+02
 20
-2.21557706E+02
 11
-1.20249969E+02
 21
-2.30557706E+02
  0
LINE
  8
0
 62
7
 10
-1.05250000E+02
 20
-2.13557706E+02
 11
-1.05250000E+02
 21
-2.30557706E+02
  0
LINE
  8
0
  6
CENTER
 62
2
 10
-2.66862885E+02
 20
-2.07057736E+02
 11
-2.85982574E+02
 21
-2.07057736E+02
  0
LINE
  8
0
  6
CENTER
 62
2
 10
-2.18102081E+02
 20
-2.30557706E+02
 11
-2.87265045E+02
 21
-2.30557706E+02
  0
LINE
  8
0
 62
7
 10
-2.28249969E+02
 20
-2.14809354E+02
 11
-2.28249969E+02
 21
-2.16057721E+02
  0
LINE
  8
0
 62
7
 10
-2.37001251E+02
 20
-2.06057736E+02
 11
-2.38249969E+02
 21
-2.06057736E+02
  0
LINE
  8
0
 62
7
 10
-2.68498383E+02
 20
-2.06057660E+02
 11
-2.67249969E+02
 21
-2.06057660E+02
  0
LINE
  8
0
 62
7
 10
-2.77249969E+02
 20
-2.14809109E+02
 11
-2.77249969E+02
 21
-2.16057721E+02
  0
LINE
  8
0
 62
7
 10
-2.74749969E+02
 20
-1.99557706E+02
 11
-2.74749969E+02
 21
-2.00057706E+02
  0
LINE
  8
0
 62
7
 10
-2.30749969E+02
 20
-1.99557706E+02
 11
-2.30749969E+02
 21
-2.00057736E+02
  0
LINE
  8
0
 62
7
 10
-2.35749784E+02
 20
-2.00057769E+02
 11
-2.35249772E+02
 21
-1.99557758E+02
  0
LINE
  8
0
 62
7
 10
-2.45749827E+02
 20
-2.00057715E+02
 11
-2.46249860E+02
 21
-1.99557682E+02
  0
LINE
  8
0
 62
7
 10
-2.24750031E+02
 20
-2.30557706E+02
 11
-2.24750031E+02
 21
-2.20026349E+02
  0
LINE
  8
0
  6
CENTER
 62
2
 10
-2.52749969E+02
 20
-1.95797055E+02
 11
-2.52749969E+02
 21
-2.30557706E+02
  0
LINE
  8
0
 62
7
 10
-2.21750031E+02
 20
-2.30557706E+02
 11
-2.21750031E+02
 21
-2.03057706E+02
  0
LINE
  8
0
 62
7
 10
-2.22250031E+02
 20
-2.30557706E+02
 11
-2.22250031E+02
 21
-2.03057736E+02
  0
LINE
  8
0
 62
7
 10
-6.42500000E+01
 20
-1.99557706E+02
 11
-6.42500000E+01
 21
-2.30557706E+02
  0
LINE
  8
0
  6
CENTER
 62
2
 10
-2.76249969E+02
 20
-1.97504025E+02
 11
-2.76249969E+02
 21
-2.14942074E+02
  0
LINE
  8
0
 62
7
 10
-2.83749969E+02
 20
-2.30557706E+02
 11
-2.83749969E+02
 21
-2.03057736E+02
  0
LINE
  8
0
 62
7
 10
-2.80249969E+02
 20
-1.99557706E+02
 11
-2.25250031E+02
 21
-1.99557706E+02
  0
LINE
  8
0
 62
7
 10
-2.80749969E+02
 20
-2.30557706E+02
 11
-2.80749969E+02
 21
-2.20026349E+02
  0
LINE
  8
0
 62
7
 10
-2.83249969E+02
 20
-2.30557706E+02
 11
-2.83249969E+02
 21
-2.03057736E+02
  0
LINE
  8
0
 62
7
 10
-2.79749969E+02
 20
-2.29557675E+02
 11
-2.72649750E+02
 21
-2.29557675E+02
  0
LINE
  8
0
 62
7
 10
-2.67528415E+02
 20
-2.17193659E+02
 11
-2.71479952E+02
 21
-2.13242122E+02
  0
LINE
  8
0
 62
7
 10
-2.66114201E+02
 20
-2.15779446E+02
 11
-2.70065782E+02
 21
-2.11827865E+02
  0
LINE
  8
0
 62
7
 10
-9.52500000E+01
 20
-2.00343197E+02
 11
-9.52500000E+01
 21
-2.30557706E+02
  0
LINE
  8
0
 62
7
 10
-9.72500000E+01
 20
-2.12057706E+02
 11
-9.72500000E+01
 21
-2.30557706E+02
  0
LINE
  8
0
 62
7
 10
-1.10250000E+02
 20
-2.14057736E+02
 11
-1.10250000E+02
 21
-2.30557706E+02
  0
LINE
  8
0
 62
7
 10
-2.63281342E+02
 20
-2.02557721E+02
 11
-2.42218597E+02
 21
-2.02557721E+02
  0
LINE
  8
0
  6
CENTER
 62
2
 10
-2.19296844E+02
 20
-2.07057736E+02
 11
-2.38999420E+02
 21
-2.07057736E+02
  0
LINE
  8
0
  6
CENTER
 62
2
 10
-2.29249969E+02
 20
-1.97079465E+02
 11
-2.29249969E+02
 21
-2.16782086E+02
  0
LINE
  8
0
 62
7
 10
-2.80249969E+02
 20
-2.00057706E+02
 11
-2.25250031E+02
 21
-2.00057736E+02
  0
LINE
  8
0
 62
7
 10
-2.25750031E+02
 20
-2.29557721E+02
 11
-2.32850250E+02
 21
-2.29557721E+02
  0
LINE
  8
0
 62
7
 10
-2.37971767E+02
 20
-2.17193412E+02
 11
-2.34020250E+02
 21
-2.13241896E+02
  0
LINE
  8
0
 62
7
 10
-2.39386002E+02
 20
-2.15779176E+02
 11
-2.35434485E+02
 21
-2.11827661E+02
  0
LINE
  8
0
 62
7
 10
-2.51749969E+02
 20
-2.03557736E+02
 11
-2.51749969E+02
 21
-2.10657956E+02
  0
LINE
  8
0
 62
7
 10
-2.53749969E+02
 20
-2.03557736E+02
 11
-2.53749969E+02
 21
-2.10657956E+02
  0
LINE
  8
0
  6
CENTER
 62
2
 10
-1.56023193E+02
 20
-2.30557706E+02
 11
-8.79728315E+00
 21
-2.30557706E+02
  0
LINE
  8
0
 62
7
 10
2.79799927E+02
 20
-2.56750000E+02
 11
3.99799805E+02
 21
-2.56750000E+02
  0
LINE
  8
0
 62
7
 10
2.79799927E+02
 20
-2.56750000E+02
 11
2.79799927E+02
 21
-2.76750000E+02
  0
TEXT
  8
0
 62
7
 10
2.87585240E+02
 20
-2.71250000E+02
 40
9.00000000E+00
  1
KOGANEI CORP.
 41
1.04838710E+00
  7
MONOTXT
  0
TEXT
  8
0
 62
7
 10
3.15499641E+02
 20
2.63100000E+02
 40
6.30000019E+00
  1
Ver. 1.0
 41
1.08108124E+00
  7
MONOTXT
  0
LINE
  8
0
 62
7
 10
2.79799927E+02
 20
2.56250000E+02
 11
3.99799805E+02
 21
2.56250000E+02
  0
LINE
  8
0
 62
7
 10
2.79799927E+02
 20
2.76250000E+02
 11
2.79799927E+02
 21
2.56250000E+02
  0
TEXT
  8
0
 62
7
 10
-3.85600562E+02
 20
2.38100000E+02
 40
6.30000019E+00
  1
MODEL:DDA50*75
 41
1.00000015E+00
  7
MONOTXT
  0
LINE
  8
0
 62
7
 10
-3.99250000E+02
 20
2.56250000E+02
 11
-2.79250000E+02
 21
2.56250000E+02
  0
LINE
  8
0
 62
7
 10
-2.79250000E+02
 20
2.76250000E+02
 11
-2.79250000E+02
 21
2.56250000E+02
  0
TEXT
  8
0
 62
7
 10
-3.91900291E+02
 20
2.63100000E+02
 40
6.30000019E+00
  1
NEW DYNA CYLINDER
 41
1.07594953E+00
  7
MONOTXT
  0
LINE
  8
0
 62
7
 10
-3.99250000E+02
 20
-2.76750000E+02
 11
3.99799805E+02
 21
-2.76750000E+02
  0
LINE
  8
0
 62
7
 10
-3.99250000E+02
 20
2.76250000E+02
 11
3.99799805E+02
 21
2.76250000E+02
  0
LINE
  8
0
 62
7
 10
-3.99250000E+02
 20
2.76250000E+02
 11
-3.99250000E+02
 21
-2.76750000E+02
  0
LINE
  8
0
 62
7
 10
3.99799805E+02
 20
2.76250000E+02
 11
3.99799805E+02
 21
-2.76750000E+02
  0
ENDSEC
  0
EOF
