  0
SECTION
  2
HEADER
  9
$ACADVER
  1
AC1003
  9
$EXTMIN
 10
-1.38399994E+02
 20
-9.48000031E+01
  9
$EXTMAX
 10
1.38350006E+02
 20
9.45000000E+01
  9
$LIMMIN
 10
-1.38400994E+02
 20
-9.48010031E+01
  9
$LIMMAX
 10
1.38351006E+02
 20
9.45010000E+01
  9
$SNAPUNIT
 10
1
 20
1
  9
$SNAPBASE
 10
0
 20
0
  9
$GRIDMODE
 70
0
  9
$GRIDUNIT
 10
0
 20
0
  9
$LTSCALE
 40
4.61250000E+00
  9
$TEXTSIZE
 40
3.2
  9
$DIMTAD
 70
0
  9
$LUNITS
 70
2
  9
$LUPREC
 70
4
  9
$FILLETRAD
 40
0
  9
$AUNITS
 70
0
  9
$AUPREC
 70
0
  0
ENDSEC
  0
SECTION
  2
TABLES
  0
TABLE
  2
LTYPE
 70
2
  0
LTYPE
  2
CONTINUOUS
 70
64
  3
Solid-Line
 72
65
 73
0
 40
0
  0
LTYPE
  2
DASHED
 70
64
  3
DASHED
 72
65
 73
2
 40
.75
 49
.5
 49
-.25
  0
LTYPE
  2
HIDDEN
 70
64
  3
HIDDEN
 72
65
 73
2
 40
.375
 49
.25
 49
-.125
  0
LTYPE
  2
CENTER
 70
64
  3
CENTER
 72
65
 73
4
 40
2
 49
1.25
 49
-.25
 49
.25
 49
-.25
  0
LTYPE
  2
PHANTOM
 70
64
  3
PHANTOM
 72
65
 73
6
 40
2.5
 49
1.25
 49
-.25
 49
.25
 49
-.25
 49
.25
 49
-.25
  0
ENDTAB
  0
TABLE
  2
LAYER
 70
1
  0
LAYER
  2
1
 70
0
 62
7
  6
CONTINUOUS
 0
ENDTAB
  0
TABLE
  2
STYLE
 70
2
  0
STYLE
  2
MONOTXT
 70
0
 40
0
 41
1
 50
0
 71
0
 42
.2
  3
monotxt
  0
STYLE
  2
BIGFONT
 70
0
 40
0
 41
1
 50
0
 71
0
 42
.2
  3
txt
  4
bigfont
  0
ENDTAB
  0
ENDSEC
  0
SECTION
  2
ENTITIES
  0
ARC
  8
0
 62
4
 10
3.09208136E+01
 20
-2.57744410E+01
 40
1.00000000E+00
 50
3.60000000E+02
 51
9.00000094E+01
  0
ARC
  8
0
 62
4
 10
3.09208136E+01
 20
-3.97744410E+01
 40
1.00000000E+00
 50
2.69999998E+02
 51
2.50447807E-06
  0
ARC
  8
0
 62
4
 10
4.29208136E+01
 20
-4.62744410E+01
 40
1.00000000E+00
 50
8.99999956E+01
 51
1.79999991E+02
  0
ARC
  8
0
 62
4
 10
4.29208136E+01
 20
-1.92744410E+01
 40
1.00000000E+00
 50
1.79999991E+02
 51
2.70000001E+02
  0
LINE
  8
0
 62
4
 10
1.34708014E+01
 20
-5.42244380E+01
 11
1.34708014E+01
 21
-5.13244441E+01
  0
LINE
  8
0
 62
4
 10
1.63708258E+01
 20
-5.42244380E+01
 11
1.63708258E+01
 21
-5.13244441E+01
  0
LINE
  8
0
 62
4
 10
1.49208136E+01
 20
-5.42244380E+01
 11
1.49208136E+01
 21
-5.13244441E+01
  0
LINE
  8
0
 62
4
 10
1.78208075E+01
 20
-5.42244380E+01
 11
1.78208075E+01
 21
-5.13244441E+01
  0
LINE
  8
0
 62
4
 10
1.20208197E+01
 20
-5.42244380E+01
 11
1.78208075E+01
 21
-5.42244380E+01
  0
LINE
  8
0
 62
4
 10
1.20208197E+01
 20
-5.42244380E+01
 11
1.20208197E+01
 21
-5.13244441E+01
  0
LINE
  8
0
 62
4
 10
1.20208197E+01
 20
-5.13244441E+01
 11
1.78208075E+01
 21
-5.13244441E+01
  0
LINE
  8
0
 62
4
 10
1.34708014E+01
 20
-1.42244380E+01
 11
1.34708014E+01
 21
-1.13244441E+01
  0
LINE
  8
0
 62
4
 10
1.63708258E+01
 20
-1.42244380E+01
 11
1.63708258E+01
 21
-1.13244441E+01
  0
LINE
  8
0
 62
4
 10
1.49208136E+01
 20
-1.42244380E+01
 11
1.49208136E+01
 21
-1.13244441E+01
  0
LINE
  8
0
 62
4
 10
1.78208075E+01
 20
-1.42244380E+01
 11
1.78208075E+01
 21
-1.13244441E+01
  0
LINE
  8
0
 62
4
 10
1.20208197E+01
 20
-1.42244380E+01
 11
1.78208075E+01
 21
-1.42244380E+01
  0
LINE
  8
0
 62
4
 10
1.20208197E+01
 20
-1.42244380E+01
 11
1.20208197E+01
 21
-1.13244441E+01
  0
LINE
  8
0
 62
4
 10
1.20208197E+01
 20
-1.13244441E+01
 11
1.78208075E+01
 21
-1.13244441E+01
  0
LINE
  8
0
 62
4
 10
2.09208136E+01
 20
-5.07744410E+01
 11
2.09208136E+01
 21
-5.57744410E+01
  0
LINE
  8
0
 62
4
 10
8.92081363E+00
 20
-5.07744410E+01
 11
8.92081363E+00
 21
-5.57744410E+01
  0
LINE
  8
0
 62
4
 10
8.92081363E+00
 20
-2.37744410E+01
 11
8.92081363E+00
 21
-4.17744410E+01
  0
LINE
  8
0
 62
4
 10
2.09208136E+01
 20
-2.37744410E+01
 11
2.09208136E+01
 21
-4.17744410E+01
  0
LINE
  8
0
 62
4
 10
2.09208135E+01
 20
-5.57744390E+01
 11
1.99208137E+01
 21
-5.67744387E+01
  0
LINE
  8
0
 62
4
 10
9.92081343E+00
 20
-5.67744384E+01
 11
8.92081237E+00
 21
-5.57744372E+01
  0
LINE
  8
0
 62
4
 10
2.09208123E+01
 20
-9.77444060E+00
 11
1.99208111E+01
 21
-8.77443954E+00
  0
LINE
  8
0
 62
4
 10
9.92081086E+00
 20
-8.77443996E+00
 11
8.92081249E+00
 21
-9.77443841E+00
  0
LINE
  8
0
 62
4
 10
9.92081363E+00
 20
-5.67744410E+01
 11
1.99208136E+01
 21
-5.67744410E+01
  0
LINE
  8
0
 62
4
 10
8.92081363E+00
 20
-5.57744410E+01
 11
2.09208136E+01
 21
-5.57744410E+01
  0
LINE
  8
0
 62
4
 10
9.92081363E+00
 20
-8.77444104E+00
 11
1.99208136E+01
 21
-8.77444104E+00
  0
LINE
  8
0
 62
4
 10
8.92081363E+00
 20
-9.77444104E+00
 11
2.09208136E+01
 21
-9.77444104E+00
  0
LINE
  8
0
 62
4
 10
2.09208136E+01
 20
-9.77444104E+00
 11
2.09208136E+01
 21
-1.47744410E+01
  0
LINE
  8
0
 62
4
 10
8.92081363E+00
 20
-9.77444104E+00
 11
8.92081363E+00
 21
-1.47744410E+01
  0
LINE
  8
0
 62
4
 10
3.09208136E+01
 20
-4.07744410E+01
 11
3.09208136E+01
 21
-4.17744410E+01
  0
LINE
  8
0
 62
4
 10
3.19208136E+01
 20
-2.57744410E+01
 11
3.19208136E+01
 21
-3.97744410E+01
  0
LINE
  8
0
 62
4
 10
8.92081534E+00
 20
-5.02744392E+01
 11
8.42081476E+00
 21
-5.07744397E+01
  0
LINE
  8
0
 62
4
 10
8.92080868E+00
 20
-1.52744377E+01
 11
8.42080811E+00
 21
-1.47744372E+01
  0
LINE
  8
0
  6
CENTER
 62
6
 10
-1.31882565E+00
 20
-3.27744410E+01
 11
6.41474410E+01
 21
-3.27744410E+01
  0
LINE
  8
0
 62
4
 10
5.99208123E+01
 20
-4.52744390E+01
 11
6.09208133E+01
 21
-4.42744379E+01
  0
LINE
  8
0
 62
4
 10
5.99208159E+01
 20
-2.02744436E+01
 11
6.09208116E+01
 21
-2.12744394E+01
  0
LINE
  8
0
 62
4
 10
4.29208136E+01
 20
-4.52744410E+01
 11
5.99208136E+01
 21
-4.52744410E+01
  0
LINE
  8
0
 62
4
 10
4.29208136E+01
 20
-2.02744410E+01
 11
5.99208136E+01
 21
-2.02744410E+01
  0
LINE
  8
0
 62
4
 10
4.19208136E+01
 20
-3.63118747E+01
 11
4.19208136E+01
 21
-5.07744410E+01
  0
LINE
  8
0
 62
4
 10
2.42081363E+00
 20
-4.17744410E+01
 11
2.42081363E+00
 21
-5.07744410E+01
  0
LINE
  8
0
 62
4
 10
3.09208136E+01
 20
-2.37744410E+01
 11
3.09208136E+01
 21
-2.47744410E+01
  0
LINE
  8
0
 62
4
 10
2.42081363E+00
 20
-1.47744410E+01
 11
2.42081363E+00
 21
-2.37744410E+01
  0
LINE
  8
0
  6
CENTER
 62
6
 10
1.49208136E+01
 20
-9.64959363E+00
 11
1.49208136E+01
 21
-5.73726657E+01
  0
LINE
  8
0
 62
4
 10
6.09208136E+01
 20
-2.12744410E+01
 11
6.09208136E+01
 21
-4.42744410E+01
  0
LINE
  8
0
  6
CENTER
 62
6
 10
-1.31882565E+00
 20
-3.27744410E+01
 11
6.41474410E+01
 21
-3.27744410E+01
  0
LINE
  8
0
 62
4
 10
4.19208136E+01
 20
-1.47744410E+01
 11
4.19208136E+01
 21
-2.88771174E+01
  0
LINE
  8
0
 62
4
 10
2.42081363E+00
 20
-5.07744410E+01
 11
4.19208136E+01
 21
-5.07744410E+01
  0
LINE
  8
0
 62
4
 10
2.42081363E+00
 20
-4.17744410E+01
 11
3.09208136E+01
 21
-4.17744410E+01
  0
LINE
  8
0
 62
4
 10
2.42081363E+00
 20
-1.47744410E+01
 11
4.19208136E+01
 21
-1.47744410E+01
  0
LINE
  8
0
 62
4
 10
2.42081363E+00
 20
-2.37744410E+01
 11
3.09208136E+01
 21
-2.37744410E+01
  0
ARC
  8
0
 62
4
 10
-6.75496911E+01
 20
-3.27744410E+01
 40
8.00000000E+00
 50
1.38590385E+02
 51
2.21409625E+02
  0
ARC
  8
0
 62
4
 10
-6.75496911E+01
 20
-3.27744410E+01
 40
8.00000000E+00
 50
3.18590380E+02
 51
4.14096167E+01
  0
LINE
  8
0
 62
4
 10
-7.98673333E+01
 20
-1.13244288E+01
 11
-7.98673333E+01
 21
-1.42244532E+01
  0
LINE
  8
0
 62
4
 10
-5.02673578E+01
 20
-1.13244288E+01
 11
-5.02673578E+01
 21
-1.42244532E+01
  0
LINE
  8
0
 62
4
 10
-6.15496911E+01
 20
-1.42244532E+01
 11
-5.02673578E+01
 21
-1.42244532E+01
  0
LINE
  8
0
 62
4
 10
-6.15496911E+01
 20
-1.13244288E+01
 11
-5.02673578E+01
 21
-1.13244288E+01
  0
LINE
  8
0
 62
4
 10
-7.98673333E+01
 20
-1.42244532E+01
 11
-7.35496911E+01
 21
-1.42244532E+01
  0
LINE
  8
0
 62
4
 10
-7.98673333E+01
 20
-1.13244288E+01
 11
-7.35496911E+01
 21
-1.13244288E+01
  0
LINE
  8
0
 62
4
 10
-7.98673333E+01
 20
-5.13244288E+01
 11
-7.98673333E+01
 21
-5.42244532E+01
  0
LINE
  8
0
 62
4
 10
-5.02673578E+01
 20
-5.13244288E+01
 11
-5.02673578E+01
 21
-5.42244532E+01
  0
LINE
  8
0
 62
4
 10
-6.15496911E+01
 20
-5.42244532E+01
 11
-5.02673578E+01
 21
-5.42244532E+01
  0
LINE
  8
0
 62
4
 10
-6.15496911E+01
 20
-5.13244288E+01
 11
-5.02673578E+01
 21
-5.13244288E+01
  0
LINE
  8
0
 62
4
 10
-7.98673333E+01
 20
-5.42244532E+01
 11
-7.35496911E+01
 21
-5.42244532E+01
  0
LINE
  8
0
 62
4
 10
-7.98673333E+01
 20
-5.13244288E+01
 11
-7.35496911E+01
 21
-5.13244288E+01
  0
LINE
  8
0
 62
4
 10
-6.15496911E+01
 20
-4.07744410E+01
 11
-5.50496911E+01
 21
-4.07744410E+01
  0
LINE
  8
0
 62
4
 10
-6.15496911E+01
 20
-2.47744410E+01
 11
-5.50496911E+01
 21
-2.47744410E+01
  0
LINE
  8
0
 62
4
 10
-6.15496943E+01
 20
-5.57744424E+01
 11
-6.25496954E+01
 21
-5.67744435E+01
  0
LINE
  8
0
 62
4
 10
-7.25496903E+01
 20
-5.67744485E+01
 11
-7.35496913E+01
 21
-5.57744473E+01
  0
LINE
  8
0
 62
4
 10
-6.15496952E+01
 20
-9.77444024E+00
 11
-6.25496964E+01
 21
-8.77443918E+00
  0
LINE
  8
0
 62
4
 10
-7.25497020E+01
 20
-8.77443421E+00
 11
-7.35497031E+01
 21
-9.77443535E+00
  0
LINE
  8
0
 62
4
 10
-7.25496911E+01
 20
-5.67744410E+01
 11
-6.25496911E+01
 21
-5.67744410E+01
  0
LINE
  8
0
 62
4
 10
-7.35496911E+01
 20
-5.57744410E+01
 11
-6.15496911E+01
 21
-5.57744410E+01
  0
LINE
  8
0
 62
4
 10
-7.25496911E+01
 20
-8.77444104E+00
 11
-6.25496911E+01
 21
-8.77444104E+00
  0
LINE
  8
0
 62
4
 10
-7.35496911E+01
 20
-9.77444104E+00
 11
-6.15496911E+01
 21
-9.77444104E+00
  0
LINE
  8
0
 62
4
 10
-6.15496911E+01
 20
-9.77444104E+00
 11
-6.15496911E+01
 21
-1.47744410E+01
  0
LINE
  8
0
 62
4
 10
-7.35496911E+01
 20
-9.77444104E+00
 11
-7.35496911E+01
 21
-1.47744410E+01
  0
LINE
  8
0
 62
4
 10
-7.35496911E+01
 20
-2.37744410E+01
 11
-7.35496911E+01
 21
-4.17744410E+01
  0
LINE
  8
0
 62
4
 10
-6.15496911E+01
 20
-2.37744410E+01
 11
-6.15496911E+01
 21
-4.17744410E+01
  0
LINE
  8
0
 62
4
 10
-7.35496911E+01
 20
-5.07744410E+01
 11
-7.35496911E+01
 21
-5.57744410E+01
  0
LINE
  8
0
 62
4
 10
-6.15496911E+01
 20
-5.07744410E+01
 11
-6.15496911E+01
 21
-5.57744410E+01
  0
LINE
  8
0
  6
CENTER
 62
6
 10
-6.75496911E+01
 20
-7.53521374E+00
 11
-6.75496911E+01
 21
-5.90783351E+01
  0
LINE
  8
0
 62
4
 10
-8.00496911E+01
 20
-4.07744410E+01
 11
-7.35496911E+01
 21
-4.07744410E+01
  0
LINE
  8
0
 62
4
 10
-8.00496911E+01
 20
-2.47744410E+01
 11
-7.35496911E+01
 21
-2.47744410E+01
  0
LINE
  8
0
 62
4
 10
-8.00496911E+01
 20
-4.17744410E+01
 11
-5.50496911E+01
 21
-4.17744410E+01
  0
LINE
  8
0
 62
4
 10
-8.00496911E+01
 20
-2.37744410E+01
 11
-5.50496911E+01
 21
-2.37744410E+01
  0
LINE
  8
0
 62
4
 10
-8.00496911E+01
 20
-1.47744410E+01
 11
-8.00496911E+01
 21
-5.07744410E+01
  0
LINE
  8
0
 62
4
 10
-5.50496911E+01
 20
-1.47744410E+01
 11
-5.50496911E+01
 21
-5.07744410E+01
  0
LINE
  8
0
 62
4
 10
-8.00496911E+01
 20
-5.07744410E+01
 11
-5.50496911E+01
 21
-5.07744410E+01
  0
LINE
  8
0
 62
4
 10
-8.00496911E+01
 20
-1.47744410E+01
 11
-5.50496911E+01
 21
-1.47744410E+01
  0
LINE
  8
0
  6
CENTER
 62
6
 10
-8.79623803E+01
 20
-3.27744410E+01
 11
-4.81555566E+01
 21
-3.27744410E+01
  0
ARC
  8
0
 62
4
 10
1.93708258E+01
 20
5.87692601E+01
 40
3.00000000E+00
 50
1.38958724E+02
 51
1.73345775E+02
  0
ARC
  8
0
 62
4
 10
1.49208136E+01
 20
6.26432225E+01
 40
2.89999962E+00
 50
3.18958725E+02
 51
2.21041232E+02
  0
ARC
  8
0
 62
4
 10
1.49208136E+01
 20
6.26432225E+01
 40
1.59999943E+00
 50
3.10705552E+02
 51
2.29294314E+02
  0
ARC
  8
0
 62
4
 10
1.79208136E+01
 20
5.91561010E+01
 40
3.00000000E+00
 50
1.30705779E+02
 51
1.79999964E+02
  0
ARC
  8
0
 62
4
 10
1.19208136E+01
 20
5.91561010E+01
 40
3.00000000E+00
 50
0.00000000E+00
 51
4.92941583E+01
  0
ARC
  8
0
 62
4
 10
1.04708014E+01
 20
5.87692601E+01
 40
3.00000000E+00
 50
6.65420595E+00
 51
4.10412714E+01
  0
CIRCLE
  8
0
 62
4
 10
1.49208136E+01
 20
5.32255590E+01
 40
5.00000000E+00
  0
ARC
  8
0
 62
4
 10
1.49208136E+01
 20
5.32255590E+01
 40
1.25000000E+01
 50
8.99999956E+01
 51
2.63338626E+02
  0
CIRCLE
  8
0
 62
4
 10
1.49208136E+01
 20
5.32255590E+01
 40
6.00000000E+00
  0
LINE
  8
0
 62
4
 10
1.49208136E+01
 20
4.72255590E+01
 11
1.49208136E+01
 21
3.71989324E+01
  0
LINE
  8
0
 62
4
 10
1.56459070E+01
 20
3.91432053E+01
 11
1.63708980E+01
 21
4.03989262E+01
  0
LINE
  8
0
 62
4
 10
1.49208408E+01
 20
4.03989541E+01
 11
1.56458470E+01
 21
3.91432067E+01
  0
LINE
  8
0
 62
4
 10
1.41958194E+01
 20
3.59432257E+01
 11
1.49208256E+01
 21
3.71989731E+01
  0
LINE
  8
0
 62
4
 10
1.34708384E+01
 20
3.71989453E+01
 11
1.41958293E+01
 21
3.59432243E+01
  0
LINE
  8
0
 62
4
 10
1.34708014E+01
 20
4.74034001E+01
 11
1.34708014E+01
 21
3.71989324E+01
  0
LINE
  8
0
 62
4
 10
1.63708258E+01
 20
4.74034001E+01
 11
1.63708258E+01
 21
4.03989293E+01
  0
LINE
  8
0
 62
4
 10
6.09208182E+01
 20
6.47255651E+01
 11
5.99208170E+01
 21
6.57255662E+01
  0
LINE
  8
0
 62
4
 10
4.19208136E+01
 20
6.57255590E+01
 11
4.19208136E+01
 21
4.07255590E+01
  0
LINE
  8
0
 62
4
 10
6.09208196E+01
 20
4.17255600E+01
 11
5.99208185E+01
 21
4.07255590E+01
  0
LINE
  8
0
 62
4
 10
1.49208136E+01
 20
6.57255590E+01
 11
5.99208136E+01
 21
6.57255590E+01
  0
LINE
  8
0
 62
4
 10
1.63708258E+01
 20
4.07255590E+01
 11
5.99208136E+01
 21
4.07255590E+01
  0
LINE
  8
0
 62
4
 10
6.09208136E+01
 20
6.47255590E+01
 11
6.09208136E+01
 21
4.17255590E+01
  0
LINE
  8
0
  6
CENTER
 62
6
 10
1.49208136E+01
 20
6.91586949E+01
 11
1.49208136E+01
 21
3.73433110E+01
  0
LINE
  8
0
  6
CENTER
 62
6
 10
-1.31882565E+00
 20
5.32255590E+01
 11
6.41474410E+01
 21
5.32255590E+01
  0
LINE
  8
0
 62
7
 10
7.33500061E+01
 20
-8.48000031E+01
 11
7.33500061E+01
 21
-9.48000031E+01
  0
LINE
  8
0
 62
7
 10
7.33500061E+01
 20
-8.48000031E+01
 11
1.38350006E+02
 21
-8.48000031E+01
  0
TEXT
  8
0
 62
7
 10
-1.29085994E+02
 20
7.29000001E+01
 40
3.19999981E+00
  1
MODEL:DDA50-Y
 41
1.00000000E+00
  7
MONOTXT
  0
TEXT
  8
0
 62
7
 10
-1.32642850E+02
 20
8.79000001E+01
 40
3.19999981E+00
  1
NEW DYNA CYLINDER
 41
1.07594937E+00
  7
MONOTXT
  0
LINE
  8
0
 62
7
 10
-1.38399994E+02
 20
9.45000000E+01
 11
1.38350006E+02
 21
9.45000000E+01
  0
LINE
  8
0
 62
7
 10
1.38350006E+02
 20
9.45000000E+01
 11
1.38350006E+02
 21
-9.48000031E+01
  0
LINE
  8
0
 62
7
 10
-1.38399994E+02
 20
-9.48000031E+01
 11
1.38350006E+02
 21
-9.48000031E+01
  0
LINE
  8
0
 62
7
 10
-1.38399994E+02
 20
9.45000000E+01
 11
-1.38399994E+02
 21
-9.48000031E+01
  0
LINE
  8
0
 62
7
 10
-1.38399994E+02
 20
8.45000000E+01
 11
-7.33999939E+01
 21
8.45000000E+01
  0
LINE
  8
0
 62
7
 10
7.33500061E+01
 20
8.45000000E+01
 11
1.38350006E+02
 21
8.45000000E+01
  0
LINE
  8
0
 62
7
 10
7.33500061E+01
 20
9.45000000E+01
 11
7.33500061E+01
 21
8.45000000E+01
  0
LINE
  8
0
 62
7
 10
-7.33999939E+01
 20
9.45000000E+01
 11
-7.33999939E+01
 21
8.45000000E+01
  0
TEXT
  8
0
 62
7
 10
7.72426624E+01
 20
-9.20500031E+01
 40
4.50000000E+00
  1
KOGANEI CORP.
 41
1.04838710E+00
  7
MONOTXT
  0
TEXT
  8
0
 62
7
 10
9.35071493E+01
 20
8.79000001E+01
 40
3.19999981E+00
  1
Ver. 1.0
 41
1.08108108E+00
  7
MONOTXT
  0
ENDSEC
  0
EOF
