  0
SECTION
  2
HEADER
  9
$ACADVER
  1
AC1003
  9
$EXTMIN
 10
-1.94250000E+02
 20
-1.33500000E+02
  9
$EXTMAX
 10
1.94800003E+02
 20
1.32600006E+02
  9
$LIMMIN
 10
-1.94251000E+02
 20
-1.33501000E+02
  9
$LIMMAX
 10
1.94801003E+02
 20
1.32601006E+02
  9
$SNAPUNIT
 10
1
 20
1
  9
$SNAPBASE
 10
0
 20
0
  9
$GRIDMODE
 70
0
  9
$GRIDUNIT
 10
0
 20
0
  9
$LTSCALE
 40
6.48416672E+00
  9
$TEXTSIZE
 40
3.2
  9
$DIMTAD
 70
0
  9
$LUNITS
 70
2
  9
$LUPREC
 70
4
  9
$FILLETRAD
 40
0
  9
$AUNITS
 70
0
  9
$AUPREC
 70
0
  0
ENDSEC
  0
SECTION
  2
TABLES
  0
TABLE
  2
LTYPE
 70
2
  0
LTYPE
  2
CONTINUOUS
 70
64
  3
Solid-Line
 72
65
 73
0
 40
0
  0
LTYPE
  2
DASHED
 70
64
  3
DASHED
 72
65
 73
2
 40
.75
 49
.5
 49
-.25
  0
LTYPE
  2
HIDDEN
 70
64
  3
HIDDEN
 72
65
 73
2
 40
.375
 49
.25
 49
-.125
  0
LTYPE
  2
CENTER
 70
64
  3
CENTER
 72
65
 73
4
 40
2
 49
1.25
 49
-.25
 49
.25
 49
-.25
  0
LTYPE
  2
PHANTOM
 70
64
  3
PHANTOM
 72
65
 73
6
 40
2.5
 49
1.25
 49
-.25
 49
.25
 49
-.25
 49
.25
 49
-.25
  0
ENDTAB
  0
TABLE
  2
LAYER
 70
1
  0
LAYER
  2
1
 70
0
 62
7
  6
CONTINUOUS
 0
ENDTAB
  0
TABLE
  2
STYLE
 70
2
  0
STYLE
  2
MONOTXT
 70
0
 40
0
 41
1
 50
0
 71
0
 42
.2
  3
monotxt
  0
STYLE
  2
BIGFONT
 70
0
 40
0
 41
1
 50
0
 71
0
 42
.2
  3
txt
  4
bigfont
  0
ENDTAB
  0
ENDSEC
  0
SECTION
  2
ENTITIES
  0
ARC
  8
0
 62
4
 10
-5.52500076E+01
 20
-5.35000000E+01
 40
1.50000000E+01
 50
2.71406394E+02
 51
2.88593600E+02
  0
ARC
  8
0
 62
4
 10
-5.52500076E+01
 20
-5.35000000E+01
 40
1.50000000E+01
 50
7.14064483E+01
 51
8.85935578E+01
  0
CIRCLE
  8
0
 62
4
 10
-5.52500076E+01
 20
-5.35000000E+01
 40
6.00000000E+00
  0
CIRCLE
  8
0
 62
4
 10
-5.52500076E+01
 20
-5.35000000E+01
 40
7.00000000E+00
  0
ARC
  8
0
 62
4
 10
-6.82500076E+01
 20
-8.15000000E+01
 40
2.00000000E+00
 50
2.70000018E+02
 51
0.00000000E+00
  0
ARC
  8
0
 62
4
 10
-6.82500076E+01
 20
-2.55000000E+01
 40
2.00000000E+00
 50
0.00000000E+00
 51
8.99999818E+01
  0
ARC
  8
0
 62
4
 10
-6.22500076E+01
 20
-3.31436157E+01
 40
4.00000000E+00
 50
1.79999995E+02
 51
2.60000075E+02
  0
ARC
  8
0
 62
4
 10
-6.22500076E+01
 20
-7.38563995E+01
 40
4.00000000E+00
 50
9.99999798E+01
 51
1.80000005E+02
  0
ARC
  8
0
 62
4
 10
-4.82500076E+01
 20
-5.92027130E+01
 40
8.00000000E+00
 50
2.80000016E+02
 51
3.59999974E+02
  0
ARC
  8
0
 62
4
 10
-4.82500076E+01
 20
-4.77973175E+01
 40
8.00000000E+00
 50
3.59999904E+02
 51
7.99999839E+01
  0
LINE
  8
0
 62
4
 10
-7.42500000E+01
 20
-8.35000038E+01
 11
-6.82500076E+01
 21
-8.35000038E+01
  0
LINE
  8
0
  6
CENTER
 62
6
 10
-5.52500076E+01
 20
-4.41790771E+01
 11
-5.52500076E+01
 21
-6.38925858E+01
  0
LINE
  8
0
  6
CENTER
 62
6
 10
-7.75760498E+01
 20
-5.35000000E+01
 11
-3.53388519E+01
 21
-5.35000000E+01
  0
LINE
  8
0
 62
4
 10
-7.42500000E+01
 20
-2.35000000E+01
 11
-6.82500076E+01
 21
-2.35000000E+01
  0
LINE
  8
0
 62
4
 10
-4.02500076E+01
 20
-4.77973175E+01
 11
-4.02500076E+01
 21
-5.92027130E+01
  0
LINE
  8
0
 62
4
 10
-6.62500076E+01
 20
-2.55000000E+01
 11
-6.62500076E+01
 21
-8.15000000E+01
  0
LINE
  8
0
  6
CENTER
 62
6
 10
-6.12038651E+01
 20
-7.69999847E+01
 11
-7.87956085E+01
 21
-7.69999847E+01
  0
LINE
  8
0
 62
4
 10
-6.29446072E+01
 20
-3.70828358E+01
 11
-4.68608234E+01
 21
-3.99188400E+01
  0
LINE
  8
0
 62
4
 10
-7.42500000E+01
 20
-8.35000038E+01
 11
-7.42500000E+01
 21
-2.35000000E+01
  0
LINE
  8
0
  6
CENTER
 62
6
 10
-6.12038651E+01
 20
-3.00000153E+01
 11
-7.69090424E+01
 21
-3.00000153E+01
  0
LINE
  8
0
 62
4
 10
-6.29446497E+01
 20
-6.99171698E+01
 11
-4.68449222E+01
 21
-6.70783543E+01
  0
ARC
  8
0
 62
4
 10
-6.17500076E+01
 20
-8.57917976E+01
 40
5.00000000E+00
 50
2.86601585E+02
 51
3.34750192E+02
  0
ARC
  8
0
 62
4
 10
-5.97500076E+01
 20
-9.25000038E+01
 40
2.00000000E+00
 50
8.99999818E+01
 51
1.79999964E+02
  0
ARC
  8
0
 62
4
 10
9.24999237E+00
 20
-9.25000038E+01
 40
2.00000000E+00
 50
3.59721781E-05
 51
8.99999818E+01
  0
ARC
  8
0
 62
4
 10
-7.28550186E+01
 20
-8.05543785E+01
 40
1.72780991E+01
 50
3.34750192E+02
 51
4.04437871E+01
  0
LINE
  8
0
  6
CENTER
 62
6
 10
-4.52500076E+01
 20
-1.01651386E+02
 11
-4.52500076E+01
 21
-8.63164558E+01
  0
LINE
  8
0
  6
CENTER
 62
6
 10
-5.25000763E+00
 20
-1.01651386E+02
 11
-5.25000763E+00
 21
-8.63164558E+01
  0
LINE
  8
0
 62
4
 10
-4.03398360E+01
 20
-4.66018325E+01
 11
1.05847228E+01
 21
-9.10105592E+01
  0
LINE
  8
0
 62
4
 10
-6.00669327E+01
 20
-9.05000038E+01
 11
9.24999237E+00
 21
-9.05000038E+01
  0
LINE
  8
0
 62
4
 10
-6.17500076E+01
 20
-9.85000038E+01
 11
1.12499924E+01
 21
-9.85000038E+01
  0
LINE
  8
0
 62
4
 10
-6.17500076E+01
 20
-9.85000038E+01
 11
-6.17500076E+01
 21
-9.25000038E+01
  0
LINE
  8
0
 62
4
 10
1.12499924E+01
 20
-9.85000038E+01
 11
1.12499924E+01
 21
-9.25000038E+01
  0
LINE
  8
0
 62
4
 10
1.04210608E+02
 20
-8.35000038E+01
 11
1.19150025E+02
 21
-8.35000038E+01
  0
LINE
  8
0
 62
4
 10
1.03750000E+02
 20
-7.25000000E+01
 11
1.05750000E+02
 21
-7.25000000E+01
  0
LINE
  8
0
 62
4
 10
6.57499986E+01
 20
-4.65000000E+01
 11
6.57499986E+01
 21
-3.01000061E+01
  0
LINE
  8
0
 62
4
 10
1.25750000E+02
 20
-4.65000000E+01
 11
1.25750000E+02
 21
-3.01000061E+01
  0
LINE
  8
0
 62
4
 10
1.22250000E+02
 20
-6.05000000E+01
 11
1.27750000E+02
 21
-6.05000000E+01
  0
LINE
  8
0
 62
4
 10
1.22250000E+02
 20
-4.65000000E+01
 11
1.27750000E+02
 21
-4.65000000E+01
  0
LINE
  8
0
 62
4
 10
1.27750000E+02
 20
-6.05000000E+01
 11
1.28750000E+02
 21
-5.95000000E+01
  0
LINE
  8
0
 62
4
 10
1.28750000E+02
 20
-4.75000000E+01
 11
1.27750000E+02
 21
-4.65000000E+01
  0
LINE
  8
0
 62
4
 10
1.27750000E+02
 20
-6.05000000E+01
 11
1.27750000E+02
 21
-4.65000000E+01
  0
LINE
  8
0
 62
4
 10
1.28750000E+02
 20
-5.95000000E+01
 11
1.28750000E+02
 21
-4.75000000E+01
  0
LINE
  8
0
 62
4
 10
6.27500000E+01
 20
-5.95000000E+01
 11
6.37500000E+01
 21
-6.05000000E+01
  0
LINE
  8
0
 62
4
 10
6.37500000E+01
 20
-4.65000000E+01
 11
6.27500000E+01
 21
-4.75000000E+01
  0
LINE
  8
0
 62
4
 10
6.37500000E+01
 20
-6.05000000E+01
 11
6.37500000E+01
 21
-4.65000000E+01
  0
LINE
  8
0
 62
4
 10
6.27500000E+01
 20
-5.95000000E+01
 11
6.27500000E+01
 21
-4.75000000E+01
  0
CIRCLE
  8
0
 62
4
 10
1.19250000E+02
 20
-7.70000000E+01
 40
2.75000000E+00
  0
CIRCLE
  8
0
 62
4
 10
1.19250000E+02
 20
-3.00000000E+01
 40
2.75000000E+00
  0
CIRCLE
  8
0
 62
4
 10
7.22500005E+01
 20
-3.00000000E+01
 40
2.75000000E+00
  0
CIRCLE
  8
0
 62
4
 10
7.22500005E+01
 20
-7.70000000E+01
 40
2.75000000E+00
  0
ARC
  8
0
 62
4
 10
1.19150025E+02
 20
-3.01000061E+01
 40
6.59999943E+00
 50
3.59721781E-05
 51
8.99999818E+01
  0
ARC
  8
0
 62
4
 10
1.19150025E+02
 20
-7.68999939E+01
 40
6.59999943E+00
 50
2.70000018E+02
 51
3.59721781E-05
  0
ARC
  8
0
 62
4
 10
7.23499761E+01
 20
-7.68999939E+01
 40
6.59999943E+00
 50
1.80000036E+02
 51
2.70000018E+02
  0
ARC
  8
0
 62
4
 10
1.05750000E+02
 20
-3.65000000E+01
 40
2.00000000E+00
 50
3.59721781E-05
 51
8.99999818E+01
  0
ARC
  8
0
 62
4
 10
8.57500005E+01
 20
-3.65000000E+01
 40
2.00000000E+00
 50
8.99999818E+01
 51
1.79999964E+02
  0
ARC
  8
0
 62
4
 10
8.57500005E+01
 20
-7.05000000E+01
 40
2.00000000E+00
 50
1.80000036E+02
 51
2.70000018E+02
  0
ARC
  8
0
 62
4
 10
1.05750000E+02
 20
-7.05000000E+01
 40
2.00000000E+00
 50
2.70000018E+02
 51
3.59721781E-05
  0
ARC
  8
0
 62
4
 10
7.23499761E+01
 20
-3.01000061E+01
 40
6.59999943E+00
 50
8.99999818E+01
 51
1.79999964E+02
  0
LINE
  8
0
 62
4
 10
1.22250000E+02
 20
-7.03923035E+01
 11
1.22250000E+02
 21
-3.66077271E+01
  0
LINE
  8
0
  6
DASHED
 62
6
 10
1.07750000E+02
 20
-3.66077271E+01
 11
1.07750000E+02
 21
-3.65000000E+01
  0
LINE
  8
0
  6
CENTER
 62
6
 10
1.19250000E+02
 20
-8.37999916E+01
 11
1.19250000E+02
 21
-7.10000000E+01
  0
LINE
  8
0
  6
CENTER
 62
6
 10
5.94136949E+01
 20
-5.35000000E+01
 11
1.31725279E+02
 21
-5.35000000E+01
  0
LINE
  8
0
  6
CENTER
 62
6
 10
1.13250000E+02
 20
-7.70000000E+01
 11
1.26750000E+02
 21
-7.70000000E+01
  0
LINE
  8
0
 62
4
 10
1.07750000E+02
 20
-7.05000000E+01
 11
1.07750000E+02
 21
-7.03923035E+01
  0
LINE
  8
0
 62
4
 10
1.05750000E+02
 20
-7.03923035E+01
 11
1.05750000E+02
 21
-3.66077271E+01
  0
LINE
  8
0
 62
4
 10
6.71422843E+01
 20
-3.44999923E+01
 11
6.92500100E+01
 21
-3.66077174E+01
  0
LINE
  8
0
 62
4
 10
1.23857618E+02
 20
-7.25000145E+01
 11
1.21749946E+02
 21
-7.03923218E+01
  0
LINE
  8
0
 62
4
 10
8.57500005E+01
 20
-3.45000000E+01
 11
1.05750000E+02
 21
-3.45000000E+01
  0
LINE
  8
0
  6
CENTER
 62
6
 10
6.47499986E+01
 20
-7.70000000E+01
 11
7.94931035E+01
 21
-7.70000000E+01
  0
LINE
  8
0
 62
4
 10
7.23499761E+01
 20
-2.35000000E+01
 11
1.19150025E+02
 21
-2.35000000E+01
  0
LINE
  8
0
 62
4
 10
8.57500005E+01
 20
-7.25000000E+01
 11
8.77500305E+01
 21
-7.25000000E+01
  0
LINE
  8
0
  6
CENTER
 62
6
 10
1.19250000E+02
 20
-3.60000000E+01
 11
1.19250000E+02
 21
-2.32000122E+01
  0
LINE
  8
0
 62
4
 10
8.57500005E+01
 20
-7.03923035E+01
 11
8.57500005E+01
 21
-3.66077271E+01
  0
LINE
  8
0
  6
CENTER
 62
6
 10
6.47499986E+01
 20
-3.00000000E+01
 11
7.82500005E+01
 21
-3.00000000E+01
  0
LINE
  8
0
 62
4
 10
1.24357724E+02
 20
-3.45000261E+01
 11
1.22249998E+02
 21
-3.66077512E+01
  0
LINE
  8
0
  6
CENTER
 62
6
 10
1.11271546E+02
 20
-3.00000000E+01
 11
1.26750000E+02
 21
-3.00000000E+01
  0
LINE
  8
0
 62
4
 10
6.37500000E+01
 20
-4.65000000E+01
 11
6.92500005E+01
 21
-4.65000000E+01
  0
LINE
  8
0
 62
4
 10
6.37500000E+01
 20
-6.05000000E+01
 11
6.92500005E+01
 21
-6.05000000E+01
  0
LINE
  8
0
 62
4
 10
1.05750000E+02
 20
-3.66077271E+01
 11
1.22250000E+02
 21
-3.66077271E+01
  0
LINE
  8
0
 62
4
 10
1.05750000E+02
 20
-7.03923035E+01
 11
1.22250000E+02
 21
-7.03923035E+01
  0
LINE
  8
0
  6
CENTER
 62
6
 10
9.57500000E+01
 20
-8.69341927E+01
 11
9.57500000E+01
 21
-1.93905334E+01
  0
LINE
  8
0
  6
CENTER
 62
6
 10
7.22500005E+01
 20
-3.60000000E+01
 11
7.22500005E+01
 21
-2.32000122E+01
  0
LINE
  8
0
 62
4
 10
6.57499986E+01
 20
-7.69177399E+01
 11
6.57499986E+01
 21
-6.05000000E+01
  0
LINE
  8
0
  6
DASHED
 62
6
 10
8.37500005E+01
 20
-3.66077271E+01
 11
8.37500005E+01
 21
-3.65000000E+01
  0
LINE
  8
0
 62
4
 10
6.76423696E+01
 20
-7.24999830E+01
 11
6.97500429E+01
 21
-7.03922890E+01
  0
LINE
  8
0
 62
4
 10
1.25750000E+02
 20
-7.69177399E+01
 11
1.25750000E+02
 21
-6.05000000E+01
  0
LINE
  8
0
 62
4
 10
7.23499761E+01
 20
-8.35000038E+01
 11
8.72893872E+01
 21
-8.35000038E+01
  0
LINE
  8
0
 62
4
 10
8.37500005E+01
 20
-7.05000000E+01
 11
8.37500005E+01
 21
-7.03923035E+01
  0
LINE
  8
0
  6
CENTER
 62
6
 10
7.22500005E+01
 20
-8.37999916E+01
 11
7.22500005E+01
 21
-6.85429840E+01
  0
LINE
  8
0
 62
4
 10
6.92500005E+01
 20
-7.03923035E+01
 11
8.57500005E+01
 21
-7.03923035E+01
  0
LINE
  8
0
 62
4
 10
6.92500005E+01
 20
-3.66077271E+01
 11
8.57500005E+01
 21
-3.66077271E+01
  0
LINE
  8
0
 62
4
 10
6.92500005E+01
 20
-7.03923035E+01
 11
6.92500005E+01
 21
-3.66077271E+01
  0
ARC
  8
0
 62
4
 10
1.06778900E+02
 20
-4.51696167E+01
 40
3.00000000E+00
 50
1.10057570E+02
 51
1.80147319E+02
  0
ARC
  8
0
 62
4
 10
8.47785034E+01
 20
-4.51696167E+01
 40
3.00000000E+00
 50
7.90415275E+00
 51
7.11051109E+01
  0
ARC
  8
0
 62
4
 10
8.47500000E+01
 20
-7.13283997E+01
 40
3.00000000E+00
 50
3.59999963E+02
 51
7.05285881E+01
  0
ARC
  8
0
 62
4
 10
4.52500000E+01
 20
-9.24999886E+01
 40
2.00000000E+00
 50
8.99999274E+01
 51
1.79999964E+02
  0
ARC
  8
0
 62
4
 10
7.77500000E+01
 20
-8.04999886E+01
 40
1.00000000E+01
 50
2.70000018E+02
 51
3.59999891E+02
  0
ARC
  8
0
 62
4
 10
1.06750000E+02
 20
-7.13284149E+01
 40
3.00000000E+00
 50
1.09471267E+02
 51
1.79999964E+02
  0
ARC
  8
0
 62
4
 10
1.46249999E+02
 20
-9.25000038E+01
 40
2.00000000E+00
 50
1.79860890E-05
 51
8.99999818E+01
  0
ARC
  8
0
 62
4
 10
1.13750000E+02
 20
-8.05000038E+01
 40
1.00000000E+01
 50
1.79999964E+02
 51
2.69999946E+02
  0
LINE
  8
0
  6
CENTER
 62
6
 10
1.35749999E+02
 20
-1.01651371E+02
 11
1.35749999E+02
 21
-8.63164406E+01
  0
LINE
  8
0
  6
CENTER
 62
6
 10
5.57500000E+01
 20
-1.01651371E+02
 11
5.57500000E+01
 21
-8.63164406E+01
  0
LINE
  8
0
 62
4
 10
4.32500305E+01
 20
-9.24999886E+01
 11
4.32500305E+01
 21
-9.84999886E+01
  0
LINE
  8
0
 62
4
 10
8.77500305E+01
 20
-4.47570648E+01
 11
8.77500305E+01
 21
-8.04999886E+01
  0
LINE
  8
0
 62
4
 10
9.57500606E+01
 20
-3.84999345E+01
 11
8.57500399E+01
 21
-3.87617901E+01
  0
LINE
  8
0
 62
4
 10
7.77500305E+01
 20
-9.04999886E+01
 11
4.52500305E+01
 21
-9.04999886E+01
  0
LINE
  8
0
 62
4
 10
1.05750034E+02
 20
-3.87618025E+01
 11
9.57500441E+01
 21
-3.84999477E+01
  0
LINE
  8
0
 62
4
 10
1.03750000E+02
 20
-8.04999886E+01
 11
1.03750000E+02
 21
-4.51696167E+01
  0
LINE
  8
0
 62
4
 10
1.48250000E+02
 20
-9.84999886E+01
 11
1.48250000E+02
 21
-9.24999886E+01
  0
LINE
  8
0
 62
4
 10
1.46249999E+02
 20
-9.04999886E+01
 11
1.13750000E+02
 21
-9.04999886E+01
  0
LINE
  8
0
 62
4
 10
1.48250000E+02
 20
-9.84999886E+01
 11
4.32500305E+01
 21
-9.84999886E+01
  0
ARC
  8
0
 62
4
 10
-4.52500171E+01
 20
1.06500007E+02
 40
1.20000000E+01
 50
2.55522501E+02
 51
2.15685349E+02
  0
LINE
  8
0
 62
4
 10
-4.82500139E+01
 20
9.30000061E+01
 11
-4.82500152E+01
 21
9.85000061E+01
  0
LINE
  8
0
 62
4
 10
-6.22500139E+01
 20
9.30000028E+01
 11
-6.22500152E+01
 21
9.85000028E+01
  0
LINE
  8
0
 62
4
 10
-6.22500001E+01
 20
3.45000028E+01
 11
-4.82500001E+01
 21
3.45000061E+01
  0
LINE
  8
0
 62
4
 10
-6.22500152E+01
 20
9.85000028E+01
 11
-4.82500152E+01
 21
9.85000061E+01
  0
LINE
  8
0
 62
4
 10
-4.92499998E+01
 20
3.35000059E+01
 11
-4.82500001E+01
 21
3.45000061E+01
  0
LINE
  8
0
 62
4
 10
-6.22500001E+01
 20
3.45000028E+01
 11
-6.12499998E+01
 21
3.35000031E+01
  0
LINE
  8
0
 62
4
 10
-6.12500154E+01
 20
9.95000031E+01
 11
-6.22500152E+01
 21
9.85000028E+01
  0
LINE
  8
0
 62
4
 10
-4.82500152E+01
 20
9.85000061E+01
 11
-4.92500154E+01
 21
9.95000059E+01
  0
LINE
  8
0
 62
4
 10
-6.12499998E+01
 20
3.35000031E+01
 11
-4.92499998E+01
 21
3.35000059E+01
  0
LINE
  8
0
 62
4
 10
-6.12500154E+01
 20
9.95000031E+01
 11
-4.92500154E+01
 21
9.95000059E+01
  0
ARC
  8
0
 62
4
 10
-4.22500134E+01
 20
9.10000076E+01
 40
2.00000000E+00
 50
3.59999996E+02
 51
8.99999412E+01
  0
ARC
  8
0
 62
4
 10
-4.22500018E+01
 20
4.20000076E+01
 40
2.00000000E+00
 50
2.70000031E+02
 51
3.59999996E+02
  0
ARC
  8
0
 62
4
 10
-6.82500142E+01
 20
9.45000014E+01
 40
2.00000000E+00
 50
3.59999996E+02
 51
8.99999412E+01
  0
ARC
  8
0
 62
4
 10
-6.82500010E+01
 20
3.85000014E+01
 40
2.00000000E+00
 50
2.70000031E+02
 51
3.59999996E+02
  0
LINE
  8
0
 62
4
 10
-4.02500134E+01
 20
9.10000080E+01
 11
-4.02500100E+01
 21
7.65000080E+01
  0
LINE
  8
0
 62
4
 10
-6.82500147E+01
 20
9.65000014E+01
 11
-7.42500071E+01
 21
9.65000000E+01
  0
LINE
  8
0
 62
4
 10
-6.82500005E+01
 20
3.65000014E+01
 11
-7.42499929E+01
 21
3.65000000E+01
  0
LINE
  8
0
 62
4
 10
-7.42499929E+01
 20
3.65000000E+01
 11
-7.42500071E+01
 21
9.65000000E+01
  0
LINE
  8
0
 62
4
 10
-6.62500142E+01
 20
9.45000019E+01
 11
-6.62500010E+01
 21
3.85000019E+01
  0
LINE
  8
0
  6
CENTER
 62
6
 10
-6.37150976E+01
 20
4.30000025E+01
 11
-7.59145452E+01
 21
4.29999996E+01
  0
LINE
  8
0
  6
CENTER
 62
6
 10
-6.46685770E+01
 20
8.99999412E+01
 11
-7.52466181E+01
 21
8.99999387E+01
  0
LINE
  8
0
 62
4
 10
-4.22500139E+01
 20
9.30000076E+01
 11
-6.62500139E+01
 21
9.30000019E+01
  0
LINE
  8
0
  6
CENTER
 62
6
 10
-8.41971436E+01
 20
6.64999977E+01
 11
-3.42562332E+01
 21
6.65000094E+01
  0
LINE
  8
0
 62
4
 10
-4.22500014E+01
 20
4.00000076E+01
 11
-6.62500014E+01
 21
4.00000019E+01
  0
LINE
  8
0
 62
4
 10
-6.22500001E+01
 20
3.45000028E+01
 11
-6.22500014E+01
 21
4.00000028E+01
  0
LINE
  8
0
 62
4
 10
-6.42499854E+01
 20
5.65000492E+01
 11
-6.62499870E+01
 21
5.45000464E+01
  0
LINE
  8
0
 62
4
 10
-6.42499721E+01
 20
7.65000470E+01
 11
-6.62500180E+01
 21
7.85000918E+01
  0
LINE
  8
0
 62
4
 10
-4.02500053E+01
 20
5.65000080E+01
 11
-4.02500018E+01
 21
4.20000080E+01
  0
LINE
  8
0
  6
CENTER
 62
6
 10
-5.52500150E+01
 20
9.77612350E+01
 11
-5.52500006E+01
 21
3.67855880E+01
  0
LINE
  8
0
 62
4
 10
-4.82500001E+01
 20
3.45000061E+01
 11
-4.82500014E+01
 21
4.00000061E+01
  0
ARC
  8
0
 62
4
 10
-4.24110515E+01
 20
7.75000075E+01
 40
3.00000000E+00
 50
1.99471279E+02
 51
2.69999977E+02
  0
ARC
  8
0
 62
4
 10
-3.74216106E+01
 20
7.75000087E+01
 40
3.00000000E+00
 50
1.99471279E+02
 51
2.69999977E+02
  0
ARC
  8
0
 62
4
 10
6.74998977E+00
 20
7.75000191E+01
 40
3.00000000E+00
 50
2.69999977E+02
 51
3.59999923E+02
  0
CIRCLE
  8
0
 62
4
 10
-4.52500171E+01
 20
1.06500007E+02
 40
5.50000000E+00
  0
CIRCLE
  8
0
 62
4
 10
-5.25001708E+00
 20
1.06500016E+02
 40
1.20000000E+01
  0
CIRCLE
  8
0
 62
4
 10
-5.25001708E+00
 20
1.06500016E+02
 40
5.50000000E+00
  0
ARC
  8
0
 62
4
 10
-5.53792303E+01
 20
1.14000004E+02
 40
5.00000000E+00
 50
8.99999412E+01
 51
1.78500013E+02
  0
ARC
  8
0
 62
4
 10
4.87919258E+00
 20
1.14000019E+02
 40
5.00000000E+00
 50
1.50001357E+00
 51
9.00000500E+01
  0
ARC
  8
0
 62
4
 10
-4.24110463E+01
 20
5.55000075E+01
 40
3.00000000E+00
 50
8.99999956E+01
 51
1.60528748E+02
  0
ARC
  8
0
 62
4
 10
-3.74216054E+01
 20
5.55000087E+01
 40
3.00000000E+00
 50
8.99999956E+01
 51
1.60528748E+02
  0
CIRCLE
  8
0
 62
4
 10
-5.52500076E+01
 20
6.65000045E+01
 40
1.50000000E+00
  0
CIRCLE
  8
0
 62
4
 10
-5.52500076E+01
 20
6.65000045E+01
 40
3.00000000E+00
  0
ARC
  8
0
 62
4
 10
6.74999497E+00
 20
5.55000191E+01
 40
3.00000000E+00
 50
4.95030590E-05
 51
8.99999956E+01
  0
ARC
  8
0
 62
4
 10
-4.52499982E+01
 20
2.65000068E+01
 40
1.20000000E+01
 50
1.44314679E+02
 51
1.04477526E+02
  0
CIRCLE
  8
0
 62
4
 10
-4.52499982E+01
 20
2.65000068E+01
 40
5.50000000E+00
  0
CIRCLE
  8
0
 62
4
 10
-5.24999818E+00
 20
2.65000163E+01
 40
1.20000000E+01
  0
CIRCLE
  8
0
 62
4
 10
-5.24999818E+00
 20
2.65000163E+01
 40
5.50000000E+00
  0
ARC
  8
0
 62
4
 10
-5.53792078E+01
 20
1.90000045E+01
 40
5.00000000E+00
 50
1.81500014E+02
 51
2.70000086E+02
  0
ARC
  8
0
 62
4
 10
4.87921501E+00
 20
1.90000187E+01
 40
5.00000000E+00
 50
2.69999977E+02
 51
3.58500013E+02
  0
LINE
  8
0
 62
4
 10
-4.02500100E+01
 20
7.65000080E+01
 11
-6.62500100E+01
 21
7.65000019E+01
  0
LINE
  8
0
 62
4
 10
6.74999048E+00
 20
7.45000191E+01
 11
-4.24110508E+01
 21
7.45000075E+01
  0
LINE
  8
0
  6
CENTER
 62
6
 10
-4.52500206E+01
 20
1.21500007E+02
 11
-4.52500135E+01
 21
9.15000068E+01
  0
LINE
  8
0
  6
CENTER
 62
6
 10
-3.02500171E+01
 20
1.06500010E+02
 11
-6.02500171E+01
 21
1.06500003E+02
  0
LINE
  8
0
  6
CENTER
 62
6
 10
-5.25001353E+00
 20
9.15000163E+01
 11
-5.25002062E+00
 21
1.21500016E+02
  0
LINE
  8
0
  6
CENTER
 62
6
 10
9.74998292E+00
 20
1.06500020E+02
 11
-2.02500171E+01
 21
1.06500013E+02
  0
LINE
  8
0
 62
4
 10
9.87744433E+00
 20
1.14130864E+02
 11
1.11247092E+01
 21
6.65000053E+01
  0
LINE
  8
0
 62
4
 10
-6.03774957E+01
 20
1.14130847E+02
 11
-6.07606131E+01
 21
9.95000032E+01
  0
LINE
  8
0
 62
4
 10
4.87919140E+00
 20
1.19000019E+02
 11
-5.53792315E+01
 21
1.19000004E+02
  0
LINE
  8
0
 62
4
 10
-6.62500053E+01
 20
5.65000019E+01
 11
-4.02500053E+01
 21
5.65000080E+01
  0
LINE
  8
0
 62
4
 10
-4.24110470E+01
 20
5.85000075E+01
 11
6.74999426E+00
 21
5.85000191E+01
  0
LINE
  8
0
  6
CENTER
 62
6
 10
-4.52500017E+01
 20
4.15000068E+01
 11
-4.52499946E+01
 21
1.15000068E+01
  0
LINE
  8
0
  6
CENTER
 62
6
 10
-6.02499982E+01
 20
2.65000033E+01
 11
-3.02499982E+01
 21
2.65000104E+01
  0
LINE
  8
0
  6
CENTER
 62
6
 10
-5.24999464E+00
 20
1.15000163E+01
 11
-5.25000173E+00
 21
4.15000163E+01
  0
LINE
  8
0
  6
CENTER
 62
6
 10
-2.02499982E+01
 20
2.65000128E+01
 11
9.75000182E+00
 21
2.65000198E+01
  0
LINE
  8
0
 62
4
 10
1.11247092E+01
 20
6.64999955E+01
 11
9.87746685E+00
 21
1.88691360E+01
  0
LINE
  8
0
 62
4
 10
-6.07606138E+01
 20
3.35000032E+01
 11
-6.03774885E+01
 21
1.88691197E+01
  0
LINE
  8
0
 62
4
 10
-5.53792067E+01
 20
1.40000045E+01
 11
4.87921619E+00
 21
1.40000187E+01
  0
LINE
  8
0
 62
7
 10
1.09800003E+02
 20
-1.18500000E+02
 11
1.09800003E+02
 21
-1.33500000E+02
  0
LINE
  8
0
 62
7
 10
1.09800003E+02
 20
-1.18500000E+02
 11
1.94800003E+02
 21
-1.18500000E+02
  0
TEXT
  8
0
 62
7
 10
1.15249715E+02
 20
-1.29150000E+02
 40
6.30000019E+00
  1
KOGANEI CORP.
 41
1.04838725E+00
  7
MONOTXT
  0
TEXT
  8
0
 62
7
 10
1.34942863E+02
 20
1.22850006E+02
 40
4.50000000E+00
  1
Ver. 1.0
 41
1.08108085E+00
  7
MONOTXT
  0
LINE
  8
0
 62
7
 10
1.09800003E+02
 20
1.32600006E+02
 11
1.09800003E+02
 21
1.17600006E+02
  0
LINE
  8
0
 62
7
 10
1.09800003E+02
 20
1.17600006E+02
 11
1.94800003E+02
 21
1.17600006E+02
  0
TEXT
  8
0
 62
7
 10
-1.89357136E+02
 20
1.22850006E+02
 40
4.50000000E+00
  1
NEW DYNA CYLINDER
 41
1.07594914E+00
  7
MONOTXT
  0
LINE
  8
0
 62
7
 10
-1.94250000E+02
 20
1.17600006E+02
 11
-1.09250000E+02
 21
1.17600006E+02
  0
LINE
  8
0
 62
7
 10
-1.09250000E+02
 20
1.32600006E+02
 11
-1.09250000E+02
 21
1.17600006E+02
  0
TEXT
  8
0
 62
7
 10
-1.85214688E+02
 20
1.05350006E+02
 40
4.50000000E+00
  1
MODEL:DDA50-7C
 41
1.00000000E+00
  7
MONOTXT
  0
LINE
  8
0
 62
7
 10
-1.94250000E+02
 20
1.32600006E+02
 11
1.94800003E+02
 21
1.32600006E+02
  0
LINE
  8
0
 62
7
 10
1.94800003E+02
 20
1.32600006E+02
 11
1.94800003E+02
 21
-1.33500000E+02
  0
LINE
  8
0
 62
7
 10
-1.94250000E+02
 20
1.32600006E+02
 11
-1.94250000E+02
 21
-1.33500000E+02
  0
LINE
  8
0
 62
7
 10
-1.94250000E+02
 20
-1.33500000E+02
 11
1.94800003E+02
 21
-1.33500000E+02
  0
ENDSEC
  0
EOF
