  0
SECTION
  2
HEADER
  9
$ACADVER
  1
AC1003
  9
$EXTMIN
 10
-2.81250000E+02
 20
-1.99184163E+02
  9
$EXTMAX
 10
2.82099854E+02
 20
1.95500000E+02
  9
$LIMMIN
 10
-2.81251000E+02
 20
-1.99185163E+02
  9
$LIMMAX
 10
2.82100854E+02
 20
1.95501000E+02
  9
$SNAPUNIT
 10
1
 20
1
  9
$SNAPBASE
 10
0
 20
0
  9
$GRIDMODE
 70
0
  9
$GRIDUNIT
 10
0
 20
0
  9
$LTSCALE
 40
9.38916423E+00
  9
$TEXTSIZE
 40
3.2
  9
$DIMTAD
 70
0
  9
$LUNITS
 70
2
  9
$LUPREC
 70
4
  9
$FILLETRAD
 40
0
  9
$AUNITS
 70
0
  9
$AUPREC
 70
0
  0
ENDSEC
  0
SECTION
  2
TABLES
  0
TABLE
  2
LTYPE
 70
2
  0
LTYPE
  2
CONTINUOUS
 70
64
  3
Solid-Line
 72
65
 73
0
 40
0
  0
LTYPE
  2
DASHED
 70
64
  3
DASHED
 72
65
 73
2
 40
.75
 49
.5
 49
-.25
  0
LTYPE
  2
HIDDEN
 70
64
  3
HIDDEN
 72
65
 73
2
 40
.375
 49
.25
 49
-.125
  0
LTYPE
  2
CENTER
 70
64
  3
CENTER
 72
65
 73
4
 40
2
 49
1.25
 49
-.25
 49
.25
 49
-.25
  0
LTYPE
  2
PHANTOM
 70
64
  3
PHANTOM
 72
65
 73
6
 40
2.5
 49
1.25
 49
-.25
 49
.25
 49
-.25
 49
.25
 49
-.25
  0
ENDTAB
  0
TABLE
  2
LAYER
 70
1
  0
LAYER
  2
1
 70
0
 62
7
  6
CONTINUOUS
 0
ENDTAB
  0
TABLE
  2
STYLE
 70
2
  0
STYLE
  2
MONOTXT
 70
0
 40
0
 41
1
 50
0
 71
0
 42
.2
  3
monotxt
  0
STYLE
  2
BIGFONT
 70
0
 40
0
 41
1
 50
0
 71
0
 42
.2
  3
txt
  4
bigfont
  0
ENDTAB
  0
ENDSEC
  0
SECTION
  2
ENTITIES
  0
LINE
  8
0
  6
CENTER
 62
6
 10
6.18622078E+01
 20
-7.91577714E+01
 11
1.05866845E+02
 21
-7.92108040E+01
  0
LINE
  8
0
  6
CENTER
 62
6
 10
1.03669281E+02
 20
-1.02708157E+02
 11
6.43130204E+01
 21
-1.02660727E+02
  0
LINE
  8
0
  6
CENTER
 62
6
 10
1.01866572E+02
 20
-5.57059812E+01
 11
6.46795551E+01
 21
-5.56611650E+01
  0
LINE
  8
0
 62
4
 10
7.07537147E+01
 20
-6.41684762E+01
 11
9.68041719E+01
 21
-6.41998711E+01
  0
LINE
  8
0
 62
4
 10
7.07175600E+01
 20
-9.41684544E+01
 11
9.67680171E+01
 21
-9.41998493E+01
  0
LINE
  8
0
 62
4
 10
9.87984187E+01
 20
-4.79832470E+01
 11
8.38001568E+01
 21
-4.65308609E+01
  0
LINE
  8
0
 62
4
 10
6.87984885E+01
 20
-4.79470997E+01
 11
8.38002082E+01
 21
-4.65308710E+01
  0
LINE
  8
0
 62
4
 10
9.42603753E+01
 20
-4.46968316E+01
 11
8.38036135E+01
 21
-4.36842305E+01
  0
LINE
  8
0
 62
4
 10
7.33444394E+01
 20
-4.46716174E+01
 11
8.38036119E+01
 21
-4.36842253E+01
  0
LINE
  8
0
 62
4
 10
9.87777424E+01
 20
-6.51643475E+01
 11
9.69296602E+01
 21
-6.51621202E+01
  0
LINE
  8
0
 62
4
 10
7.06259074E+01
 20
-6.51304200E+01
 11
6.87777642E+01
 21
-6.51281927E+01
  0
LINE
  8
0
 62
4
 10
9.87984484E+01
 20
-4.79832229E+01
 11
9.87777424E+01
 21
-6.51643475E+01
  0
LINE
  8
0
 62
4
 10
6.87984701E+01
 20
-4.79470834E+01
 11
6.87777642E+01
 21
-6.51281927E+01
  0
LINE
  8
0
 62
4
 10
9.87631751E+01
 20
-7.92203013E+01
 11
9.54243190E+01
 21
-5.36208057E+01
  0
LINE
  8
0
 62
4
 10
7.33444231E+01
 20
-4.46716351E+01
 11
7.29614041E+01
 21
-4.75541054E+01
  0
LINE
  8
0
 62
4
 10
9.87916493E+01
 20
-5.36248661E+01
 11
9.54243417E+01
 21
-5.36208080E+01
  0
LINE
  8
0
 62
4
 10
7.21589782E+01
 20
-5.35927695E+01
 11
6.87916711E+01
 21
-5.35887114E+01
  0
LINE
  8
0
 62
4
 10
9.46364633E+01
 20
-4.75802012E+01
 11
9.42603931E+01
 21
-4.46968161E+01
  0
LINE
  8
0
 62
4
 10
8.37214725E+01
 20
-1.11837489E+02
 11
9.87231910E+01
 21
-1.10421258E+02
  0
LINE
  8
0
 62
4
 10
8.37214658E+01
 20
-1.11837456E+02
 11
6.87232030E+01
 21
-1.10385072E+02
  0
LINE
  8
0
 62
4
 10
8.37180678E+01
 20
-1.14684120E+02
 11
9.41772404E+01
 21
-1.13696726E+02
  0
LINE
  8
0
 62
4
 10
8.37180690E+01
 20
-1.14684107E+02
 11
7.32612458E+01
 21
-1.13671502E+02
  0
LINE
  8
0
 62
4
 10
9.68958245E+01
 20
-9.32379055E+01
 11
9.87439066E+01
 21
-9.32401327E+01
  0
LINE
  8
0
 62
4
 10
6.87439284E+01
 20
-9.32039780E+01
 11
7.05920716E+01
 21
-9.32062053E+01
  0
LINE
  8
0
 62
4
 10
9.87439066E+01
 20
-9.32401327E+01
 11
9.87232007E+01
 21
-1.10421257E+02
  0
LINE
  8
0
 62
4
 10
6.87439284E+01
 20
-9.32039780E+01
 11
6.87232225E+01
 21
-1.10385087E+02
  0
LINE
  8
0
 62
4
 10
7.28851949E+01
 20
-1.10788113E+02
 11
7.32612651E+01
 21
-1.13671499E+02
  0
LINE
  8
0
 62
4
 10
9.53626921E+01
 20
-1.04775556E+02
 11
9.87299997E+01
 21
-1.04779614E+02
  0
LINE
  8
0
 62
4
 10
6.87300215E+01
 20
-1.04743459E+02
 11
7.20973286E+01
 21
-1.04747518E+02
  0
LINE
  8
0
 62
4
 10
9.41773025E+01
 20
-1.13696732E+02
 11
9.45603214E+01
 21
-1.10814262E+02
  0
LINE
  8
0
  6
CENTER
 62
6
 10
8.38096221E+01
 20
-3.87021670E+01
 11
8.37147678E+01
 21
-1.17409111E+02
  0
LINE
  8
0
 62
4
 10
6.87608394E+01
 20
-7.91660794E+01
 11
7.20973402E+01
 21
-1.04747517E+02
  0
LINE
  8
0
 62
4
 10
9.53627376E+01
 20
-1.04775551E+02
 11
9.87632888E+01
 21
-7.91841627E+01
  0
LINE
  8
0
 62
4
 10
7.21589950E+01
 20
-5.35927631E+01
 11
6.87608406E+01
 21
-7.91661142E+01
  0
CIRCLE
  8
0
 62
4
 10
8.37608349E+01
 20
-7.91841627E+01
 40
1.20000000E+01
  0
CIRCLE
  8
0
 62
4
 10
8.37608349E+01
 20
-7.91841627E+01
 40
1.25000000E+01
  0
LINE
  8
0
  6
CENTER
 62
6
 10
-1.53239216E+02
 20
-1.12275120E+02
 11
-1.53239216E+02
 21
-9.33885695E+01
  0
LINE
  8
0
  6
CENTER
 62
6
 10
-1.06239155E+02
 20
-4.57059218E+01
 11
-1.06239155E+02
 21
-6.54085433E+01
  0
LINE
  8
0
  6
CENTER
 62
6
 10
-9.62859995E+01
 20
-5.56841933E+01
 11
-1.15988560E+02
 21
-5.56841933E+01
  0
LINE
  8
0
  6
CENTER
 62
6
 10
-1.53239155E+02
 20
-4.61304823E+01
 11
-1.53239155E+02
 21
-6.35685317E+01
  0
LINE
  8
0
  6
CENTER
 62
6
 10
-1.29739155E+02
 20
-4.06772963E+01
 11
-1.29739155E+02
 21
-1.18572026E+02
  0
LINE
  8
0
  6
CENTER
 62
6
 10
-9.60527689E+01
 20
-1.02684209E+02
 11
-1.15755406E+02
 21
-1.02684209E+02
  0
LINE
  8
0
  6
CENTER
 62
6
 10
-1.06239231E+02
 20
-1.12345235E+02
 11
-1.06239231E+02
 21
-9.34881789E+01
  0
LINE
  8
0
  6
CENTER
 62
6
 10
-6.22697794E+01
 20
-7.91841628E+01
 11
-1.97205525E+02
 21
-7.91841628E+01
  0
LINE
  8
0
  6
CENTER
 62
6
 10
-1.43852009E+02
 20
-5.56841933E+01
 11
-1.62971699E+02
 21
-5.56841933E+01
  0
LINE
  8
0
  6
CENTER
 62
6
 10
-1.44201832E+02
 20
-1.02684209E+02
 11
-1.62971699E+02
 21
-1.02684209E+02
  0
LINE
  8
0
 62
4
 10
-9.17391703E+01
 20
-9.41841628E+01
 11
-9.17391703E+01
 21
-6.41841475E+01
  0
LINE
  8
0
 62
4
 10
-1.91739125E+02
 20
-6.66841628E+01
 11
-1.69339161E+02
 21
-6.66841628E+01
  0
LINE
  8
0
 62
4
 10
-6.77392008E+01
 20
-6.66841628E+01
 11
-9.01391947E+01
 21
-6.66841628E+01
  0
LINE
  8
0
 62
4
 10
-1.92739175E+02
 20
-9.06841509E+01
 11
-1.91739166E+02
 21
-9.16841443E+01
  0
LINE
  8
0
 62
4
 10
-1.92739155E+02
 20
-6.76841628E+01
 11
-1.92739155E+02
 21
-9.06841628E+01
  0
LINE
  8
0
 62
4
 10
-9.01391947E+01
 20
-9.16841628E+01
 11
-6.77392008E+01
 21
-9.16841628E+01
  0
LINE
  8
0
 62
4
 10
-1.91739125E+02
 20
-9.16841628E+01
 11
-1.91739125E+02
 21
-6.66841628E+01
  0
LINE
  8
0
 62
4
 10
-6.67391703E+01
 20
-6.76841628E+01
 11
-6.67391703E+01
 21
-9.06841628E+01
  0
LINE
  8
0
 62
4
 10
-6.67391838E+01
 20
-6.76841598E+01
 11
-6.77391926E+01
 21
-6.66841664E+01
  0
LINE
  8
0
 62
4
 10
-1.92739146E+02
 20
-6.76841481E+01
 11
-1.91739137E+02
 21
-6.66841547E+01
  0
LINE
  8
0
 62
4
 10
-6.67391763E+01
 20
-9.06841445E+01
 11
-6.77391851E+01
 21
-9.16841379E+01
  0
LINE
  8
0
 62
4
 10
-6.77392008E+01
 20
-6.66841628E+01
 11
-6.77392008E+01
 21
-9.16841628E+01
  0
LINE
  8
0
 62
4
 10
-1.67739155E+02
 20
-9.41841628E+01
 11
-1.67739155E+02
 21
-6.41841628E+01
  0
LINE
  8
0
 62
4
 10
-1.69339161E+02
 20
-9.16841628E+01
 11
-1.91739125E+02
 21
-9.16841628E+01
  0
LINE
  8
0
 62
4
 10
-1.67739155E+02
 20
-7.91841628E+01
 11
-1.56739125E+02
 21
-7.91841628E+01
  0
LINE
  8
0
 62
4
 10
-1.02739186E+02
 20
-7.91841628E+01
 11
-9.17391703E+01
 21
-7.91841628E+01
  0
LINE
  8
0
 62
4
 10
-1.29739148E+02
 20
-1.13684139E+02
 11
-1.05435666E+02
 21
-1.10801196E+02
  0
LINE
  8
0
 62
4
 10
-1.29739133E+02
 20
-1.13684137E+02
 11
-1.54042645E+02
 21
-1.10801191E+02
  0
LINE
  8
0
 62
4
 10
-1.29739156E+02
 20
-4.46841933E+01
 11
-1.05435658E+02
 21
-4.75671377E+01
  0
LINE
  8
0
 62
4
 10
-1.29739156E+02
 20
-4.46841911E+01
 11
-1.54042639E+02
 21
-4.75671337E+01
  0
ARC
  8
0
 62
4
 10
-1.29739155E+02
 20
-3.71841628E+01
 40
7.80000000E+01
 50
2.52951135E+02
 51
2.87048860E+02
  0
ARC
  8
0
 62
4
 10
-1.69339161E+02
 20
-9.32841689E+01
 40
1.59999943E+00
 50
3.59721781E-05
 51
8.99999818E+01
  0
ARC
  8
0
 62
4
 10
-9.01391947E+01
 20
-9.32841689E+01
 40
1.59999943E+00
 50
8.99999818E+01
 51
1.79999964E+02
  0
ARC
  8
0
 62
4
 10
-1.28314533E+02
 20
-7.79902541E+01
 40
4.00000000E+01
 50
3.02418473E+02
 51
3.36118428E+02
  0
ARC
  8
0
 62
4
 10
-1.31163807E+02
 20
-8.03780715E+01
 40
4.00000000E+01
 50
1.22418478E+02
 51
1.56118399E+02
  0
ARC
  8
0
 62
4
 10
-1.69339161E+02
 20
-6.50841567E+01
 40
1.59999943E+00
 50
2.70000073E+02
 51
3.59999964E+02
  0
ARC
  8
0
 62
4
 10
-1.28314533E+02
 20
-8.03780715E+01
 40
4.00000000E+01
 50
2.38815720E+01
 51
5.75815273E+01
  0
ARC
  8
0
 62
4
 10
-9.01391947E+01
 20
-6.50841567E+01
 40
1.59999943E+00
 50
1.80000091E+02
 51
2.70000073E+02
  0
ARC
  8
0
 62
4
 10
-1.29739155E+02
 20
-1.21184163E+02
 40
7.80000000E+01
 50
7.29511402E+01
 51
1.07048865E+02
  0
ARC
  8
0
 62
4
 10
-1.31163807E+02
 20
-7.79902541E+01
 40
4.00000000E+01
 50
2.03881601E+02
 51
2.37581523E+02
  0
CIRCLE
  8
0
 62
4
 10
-1.29739155E+02
 20
-7.91841628E+01
 40
2.69999695E+01
  0
CIRCLE
  8
0
 62
4
 10
-1.06239231E+02
 20
-1.02684209E+02
 40
2.75000000E+00
  0
CIRCLE
  8
0
 62
4
 10
-1.53239094E+02
 20
-1.02684209E+02
 40
2.75000000E+00
  0
CIRCLE
  8
0
 62
4
 10
-1.06239231E+02
 20
-5.56841170E+01
 40
2.75000000E+00
  0
CIRCLE
  8
0
 62
4
 10
-1.53239094E+02
 20
-5.56841170E+01
 40
2.75000000E+00
  0
ARC
  8
0
 62
4
 10
-1.06239231E+02
 20
-1.02684209E+02
 40
7.83856201E+00
 50
1.68002955E+02
 51
2.80021391E+02
  0
ARC
  8
0
 62
4
 10
-1.06239231E+02
 20
-1.02684209E+02
 40
7.83856201E+00
 50
3.43569217E+02
 51
1.01996738E+02
  0
ARC
  8
0
 62
4
 10
-1.53239094E+02
 20
-1.02684209E+02
 40
7.83856201E+00
 50
2.59978607E+02
 51
1.19970377E+01
  0
ARC
  8
0
 62
4
 10
-1.53239094E+02
 20
-1.02684209E+02
 40
7.83856201E+00
 50
7.80032603E+01
 51
1.96430776E+02
  0
ARC
  8
0
 62
4
 10
-1.53239094E+02
 20
-5.56841170E+01
 40
7.83856201E+00
 50
1.63569220E+02
 51
2.81996736E+02
  0
ARC
  8
0
 62
4
 10
-1.53239094E+02
 20
-5.56841170E+01
 40
7.83856201E+00
 50
3.48002962E+02
 51
1.00021392E+02
  0
ARC
  8
0
 62
4
 10
-1.06239231E+02
 20
-5.56841170E+01
 40
7.83856201E+00
 50
7.99786057E+01
 51
1.91997041E+02
  0
ARC
  8
0
 62
4
 10
-1.06239231E+02
 20
-5.56841170E+01
 40
7.83856201E+00
 50
2.58003262E+02
 51
1.64307833E+01
  0
LINE
  8
0
  6
CENTER
 62
6
 10
1.04245142E+02
 20
8.43158830E+01
 11
6.25246503E+01
 21
8.43158830E+01
  0
LINE
  8
0
  6
CENTER
 62
6
 10
1.06773657E+02
 20
1.31315822E+02
 11
6.42946107E+01
 21
1.31315822E+02
  0
LINE
  8
0
  6
CENTER
 62
6
 10
8.37608349E+01
 20
3.83881792E+01
 11
8.37608349E+01
 21
1.75235622E+02
  0
LINE
  8
0
 62
4
 10
7.12608354E+01
 20
4.58159441E+01
 11
9.62608354E+01
 21
4.58159441E+01
  0
LINE
  8
0
 62
4
 10
7.12608354E+01
 20
1.69815883E+02
 11
9.62608354E+01
 21
1.69815883E+02
  0
LINE
  8
0
 62
4
 10
7.22608964E+01
 20
1.70815883E+02
 11
9.52608349E+01
 21
1.70815883E+02
  0
LINE
  8
0
 62
4
 10
6.87608354E+01
 20
6.98159136E+01
 11
9.87608354E+01
 21
6.98159136E+01
  0
LINE
  8
0
 62
4
 10
7.22608964E+01
 20
4.48159136E+01
 11
9.52608349E+01
 21
4.48159136E+01
  0
LINE
  8
0
 62
4
 10
6.87608354E+01
 20
1.45815883E+02
 11
9.87608354E+01
 21
1.45815883E+02
  0
LINE
  8
0
 62
4
 10
7.12608354E+01
 20
4.58159136E+01
 11
7.12608354E+01
 21
6.82159075E+01
  0
LINE
  8
0
 62
4
 10
7.12608573E+01
 20
4.58158983E+01
 11
7.22608613E+01
 21
4.48159002E+01
  0
LINE
  8
0
 62
4
 10
9.52608653E+01
 20
4.48158806E+01
 11
9.62608540E+01
 21
4.58158510E+01
  0
LINE
  8
0
 62
4
 10
9.52608528E+01
 20
1.70815852E+02
 11
9.62608414E+01
 21
1.69815881E+02
  0
LINE
  8
0
 62
4
 10
9.62608354E+01
 20
4.58158830E+01
 11
9.62608354E+01
 21
6.82159075E+01
  0
LINE
  8
0
 62
4
 10
7.12608492E+01
 20
1.69815838E+02
 11
7.22608749E+01
 21
1.70815858E+02
  0
LINE
  8
0
 62
4
 10
6.87608354E+01
 20
6.98159136E+01
 11
6.87608354E+01
 21
9.37779802E+01
  0
LINE
  8
0
 62
4
 10
9.62608354E+01
 20
1.47415859E+02
 11
9.62608354E+01
 21
1.69815883E+02
  0
LINE
  8
0
 62
4
 10
7.12608354E+01
 20
1.47415859E+02
 11
7.12608354E+01
 21
1.69815883E+02
  0
LINE
  8
0
 62
4
 10
9.53475733E+01
 20
1.31167604E+02
 11
9.42188776E+01
 21
1.07815898E+02
  0
LINE
  8
0
 62
4
 10
9.87608354E+01
 20
6.98159136E+01
 11
9.87608354E+01
 21
9.37779802E+01
  0
LINE
  8
0
 62
4
 10
9.42188162E+01
 20
1.07815876E+02
 11
9.53475117E+01
 21
8.44642015E+01
  0
LINE
  8
0
 62
4
 10
9.63464067E+01
 20
8.35124773E+01
 11
9.87608354E+01
 21
8.35124773E+01
  0
LINE
  8
0
 62
4
 10
9.63464067E+01
 20
1.32119350E+02
 11
9.87608354E+01
 21
1.32119350E+02
  0
LINE
  8
0
 62
4
 10
9.67872121E+01
 20
1.20693651E+02
 11
9.53935488E+01
 21
1.07815841E+02
  0
LINE
  8
0
 62
4
 10
9.53935354E+01
 20
1.07815861E+02
 11
9.67871954E+01
 21
9.49380816E+01
  0
LINE
  8
0
 62
4
 10
9.80796831E+01
 20
9.37779802E+01
 11
9.87608354E+01
 21
9.37779802E+01
  0
LINE
  8
0
 62
4
 10
9.80796831E+01
 20
1.21853786E+02
 11
9.87608354E+01
 21
1.21853786E+02
  0
LINE
  8
0
 62
4
 10
9.87608354E+01
 20
1.21853786E+02
 11
9.87608354E+01
 21
1.45815883E+02
  0
LINE
  8
0
 62
4
 10
7.33028595E+01
 20
1.07815875E+02
 11
7.21741655E+01
 21
1.31167550E+02
  0
LINE
  8
0
 62
4
 10
7.21741676E+01
 20
8.44641976E+01
 11
7.33028617E+01
 21
1.07815842E+02
  0
LINE
  8
0
 62
4
 10
6.87608354E+01
 20
8.35124773E+01
 11
7.11753252E+01
 21
8.35124773E+01
  0
LINE
  8
0
 62
4
 10
6.87608354E+01
 20
1.32119350E+02
 11
7.11753252E+01
 21
1.32119350E+02
  0
LINE
  8
0
 62
4
 10
7.21281987E+01
 20
1.07815854E+02
 11
7.07345395E+01
 21
1.20693634E+02
  0
LINE
  8
0
 62
4
 10
7.07345016E+01
 20
9.49380759E+01
 11
7.21281658E+01
 21
1.07815886E+02
  0
LINE
  8
0
 62
4
 10
6.87608354E+01
 20
9.37779802E+01
 11
6.94420488E+01
 21
9.37779802E+01
  0
LINE
  8
0
 62
4
 10
6.87608354E+01
 20
1.21853786E+02
 11
6.94420488E+01
 21
1.21853786E+02
  0
LINE
  8
0
 62
4
 10
6.87608354E+01
 20
1.21853786E+02
 11
6.87608354E+01
 21
1.45815883E+02
  0
LINE
  8
0
  6
CENTER
 62
6
 10
6.06229284E+01
 20
1.07815914E+02
 11
1.09591352E+02
 21
1.07815914E+02
  0
ARC
  8
0
 62
4
 10
9.78608720E+01
 20
6.82159075E+01
 40
1.59999943E+00
 50
8.99999818E+01
 51
1.79999964E+02
  0
ARC
  8
0
 62
4
 10
6.96608598E+01
 20
6.82159075E+01
 40
1.59999943E+00
 50
1.79860890E-05
 51
8.99999818E+01
  0
ARC
  8
0
 62
4
 10
9.78608720E+01
 20
1.47415859E+02
 40
1.59999943E+00
 50
1.79999964E+02
 51
2.69999946E+02
  0
ARC
  8
0
 62
4
 10
6.96608598E+01
 20
1.47415859E+02
 40
1.59999943E+00
 50
2.70000018E+02
 51
6.83245232E-07
  0
ARC
  8
0
 62
4
 10
9.63464067E+01
 20
1.31119289E+02
 40
1.00000000E+00
 50
8.99991625E+01
 51
1.77232699E+02
  0
ARC
  8
0
 62
4
 10
9.63464067E+01
 20
8.45124773E+01
 40
1.00000000E+00
 50
1.82767301E+02
 51
2.70000838E+02
  0
ARC
  8
0
 62
4
 10
9.80796831E+01
 20
1.20553798E+02
 40
1.29999924E+00
 50
8.99996541E+01
 51
1.73823287E+02
  0
ARC
  8
0
 62
4
 10
9.80796831E+01
 20
9.50780290E+01
 40
1.29999924E+00
 50
1.86176713E+02
 51
2.70000674E+02
  0
ARC
  8
0
 62
4
 10
7.11753252E+01
 20
1.31119350E+02
 40
1.00000000E+00
 50
2.76733737E+00
 51
9.00007467E+01
  0
ARC
  8
0
 62
4
 10
7.11753252E+01
 20
8.45124773E+01
 40
1.00000000E+00
 50
2.69999253E+02
 51
3.57232736E+02
  0
ARC
  8
0
 62
4
 10
6.94420488E+01
 20
1.20553798E+02
 40
1.29999924E+00
 50
6.17674836E+00
 51
9.00003096E+01
  0
ARC
  8
0
 62
4
 10
6.94420488E+01
 20
9.50780290E+01
 40
1.29999924E+00
 50
2.69999417E+02
 51
3.53823327E+02
  0
LINE
  8
0
 62
7
 10
2.82099854E+02
 20
1.95500000E+02
 11
2.82099854E+02
 21
-1.95000000E+02
  0
LINE
  8
0
 62
7
 10
-2.81250000E+02
 20
1.95500000E+02
 11
2.82099854E+02
 21
1.95500000E+02
  0
LINE
  8
0
 62
7
 10
-2.81250000E+02
 20
1.95500000E+02
 11
-2.81250000E+02
 21
-1.95000000E+02
  0
LINE
  8
0
 62
7
 10
-2.81250000E+02
 20
-1.95000000E+02
 11
2.82099854E+02
 21
-1.95000000E+02
  0
LINE
  8
0
 62
7
 10
1.62099976E+02
 20
-1.75000000E+02
 11
1.62099976E+02
 21
-1.95000000E+02
  0
LINE
  8
0
 62
7
 10
1.62099976E+02
 20
-1.75000000E+02
 11
2.82099854E+02
 21
-1.75000000E+02
  0
LINE
  8
0
 62
7
 10
1.62099976E+02
 20
1.75500000E+02
 11
2.82099854E+02
 21
1.75500000E+02
  0
LINE
  8
0
 62
7
 10
-2.81250000E+02
 20
1.75500000E+02
 11
-1.61250000E+02
 21
1.75500000E+02
  0
LINE
  8
0
 62
7
 10
1.62099976E+02
 20
1.95500000E+02
 11
1.62099976E+02
 21
1.75500000E+02
  0
LINE
  8
0
 62
7
 10
-1.61250000E+02
 20
1.95500000E+02
 11
-1.61250000E+02
 21
1.75500000E+02
  0
TEXT
  8
0
 62
7
 10
1.97799690E+02
 20
1.82350000E+02
 40
6.30000019E+00
  1
Ver. 1.0
 41
1.08108124E+00
  7
MONOTXT
  0
TEXT
  8
0
 62
7
 10
1.69885289E+02
 20
-1.89500000E+02
 40
9.00000000E+00
  1
KOGANEI CORP.
 41
1.04838710E+00
  7
MONOTXT
  0
TEXT
  8
0
 62
7
 10
-2.73900291E+02
 20
1.82350000E+02
 40
6.30000019E+00
  1
NEW DYNA CYLINDER
 41
1.07594953E+00
  7
MONOTXT
  0
TEXT
  8
0
 62
7
 10
-2.67600562E+02
 20
1.57350000E+02
 40
6.30000019E+00
  1
MODEL:DDA50-11
 41
1.00000015E+00
  7
MONOTXT
  0
ENDSEC
  0
EOF
