  0
SECTION
  2
HEADER
  9
$ACADVER
  1
AC1003
  9
$EXTMIN
 10
-3.99250000E+02
 20
-2.76750000E+02
  9
$EXTMAX
 10
3.99799805E+02
 20
2.76250000E+02
  9
$LIMMIN
 10
-3.99251000E+02
 20
-2.76751000E+02
  9
$LIMMAX
 10
3.99800805E+02
 20
2.76251000E+02
  9
$SNAPUNIT
 10
1
 20
1
  9
$SNAPBASE
 10
0
 20
0
  9
$GRIDMODE
 70
0
  9
$GRIDUNIT
 10
0
 20
0
  9
$LTSCALE
 40
1.33174967E+01
  9
$TEXTSIZE
 40
3.2
  9
$DIMTAD
 70
0
  9
$LUNITS
 70
2
  9
$LUPREC
 70
4
  9
$FILLETRAD
 40
0
  9
$AUNITS
 70
0
  9
$AUPREC
 70
0
  0
ENDSEC
  0
SECTION
  2
TABLES
  0
TABLE
  2
LTYPE
 70
2
  0
LTYPE
  2
CONTINUOUS
 70
64
  3
Solid-Line
 72
65
 73
0
 40
0
  0
LTYPE
  2
DASHED
 70
64
  3
DASHED
 72
65
 73
2
 40
.75
 49
.5
 49
-.25
  0
LTYPE
  2
HIDDEN
 70
64
  3
HIDDEN
 72
65
 73
2
 40
.375
 49
.25
 49
-.125
  0
LTYPE
  2
CENTER
 70
64
  3
CENTER
 72
65
 73
4
 40
2
 49
1.25
 49
-.25
 49
.25
 49
-.25
  0
LTYPE
  2
PHANTOM
 70
64
  3
PHANTOM
 72
65
 73
6
 40
2.5
 49
1.25
 49
-.25
 49
.25
 49
-.25
 49
.25
 49
-.25
  0
ENDTAB
  0
TABLE
  2
LAYER
 70
1
  0
LAYER
  2
1
 70
0
 62
7
  6
CONTINUOUS
 0
ENDTAB
  0
TABLE
  2
STYLE
 70
2
  0
STYLE
  2
MONOTXT
 70
0
 40
0
 41
1
 50
0
 71
0
 42
.2
  3
monotxt
  0
STYLE
  2
BIGFONT
 70
0
 40
0
 41
1
 50
0
 71
0
 42
.2
  3
txt
  4
bigfont
  0
ENDTAB
  0
ENDSEC
  0
SECTION
  2
ENTITIES
  0
LINE
  8
0
  6
PHANTOM
 10
-9.25000000E+00
 20
1.27763292E+02
 11
-9.25000000E+00
 21
2.71367846E+01
  0
LINE
  8
0
 62
7
 10
-1.29750000E+02
 20
6.13694342E+01
 11
-1.23250000E+02
 21
6.13694342E+01
  0
LINE
  8
0
 62
2
 10
-1.29750000E+02
 20
6.21894262E+01
 11
-1.23250000E+02
 21
6.21894262E+01
  0
LINE
  8
0
 62
2
 10
-1.29750000E+02
 20
7.45494573E+01
 11
-1.23250000E+02
 21
7.45494573E+01
  0
LINE
  8
0
 62
7
 10
-1.29750000E+02
 20
7.53694494E+01
 11
-1.23250000E+02
 21
7.53694494E+01
  0
ARC
  8
0
 62
4
 10
-1.35372810E+02
 20
5.88431852E+01
 40
5.62281017E+00
 50
3.25615753E+02
 51
3.43842467E+01
  0
ARC
  8
0
 62
4
 10
-1.50767520E+02
 20
6.83694646E+01
 40
2.10175199E+01
 50
3.42412047E+02
 51
1.75879537E+01
  0
ARC
  8
0
 62
4
 10
-1.35372810E+02
 20
7.78957441E+01
 40
5.62281003E+00
 50
3.25615753E+02
 51
3.43842476E+01
  0
ARC
  8
0
 62
4
 10
-1.32127190E+02
 20
5.88431852E+01
 40
5.62281017E+00
 50
1.45615753E+02
 51
2.14384247E+02
  0
ARC
  8
0
 62
4
 10
-1.16732480E+02
 20
6.83694646E+01
 40
2.10175199E+01
 50
1.62412046E+02
 51
1.97587953E+02
  0
ARC
  8
0
 62
4
 10
-1.32127190E+02
 20
7.78957441E+01
 40
5.62281003E+00
 50
1.45615752E+02
 51
2.14384247E+02
  0
LINE
  8
0
 62
4
 10
-1.36767520E+02
 20
5.56677587E+01
 11
-1.30732480E+02
 21
5.56677587E+01
  0
LINE
  8
0
 62
4
 10
-1.29750000E+02
 20
5.73694647E+01
 11
-1.30732480E+02
 21
5.56677586E+01
  0
LINE
  8
0
 62
4
 10
-1.37750000E+02
 20
5.73694647E+01
 11
-1.36767520E+02
 21
5.56677588E+01
  0
LINE
  8
0
 62
4
 10
-1.29750000E+02
 20
7.93694647E+01
 11
-1.30732480E+02
 21
8.10711707E+01
  0
LINE
  8
0
 62
4
 10
-1.37750000E+02
 20
7.93694646E+01
 11
-1.36767520E+02
 21
8.10711705E+01
  0
LINE
  8
0
 62
4
 10
-1.29750000E+02
 20
5.73694647E+01
 11
-1.29750000E+02
 21
7.93694647E+01
  0
LINE
  8
0
 62
4
 10
-1.37750000E+02
 20
5.73694647E+01
 11
-1.37750000E+02
 21
7.93694647E+01
  0
LINE
  8
0
 62
4
 10
-1.36767520E+02
 20
6.20186117E+01
 11
-1.30732480E+02
 21
6.20186117E+01
  0
LINE
  8
0
 62
4
 10
-1.36767520E+02
 20
7.47203176E+01
 11
-1.30732480E+02
 21
7.47203176E+01
  0
LINE
  8
0
 62
4
 10
-1.36767520E+02
 20
8.10711706E+01
 11
-1.30732480E+02
 21
8.10711706E+01
  0
LINE
  8
0
 62
4
 10
-2.37500000E+01
 20
9.53593157E+01
 11
-2.37500000E+01
 21
1.06875902E+02
  0
LINE
  8
0
 62
6
 10
-3.01788813E+00
 20
9.68593157E+01
 11
-6.48198974E+00
 21
9.08593157E+01
  0
LINE
  8
0
 62
6
 10
-1.54820508E+01
 20
9.08593156E+01
 11
-1.20179492E+01
 21
9.68593156E+01
  0
LINE
  8
0
 62
4
 10
5.25006105E+00
 20
9.53593157E+01
 11
-3.88391356E+00
 21
9.53593157E+01
  0
LINE
  8
0
  6
CENTER
 62
6
 10
4.02500610E+01
 20
9.38593157E+01
 11
-6.74993896E+00
 21
9.38593157E+01
  0
LINE
  8
0
 62
4
 10
5.25006104E+00
 20
9.23593157E+01
 11
-5.61596436E+00
 21
9.23593157E+01
  0
LINE
  8
0
 62
4
 10
-3.02500000E+01
 20
9.23593157E+01
 11
-1.46160254E+01
 21
9.23593157E+01
  0
LINE
  8
0
  6
CENTER
 62
6
 10
-5.87500000E+01
 20
9.38593157E+01
 11
-1.17500000E+01
 21
9.38593157E+01
  0
LINE
  8
0
 62
4
 10
-3.02500000E+01
 20
9.53593157E+01
 11
-1.28839746E+01
 21
9.53593157E+01
  0
LINE
  8
0
 62
4
 10
-3.02500000E+01
 20
9.23593157E+01
 11
-2.37500000E+01
 21
9.23593157E+01
  0
LINE
  8
0
 62
4
 10
-3.02500000E+01
 20
9.53593157E+01
 11
-2.37500000E+01
 21
9.53593157E+01
  0
LINE
  8
0
 62
7
 10
5.25000000E+00
 20
8.42194708E+01
 11
-6.42500000E+01
 21
8.42194708E+01
  0
LINE
  8
0
 62
7
 10
5.25000000E+00
 20
8.95194586E+01
 11
-6.42499695E+01
 21
8.95194586E+01
  0
LINE
  8
0
 62
7
 10
5.25000000E+00
 20
9.03694494E+01
 11
-6.42500000E+01
 21
9.03694494E+01
  0
LINE
  8
0
 62
4
 10
3.67500000E+01
 20
9.51683709E+01
 11
3.67500000E+01
 21
9.25444682E+01
  0
LINE
  8
0
 62
4
 10
3.67500000E+01
 20
9.25444682E+01
 11
3.52500000E+01
 21
9.15424038E+01
  0
LINE
  8
0
 62
4
 10
3.67500000E+01
 20
9.29377813E+01
 11
3.52500000E+01
 21
9.22369965E+01
  0
LINE
  8
0
 62
4
 10
3.52500000E+01
 20
9.61762276E+01
 11
3.67500000E+01
 21
9.51683709E+01
  0
LINE
  8
0
 62
4
 10
-3.58127552E+01
 20
9.61762276E+01
 11
-3.02500000E+01
 21
9.61762276E+01
  0
LINE
  8
0
 62
4
 10
-3.54128770E+01
 20
9.66339018E+01
 11
-2.37500000E+01
 21
9.66339018E+01
  0
LINE
  8
0
  6
CENTER
 62
6
 10
-2.87500000E+01
 20
1.02444268E+02
 11
-3.37500000E+01
 21
1.02444268E+02
  0
LINE
  8
0
  6
CENTER
 62
6
 10
-3.12500000E+01
 20
1.04944268E+02
 11
-3.12500000E+01
 21
9.99442675E+01
  0
LINE
  8
0
  6
CENTER
 62
6
 10
-3.62500000E+01
 20
9.89974404E+01
 11
-4.12500000E+01
 21
9.89974404E+01
  0
LINE
  8
0
  6
CENTER
 62
6
 10
-3.87500000E+01
 20
1.01497440E+02
 11
-3.87500000E+01
 21
9.64974404E+01
  0
LINE
  8
0
  6
CENTER
 62
6
 10
-4.37500000E+01
 20
1.02444268E+02
 11
-4.87500000E+01
 21
1.02444268E+02
  0
LINE
  8
0
  6
CENTER
 62
6
 10
-4.62500000E+01
 20
1.04944268E+02
 11
-4.62500000E+01
 21
9.99442675E+01
  0
POLYLINE
  8
0
 62
4
 66
1
  0
VERTEX
  8
0
 62
4
 10
-4.29000000E+01
 20
9.90634267E+01
  0
VERTEX
  8
0
 62
4
 10
-4.28832933E+01
 20
9.86970751E+01
  0
VERTEX
  8
0
 62
4
 10
-4.28333078E+01
 20
9.83336732E+01
  0
VERTEX
  8
0
 62
4
 10
-4.27504459E+01
 20
9.79761468E+01
  0
VERTEX
  8
0
 62
4
 10
-4.26353747E+01
 20
9.76273746E+01
  0
VERTEX
  8
0
 62
4
 10
-4.24890208E+01
 20
9.72901646E+01
  0
VERTEX
  8
0
 62
4
 10
-4.23125625E+01
 20
9.69672319E+01
  0
VERTEX
  8
0
 62
4
 10
-4.21074205E+01
 20
9.66611765E+01
  0
VERTEX
  8
0
 62
4
 10
-4.18752466E+01
 20
9.63744626E+01
  0
VERTEX
  8
0
 62
4
 10
-4.16179100E+01
 20
9.61093987E+01
  0
VERTEX
  8
0
 62
4
 10
-4.13374827E+01
 20
9.58681188E+01
  0
VERTEX
  8
0
 62
4
 10
-4.10362225E+01
 20
9.56525657E+01
  0
VERTEX
  8
0
 62
4
 10
-4.07165550E+01
 20
9.54644749E+01
  0
VERTEX
  8
0
 62
4
 10
-4.03810539E+01
 20
9.53053607E+01
  0
VERTEX
  8
0
 62
4
 10
-4.00324205E+01
 20
9.51765042E+01
  0
VERTEX
  8
0
 62
4
 10
-3.96734619E+01
 20
9.50789429E+01
  0
VERTEX
  8
0
 62
4
 10
-3.93070681E+01
 20
9.50134624E+01
  0
VERTEX
  8
0
 62
4
 10
-3.89361891E+01
 20
9.49805898E+01
  0
VERTEX
  8
0
 62
4
 10
-3.85638110E+01
 20
9.49805898E+01
  0
VERTEX
  8
0
 62
4
 10
-3.81929320E+01
 20
9.50134624E+01
  0
VERTEX
  8
0
 62
4
 10
-3.78265381E+01
 20
9.50789429E+01
  0
VERTEX
  8
0
 62
4
 10
-3.74675795E+01
 20
9.51765042E+01
  0
VERTEX
  8
0
 62
4
 10
-3.71189461E+01
 20
9.53053607E+01
  0
VERTEX
  8
0
 62
4
 10
-3.67834451E+01
 20
9.54644749E+01
  0
VERTEX
  8
0
 62
4
 10
-3.64637775E+01
 20
9.56525657E+01
  0
VERTEX
  8
0
 62
4
 10
-3.61625173E+01
 20
9.58681188E+01
  0
VERTEX
  8
0
 62
4
 10
-3.58820900E+01
 20
9.61093986E+01
  0
VERTEX
  8
0
 62
4
 10
-3.56247534E+01
 20
9.63744626E+01
  0
VERTEX
  8
0
 62
4
 10
-3.53925795E+01
 20
9.66611765E+01
  0
VERTEX
  8
0
 62
4
 10
-3.51874375E+01
 20
9.69672319E+01
  0
VERTEX
  8
0
 62
4
 10
-3.50109792E+01
 20
9.72901646E+01
  0
VERTEX
  8
0
 62
4
 10
-3.48646253E+01
 20
9.76273746E+01
  0
VERTEX
  8
0
 62
4
 10
-3.47495541E+01
 20
9.79761468E+01
  0
VERTEX
  8
0
 62
4
 10
-3.46666922E+01
 20
9.83336732E+01
  0
VERTEX
  8
0
 62
4
 10
-3.46167067E+01
 20
9.86970751E+01
  0
VERTEX
  8
0
 62
4
 10
-3.46000000E+01
 20
9.90634267E+01
  0
SEQEND
  8
0
  0
POLYLINE
  8
0
 62
4
 66
1
  0
VERTEX
  8
0
 62
4
 10
-3.46000000E+01
 20
9.93690475E+01
  0
VERTEX
  8
0
 62
4
 10
-3.46157920E+01
 20
9.97252489E+01
  0
VERTEX
  8
0
 62
4
 10
-3.46630478E+01
 20
1.00078739E+02
  0
VERTEX
  8
0
 62
4
 10
-3.47414078E+01
 20
1.00426829E+02
  0
VERTEX
  8
0
 62
4
 10
-3.48502756E+01
 20
1.00766867E+02
  0
VERTEX
  8
0
 62
4
 10
-3.49888227E+01
 20
1.01096268E+02
  0
VERTEX
  8
0
 62
4
 10
-3.51559946E+01
 20
1.01412524E+02
  0
VERTEX
  8
0
 62
4
 10
-3.53505190E+01
 20
1.01713227E+02
  0
VERTEX
  8
0
 62
4
 10
-3.55709156E+01
 20
1.01996090E+02
  0
VERTEX
  8
0
 62
4
 10
-3.58155069E+01
 20
1.02258959E+02
  0
VERTEX
  8
0
 62
4
 10
-3.60824314E+01
 20
1.02499835E+02
  0
VERTEX
  8
0
 62
4
 10
-3.63696578E+01
 20
1.02716883E+02
  0
VERTEX
  8
0
 62
4
 10
-3.66750000E+01
 20
1.02908452E+02
  0
VERTEX
  8
0
 62
4
 10
-3.69961342E+01
 20
1.03073084E+02
  0
VERTEX
  8
0
 62
4
 10
-3.73306164E+01
 20
1.03209526E+02
  0
VERTEX
  8
0
 62
4
 10
-3.76759010E+01
 20
1.03316740E+02
  0
VERTEX
  8
0
 62
4
 10
-3.80293601E+01
 20
1.03393910E+02
  0
VERTEX
  8
0
 62
4
 10
-3.83883037E+01
 20
1.03440448E+02
  0
VERTEX
  8
0
 62
4
 10
-3.87500000E+01
 20
1.03456000E+02
  0
VERTEX
  8
0
 62
4
 10
-3.91116963E+01
 20
1.03440448E+02
  0
VERTEX
  8
0
 62
4
 10
-3.94706399E+01
 20
1.03393910E+02
  0
VERTEX
  8
0
 62
4
 10
-3.98240990E+01
 20
1.03316740E+02
  0
VERTEX
  8
0
 62
4
 10
-4.01693836E+01
 20
1.03209526E+02
  0
VERTEX
  8
0
 62
4
 10
-4.05038658E+01
 20
1.03073084E+02
  0
VERTEX
  8
0
 62
4
 10
-4.08250000E+01
 20
1.02908452E+02
  0
VERTEX
  8
0
 62
4
 10
-4.11303422E+01
 20
1.02716883E+02
  0
VERTEX
  8
0
 62
4
 10
-4.14175686E+01
 20
1.02499835E+02
  0
VERTEX
  8
0
 62
4
 10
-4.16844931E+01
 20
1.02258959E+02
  0
VERTEX
  8
0
 62
4
 10
-4.19290844E+01
 20
1.01996090E+02
  0
VERTEX
  8
0
 62
4
 10
-4.21494810E+01
 20
1.01713227E+02
  0
VERTEX
  8
0
 62
4
 10
-4.23440054E+01
 20
1.01412524E+02
  0
VERTEX
  8
0
 62
4
 10
-4.25111773E+01
 20
1.01096268E+02
  0
VERTEX
  8
0
 62
4
 10
-4.26497244E+01
 20
1.00766867E+02
  0
VERTEX
  8
0
 62
4
 10
-4.27585922E+01
 20
1.00426829E+02
  0
VERTEX
  8
0
 62
4
 10
-4.28369522E+01
 20
1.00078739E+02
  0
VERTEX
  8
0
 62
4
 10
-4.28842080E+01
 20
9.97252488E+01
  0
VERTEX
  8
0
 62
4
 10
-4.29000000E+01
 20
9.93690475E+01
  0
VERTEX
  8
0
 62
4
 10
-4.28842080E+01
 20
9.90128461E+01
  0
VERTEX
  8
0
 62
4
 10
-4.28369522E+01
 20
9.86593557E+01
  0
VERTEX
  8
0
 62
4
 10
-4.27585922E+01
 20
9.83112664E+01
  0
VERTEX
  8
0
 62
4
 10
-4.26497244E+01
 20
9.79712275E+01
  0
VERTEX
  8
0
 62
4
 10
-4.25111773E+01
 20
9.76418269E+01
  0
VERTEX
  8
0
 62
4
 10
-4.23440054E+01
 20
9.73255714E+01
  0
VERTEX
  8
0
 62
4
 10
-4.21494810E+01
 20
9.70248680E+01
  0
VERTEX
  8
0
 62
4
 10
-4.19290844E+01
 20
9.67420053E+01
  0
VERTEX
  8
0
 62
4
 10
-4.16844931E+01
 20
9.64791359E+01
  0
VERTEX
  8
0
 62
4
 10
-4.14175686E+01
 20
9.62382605E+01
  0
VERTEX
  8
0
 62
4
 10
-4.11303422E+01
 20
9.60212123E+01
  0
VERTEX
  8
0
 62
4
 10
-4.08250000E+01
 20
9.58296431E+01
  0
VERTEX
  8
0
 62
4
 10
-4.05038658E+01
 20
9.56650109E+01
  0
VERTEX
  8
0
 62
4
 10
-4.01693836E+01
 20
9.55285687E+01
  0
VERTEX
  8
0
 62
4
 10
-3.98240990E+01
 20
9.54213548E+01
  0
VERTEX
  8
0
 62
4
 10
-3.94706399E+01
 20
9.53441853E+01
  0
VERTEX
  8
0
 62
4
 10
-3.91116963E+01
 20
9.52976474E+01
  0
VERTEX
  8
0
 62
4
 10
-3.87500000E+01
 20
9.52820953E+01
  0
VERTEX
  8
0
 62
4
 10
-3.83883037E+01
 20
9.52976474E+01
  0
VERTEX
  8
0
 62
4
 10
-3.80293601E+01
 20
9.53441853E+01
  0
VERTEX
  8
0
 62
4
 10
-3.76759010E+01
 20
9.54213548E+01
  0
VERTEX
  8
0
 62
4
 10
-3.73306164E+01
 20
9.55285687E+01
  0
VERTEX
  8
0
 62
4
 10
-3.69961342E+01
 20
9.56650109E+01
  0
VERTEX
  8
0
 62
4
 10
-3.66750000E+01
 20
9.58296431E+01
  0
VERTEX
  8
0
 62
4
 10
-3.63696578E+01
 20
9.60212123E+01
  0
VERTEX
  8
0
 62
4
 10
-3.60824314E+01
 20
9.62382605E+01
  0
VERTEX
  8
0
 62
4
 10
-3.58155069E+01
 20
9.64791359E+01
  0
VERTEX
  8
0
 62
4
 10
-3.55709156E+01
 20
9.67420053E+01
  0
VERTEX
  8
0
 62
4
 10
-3.53505190E+01
 20
9.70248680E+01
  0
VERTEX
  8
0
 62
4
 10
-3.51559946E+01
 20
9.73255714E+01
  0
VERTEX
  8
0
 62
4
 10
-3.49888227E+01
 20
9.76418269E+01
  0
VERTEX
  8
0
 62
4
 10
-3.48502756E+01
 20
9.79712275E+01
  0
VERTEX
  8
0
 62
4
 10
-3.47414078E+01
 20
9.83112665E+01
  0
VERTEX
  8
0
 62
4
 10
-3.46630478E+01
 20
9.86593557E+01
  0
VERTEX
  8
0
 62
4
 10
-3.46157920E+01
 20
9.90128462E+01
  0
VERTEX
  8
0
 62
4
 10
-3.46000000E+01
 20
9.93690475E+01
  0
SEQEND
  8
0
  0
LINE
  8
0
 62
4
 10
-4.29000000E+01
 20
9.90634267E+01
 11
-4.29000000E+01
 21
9.93690475E+01
  0
LINE
  8
0
 62
4
 10
-3.46000000E+01
 20
9.90634267E+01
 11
-3.46000000E+01
 21
9.93690475E+01
  0
ARC
  8
0
 62
4
 10
9.36228232E+01
 20
-3.49304455E+01
 40
1.88658103E+02
 50
1.33811210E+02
 51
1.35318357E+02
  0
ARC
  8
0
 62
4
 10
-1.71122535E+02
 20
-3.49301524E+01
 40
1.88657692E+02
 50
4.46816411E+01
 51
4.61887918E+01
  0
LINE
  8
0
 62
4
 10
-3.50500000E+01
 20
1.02444268E+02
 11
-3.50500000E+01
 21
1.02617916E+02
  0
POLYLINE
  8
0
 62
4
 66
1
  0
VERTEX
  8
0
 62
4
 10
-3.50500000E+01
 20
1.02444268E+02
  0
VERTEX
  8
0
 62
4
 10
-3.50347023E+01
 20
1.02108814E+02
  0
VERTEX
  8
0
 62
4
 10
-3.49889325E+01
 20
1.01776060E+02
  0
VERTEX
  8
0
 62
4
 10
-3.49130589E+01
 20
1.01448686E+02
  0
VERTEX
  8
0
 62
4
 10
-3.48076925E+01
 20
1.01129329E+02
  0
VERTEX
  8
0
 62
4
 10
-3.46736817E+01
 20
1.00820558E+02
  0
VERTEX
  8
0
 62
4
 10
-3.45121054E+01
 20
1.00524861E+02
  0
VERTEX
  8
0
 62
4
 10
-3.43242646E+01
 20
1.00244617E+02
  0
VERTEX
  8
0
 62
4
 10
-3.41116716E+01
 20
9.99820840E+01
  0
VERTEX
  8
0
 62
4
 10
-3.38760381E+01
 20
9.97393749E+01
  0
VERTEX
  8
0
 62
4
 10
-3.36192613E+01
 20
9.95184439E+01
  0
VERTEX
  8
0
 62
4
 10
-3.33434086E+01
 20
9.93210700E+01
  0
VERTEX
  8
0
 62
4
 10
-3.30507009E+01
 20
9.91488422E+01
  0
VERTEX
  8
0
 62
4
 10
-3.27434951E+01
 20
9.90031473E+01
  0
VERTEX
  8
0
 62
4
 10
-3.24242646E+01
 20
9.88851583E+01
  0
VERTEX
  8
0
 62
4
 10
-3.20955796E+01
 20
9.87958251E+01
  0
VERTEX
  8
0
 62
4
 10
-3.17600864E+01
 20
9.87358670E+01
  0
VERTEX
  8
0
 62
4
 10
-3.14204864E+01
 20
9.87057668E+01
  0
VERTEX
  8
0
 62
4
 10
-3.10795137E+01
 20
9.87057668E+01
  0
VERTEX
  8
0
 62
4
 10
-3.07399136E+01
 20
9.87358670E+01
  0
VERTEX
  8
0
 62
4
 10
-3.04044205E+01
 20
9.87958250E+01
  0
VERTEX
  8
0
 62
4
 10
-3.00757354E+01
 20
9.88851582E+01
  0
VERTEX
  8
0
 62
4
 10
-2.97565049E+01
 20
9.90031473E+01
  0
VERTEX
  8
0
 62
4
 10
-2.94492991E+01
 20
9.91488422E+01
  0
VERTEX
  8
0
 62
4
 10
-2.91565915E+01
 20
9.93210700E+01
  0
VERTEX
  8
0
 62
4
 10
-2.88807388E+01
 20
9.95184439E+01
  0
VERTEX
  8
0
 62
4
 10
-2.86239619E+01
 20
9.97393748E+01
  0
VERTEX
  8
0
 62
4
 10
-2.83883284E+01
 20
9.99820840E+01
  0
VERTEX
  8
0
 62
4
 10
-2.81757354E+01
 20
1.00244617E+02
  0
VERTEX
  8
0
 62
4
 10
-2.79878946E+01
 20
1.00524861E+02
  0
VERTEX
  8
0
 62
4
 10
-2.78263183E+01
 20
1.00820558E+02
  0
VERTEX
  8
0
 62
4
 10
-2.76923075E+01
 20
1.01129329E+02
  0
VERTEX
  8
0
 62
4
 10
-2.75869411E+01
 20
1.01448686E+02
  0
VERTEX
  8
0
 62
4
 10
-2.75110675E+01
 20
1.01776060E+02
  0
VERTEX
  8
0
 62
4
 10
-2.74652977E+01
 20
1.02108814E+02
  0
VERTEX
  8
0
 62
4
 10
-2.74500000E+01
 20
1.02444268E+02
  0
SEQEND
  8
0
  0
POLYLINE
  8
0
 62
4
 66
1
  0
VERTEX
  8
0
 62
4
 10
-3.50500000E+01
 20
1.02617916E+02
  0
VERTEX
  8
0
 62
4
 10
-3.50355399E+01
 20
1.02291756E+02
  0
VERTEX
  8
0
 62
4
 10
-3.49922695E+01
 20
1.01968078E+02
  0
VERTEX
  8
0
 62
4
 10
-3.49205182E+01
 20
1.01649345E+02
  0
VERTEX
  8
0
 62
4
 10
-3.48208320E+01
 20
1.01337984E+02
  0
VERTEX
  8
0
 62
4
 10
-3.46939696E+01
 20
1.01036365E+02
  0
VERTEX
  8
0
 62
4
 10
-3.45408966E+01
 20
1.00746781E+02
  0
VERTEX
  8
0
 62
4
 10
-3.43627778E+01
 20
1.00471438E+02
  0
VERTEX
  8
0
 62
4
 10
-3.41609689E+01
 20
1.00212432E+02
  0
VERTEX
  8
0
 62
4
 10
-3.39370058E+01
 20
9.99717319E+01
  0
VERTEX
  8
0
 62
4
 10
-3.36925929E+01
 20
9.97511713E+01
  0
VERTEX
  8
0
 62
4
 10
-3.34295905E+01
 20
9.95524283E+01
  0
VERTEX
  8
0
 62
4
 10
-3.31500000E+01
 20
9.93770156E+01
  0
VERTEX
  8
0
 62
4
 10
-3.28559494E+01
 20
9.92262681E+01
  0
VERTEX
  8
0
 62
4
 10
-3.25496766E+01
 20
9.91013330E+01
  0
VERTEX
  8
0
 62
4
 10
-3.22335124E+01
 20
9.90031613E+01
  0
VERTEX
  8
0
 62
4
 10
-3.19098631E+01
 20
9.89325000E+01
  0
VERTEX
  8
0
 62
4
 10
-3.15811918E+01
 20
9.88898870E+01
  0
VERTEX
  8
0
 62
4
 10
-3.12500000E+01
 20
9.88756465E+01
  0
VERTEX
  8
0
 62
4
 10
-3.09188082E+01
 20
9.88898870E+01
  0
VERTEX
  8
0
 62
4
 10
-3.05901369E+01
 20
9.89325000E+01
  0
VERTEX
  8
0
 62
4
 10
-3.02664876E+01
 20
9.90031613E+01
  0
VERTEX
  8
0
 62
4
 10
-2.99503235E+01
 20
9.91013330E+01
  0
VERTEX
  8
0
 62
4
 10
-2.96440506E+01
 20
9.92262680E+01
  0
VERTEX
  8
0
 62
4
 10
-2.93500000E+01
 20
9.93770156E+01
  0
VERTEX
  8
0
 62
4
 10
-2.90704095E+01
 20
9.95524283E+01
  0
VERTEX
  8
0
 62
4
 10
-2.88074071E+01
 20
9.97511713E+01
  0
VERTEX
  8
0
 62
4
 10
-2.85629942E+01
 20
9.99717319E+01
  0
VERTEX
  8
0
 62
4
 10
-2.83390311E+01
 20
1.00212432E+02
  0
VERTEX
  8
0
 62
4
 10
-2.81372222E+01
 20
1.00471438E+02
  0
VERTEX
  8
0
 62
4
 10
-2.79591034E+01
 20
1.00746781E+02
  0
VERTEX
  8
0
 62
4
 10
-2.78060304E+01
 20
1.01036365E+02
  0
VERTEX
  8
0
 62
4
 10
-2.76791680E+01
 20
1.01337984E+02
  0
VERTEX
  8
0
 62
4
 10
-2.75794818E+01
 20
1.01649345E+02
  0
VERTEX
  8
0
 62
4
 10
-2.75077305E+01
 20
1.01968078E+02
  0
VERTEX
  8
0
 62
4
 10
-2.74644601E+01
 20
1.02291756E+02
  0
VERTEX
  8
0
 62
4
 10
-2.74500000E+01
 20
1.02617916E+02
  0
VERTEX
  8
0
 62
4
 10
-2.74644601E+01
 20
1.02944076E+02
  0
VERTEX
  8
0
 62
4
 10
-2.75077305E+01
 20
1.03267754E+02
  0
VERTEX
  8
0
 62
4
 10
-2.75794818E+01
 20
1.03586487E+02
  0
VERTEX
  8
0
 62
4
 10
-2.76791680E+01
 20
1.03897848E+02
  0
VERTEX
  8
0
 62
4
 10
-2.78060304E+01
 20
1.04199467E+02
  0
VERTEX
  8
0
 62
4
 10
-2.79591034E+01
 20
1.04489051E+02
  0
VERTEX
  8
0
 62
4
 10
-2.81372222E+01
 20
1.04764394E+02
  0
VERTEX
  8
0
 62
4
 10
-2.83390311E+01
 20
1.05023400E+02
  0
VERTEX
  8
0
 62
4
 10
-2.85629942E+01
 20
1.05264100E+02
  0
VERTEX
  8
0
 62
4
 10
-2.88074071E+01
 20
1.05484661E+02
  0
VERTEX
  8
0
 62
4
 10
-2.90704095E+01
 20
1.05683404E+02
  0
VERTEX
  8
0
 62
4
 10
-2.93500000E+01
 20
1.05858816E+02
  0
VERTEX
  8
0
 62
4
 10
-2.96440506E+01
 20
1.06009564E+02
  0
VERTEX
  8
0
 62
4
 10
-2.99503234E+01
 20
1.06134499E+02
  0
VERTEX
  8
0
 62
4
 10
-3.02664876E+01
 20
1.06232671E+02
  0
VERTEX
  8
0
 62
4
 10
-3.05901369E+01
 20
1.06303332E+02
  0
VERTEX
  8
0
 62
4
 10
-3.09188082E+01
 20
1.06345945E+02
  0
VERTEX
  8
0
 62
4
 10
-3.12500000E+01
 20
1.06360185E+02
  0
VERTEX
  8
0
 62
4
 10
-3.15811918E+01
 20
1.06345945E+02
  0
VERTEX
  8
0
 62
4
 10
-3.19098631E+01
 20
1.06303332E+02
  0
VERTEX
  8
0
 62
4
 10
-3.22335124E+01
 20
1.06232671E+02
  0
VERTEX
  8
0
 62
4
 10
-3.25496766E+01
 20
1.06134499E+02
  0
VERTEX
  8
0
 62
4
 10
-3.28559494E+01
 20
1.06009564E+02
  0
VERTEX
  8
0
 62
4
 10
-3.31500000E+01
 20
1.05858816E+02
  0
VERTEX
  8
0
 62
4
 10
-3.34295905E+01
 20
1.05683404E+02
  0
VERTEX
  8
0
 62
4
 10
-3.36925929E+01
 20
1.05484661E+02
  0
VERTEX
  8
0
 62
4
 10
-3.39370058E+01
 20
1.05264100E+02
  0
VERTEX
  8
0
 62
4
 10
-3.41609689E+01
 20
1.05023400E+02
  0
VERTEX
  8
0
 62
4
 10
-3.43627778E+01
 20
1.04764394E+02
  0
VERTEX
  8
0
 62
4
 10
-3.45408966E+01
 20
1.04489051E+02
  0
VERTEX
  8
0
 62
4
 10
-3.46939696E+01
 20
1.04199467E+02
  0
VERTEX
  8
0
 62
4
 10
-3.48208320E+01
 20
1.03897848E+02
  0
VERTEX
  8
0
 62
4
 10
-3.49205182E+01
 20
1.03586487E+02
  0
VERTEX
  8
0
 62
4
 10
-3.49922695E+01
 20
1.03267754E+02
  0
VERTEX
  8
0
 62
4
 10
-3.50355399E+01
 20
1.02944076E+02
  0
VERTEX
  8
0
 62
4
 10
-3.50500000E+01
 20
1.02617916E+02
  0
SEQEND
  8
0
  0
LINE
  8
0
 62
4
 10
-2.74500000E+01
 20
1.02444268E+02
 11
-2.74500000E+01
 21
1.02617916E+02
  0
LINE
  8
0
 62
4
 10
-3.46500000E+01
 20
1.02617916E+02
 11
-3.46500000E+01
 21
1.02814278E+02
  0
POLYLINE
  8
0
 62
4
 66
1
  0
VERTEX
  8
0
 62
4
 10
-3.46500000E+01
 20
1.02617916E+02
  0
VERTEX
  8
0
 62
4
 10
-3.46363126E+01
 20
1.02317773E+02
  0
VERTEX
  8
0
 62
4
 10
-3.45953606E+01
 20
1.02020046E+02
  0
VERTEX
  8
0
 62
4
 10
-3.45274738E+01
 20
1.01727133E+02
  0
VERTEX
  8
0
 62
4
 10
-3.44331986E+01
 20
1.01441391E+02
  0
VERTEX
  8
0
 62
4
 10
-3.43132942E+01
 20
1.01165123E+02
  0
VERTEX
  8
0
 62
4
 10
-3.41687259E+01
 20
1.00900552E+02
  0
VERTEX
  8
0
 62
4
 10
-3.40006578E+01
 20
1.00649807E+02
  0
VERTEX
  8
0
 62
4
 10
-3.38104430E+01
 20
1.00414909E+02
  0
VERTEX
  8
0
 62
4
 10
-3.35996130E+01
 20
1.00197748E+02
  0
VERTEX
  8
0
 62
4
 10
-3.33698654E+01
 20
1.00000073E+02
  0
VERTEX
  8
0
 62
4
 10
-3.31230498E+01
 20
9.98234757E+01
  0
VERTEX
  8
0
 62
4
 10
-3.28611535E+01
 20
9.96693772E+01
  0
VERTEX
  8
0
 62
4
 10
-3.25862851E+01
 20
9.95390185E+01
  0
VERTEX
  8
0
 62
4
 10
-3.23006578E+01
 20
9.94334494E+01
  0
VERTEX
  8
0
 62
4
 10
-3.20065712E+01
 20
9.93535197E+01
  0
VERTEX
  8
0
 62
4
 10
-3.17063931E+01
 20
9.92998730E+01
  0
VERTEX
  8
0
 62
4
 10
-3.14025404E+01
 20
9.92729412E+01
  0
VERTEX
  8
0
 62
4
 10
-3.10974596E+01
 20
9.92729412E+01
  0
VERTEX
  8
0
 62
4
 10
-3.07936069E+01
 20
9.92998730E+01
  0
VERTEX
  8
0
 62
4
 10
-3.04934288E+01
 20
9.93535197E+01
  0
VERTEX
  8
0
 62
4
 10
-3.01993422E+01
 20
9.94334494E+01
  0
VERTEX
  8
0
 62
4
 10
-2.99137149E+01
 20
9.95390185E+01
  0
VERTEX
  8
0
 62
4
 10
-2.96388466E+01
 20
9.96693771E+01
  0
VERTEX
  8
0
 62
4
 10
-2.93769503E+01
 20
9.98234757E+01
  0
VERTEX
  8
0
 62
4
 10
-2.91301347E+01
 20
1.00000073E+02
  0
VERTEX
  8
0
 62
4
 10
-2.89003870E+01
 20
1.00197748E+02
  0
VERTEX
  8
0
 62
4
 10
-2.86895570E+01
 20
1.00414909E+02
  0
VERTEX
  8
0
 62
4
 10
-2.84993422E+01
 20
1.00649807E+02
  0
VERTEX
  8
0
 62
4
 10
-2.83312741E+01
 20
1.00900552E+02
  0
VERTEX
  8
0
 62
4
 10
-2.81867058E+01
 20
1.01165123E+02
  0
VERTEX
  8
0
 62
4
 10
-2.80668014E+01
 20
1.01441391E+02
  0
VERTEX
  8
0
 62
4
 10
-2.79725263E+01
 20
1.01727132E+02
  0
VERTEX
  8
0
 62
4
 10
-2.79046394E+01
 20
1.02020046E+02
  0
VERTEX
  8
0
 62
4
 10
-2.78636874E+01
 20
1.02317773E+02
  0
VERTEX
  8
0
 62
4
 10
-2.78500000E+01
 20
1.02617916E+02
  0
SEQEND
  8
0
  0
POLYLINE
  8
0
 62
4
 66
1
  0
VERTEX
  8
0
 62
4
 10
-3.46500000E+01
 20
1.02814278E+02
  0
VERTEX
  8
0
 62
4
 10
-3.46370620E+01
 20
1.02522450E+02
  0
VERTEX
  8
0
 62
4
 10
-3.45983464E+01
 20
1.02232844E+02
  0
VERTEX
  8
0
 62
4
 10
-3.45341478E+01
 20
1.01947662E+02
  0
VERTEX
  8
0
 62
4
 10
-3.44449549E+01
 20
1.01669076E+02
  0
VERTEX
  8
0
 62
4
 10
-3.43314465E+01
 20
1.01399206E+02
  0
VERTEX
  8
0
 62
4
 10
-3.41944864E+01
 20
1.01140105E+02
  0
VERTEX
  8
0
 62
4
 10
-3.40351170E+01
 20
1.00893745E+02
  0
VERTEX
  8
0
 62
4
 10
-3.38545511E+01
 20
1.00662002E+02
  0
VERTEX
  8
0
 62
4
 10
-3.36541631E+01
 20
1.00446639E+02
  0
VERTEX
  8
0
 62
4
 10
-3.34354779E+01
 20
1.00249296E+02
  0
VERTEX
  8
0
 62
4
 10
-3.32001599E+01
 20
1.00071473E+02
  0
VERTEX
  8
0
 62
4
 10
-3.29500000E+01
 20
9.99145247E+01
  0
VERTEX
  8
0
 62
4
 10
-3.26869021E+01
 20
9.97796454E+01
  0
VERTEX
  8
0
 62
4
 10
-3.24128685E+01
 20
9.96678614E+01
  0
VERTEX
  8
0
 62
4
 10
-3.21299848E+01
 20
9.95800235E+01
  0
VERTEX
  8
0
 62
4
 10
-3.18404038E+01
 20
9.95168003E+01
  0
VERTEX
  8
0
 62
4
 10
-3.15463295E+01
 20
9.94786728E+01
  0
VERTEX
  8
0
 62
4
 10
-3.12500000E+01
 20
9.94659314E+01
  0
VERTEX
  8
0
 62
4
 10
-3.09536705E+01
 20
9.94786728E+01
  0
VERTEX
  8
0
 62
4
 10
-3.06595962E+01
 20
9.95168003E+01
  0
VERTEX
  8
0
 62
4
 10
-3.03700152E+01
 20
9.95800235E+01
  0
VERTEX
  8
0
 62
4
 10
-3.00871315E+01
 20
9.96678614E+01
  0
VERTEX
  8
0
 62
4
 10
-2.98130979E+01
 20
9.97796454E+01
  0
VERTEX
  8
0
 62
4
 10
-2.95500000E+01
 20
9.99145247E+01
  0
VERTEX
  8
0
 62
4
 10
-2.92998401E+01
 20
1.00071473E+02
  0
VERTEX
  8
0
 62
4
 10
-2.90645221E+01
 20
1.00249296E+02
  0
VERTEX
  8
0
 62
4
 10
-2.88458369E+01
 20
1.00446639E+02
  0
VERTEX
  8
0
 62
4
 10
-2.86454489E+01
 20
1.00662002E+02
  0
VERTEX
  8
0
 62
4
 10
-2.84648830E+01
 20
1.00893745E+02
  0
VERTEX
  8
0
 62
4
 10
-2.83055136E+01
 20
1.01140105E+02
  0
VERTEX
  8
0
 62
4
 10
-2.81685535E+01
 20
1.01399206E+02
  0
VERTEX
  8
0
 62
4
 10
-2.80550451E+01
 20
1.01669076E+02
  0
VERTEX
  8
0
 62
4
 10
-2.79658522E+01
 20
1.01947662E+02
  0
VERTEX
  8
0
 62
4
 10
-2.79016536E+01
 20
1.02232844E+02
  0
VERTEX
  8
0
 62
4
 10
-2.78629380E+01
 20
1.02522450E+02
  0
VERTEX
  8
0
 62
4
 10
-2.78500000E+01
 20
1.02814278E+02
  0
VERTEX
  8
0
 62
4
 10
-2.78629380E+01
 20
1.03106106E+02
  0
VERTEX
  8
0
 62
4
 10
-2.79016536E+01
 20
1.03395712E+02
  0
VERTEX
  8
0
 62
4
 10
-2.79658522E+01
 20
1.03680894E+02
  0
VERTEX
  8
0
 62
4
 10
-2.80550451E+01
 20
1.03959480E+02
  0
VERTEX
  8
0
 62
4
 10
-2.81685535E+01
 20
1.04229350E+02
  0
VERTEX
  8
0
 62
4
 10
-2.83055136E+01
 20
1.04488451E+02
  0
VERTEX
  8
0
 62
4
 10
-2.84648830E+01
 20
1.04734811E+02
  0
VERTEX
  8
0
 62
4
 10
-2.86454489E+01
 20
1.04966554E+02
  0
VERTEX
  8
0
 62
4
 10
-2.88458369E+01
 20
1.05181917E+02
  0
VERTEX
  8
0
 62
4
 10
-2.90645221E+01
 20
1.05379260E+02
  0
VERTEX
  8
0
 62
4
 10
-2.92998401E+01
 20
1.05557083E+02
  0
VERTEX
  8
0
 62
4
 10
-2.95500000E+01
 20
1.05714031E+02
  0
VERTEX
  8
0
 62
4
 10
-2.98130979E+01
 20
1.05848911E+02
  0
VERTEX
  8
0
 62
4
 10
-3.00871315E+01
 20
1.05960695E+02
  0
VERTEX
  8
0
 62
4
 10
-3.03700152E+01
 20
1.06048533E+02
  0
VERTEX
  8
0
 62
4
 10
-3.06595962E+01
 20
1.06111756E+02
  0
VERTEX
  8
0
 62
4
 10
-3.09536705E+01
 20
1.06149883E+02
  0
VERTEX
  8
0
 62
4
 10
-3.12500000E+01
 20
1.06162625E+02
  0
VERTEX
  8
0
 62
4
 10
-3.15463295E+01
 20
1.06149883E+02
  0
VERTEX
  8
0
 62
4
 10
-3.18404038E+01
 20
1.06111756E+02
  0
VERTEX
  8
0
 62
4
 10
-3.21299848E+01
 20
1.06048533E+02
  0
VERTEX
  8
0
 62
4
 10
-3.24128685E+01
 20
1.05960695E+02
  0
VERTEX
  8
0
 62
4
 10
-3.26869021E+01
 20
1.05848911E+02
  0
VERTEX
  8
0
 62
4
 10
-3.29500000E+01
 20
1.05714031E+02
  0
VERTEX
  8
0
 62
4
 10
-3.32001599E+01
 20
1.05557083E+02
  0
VERTEX
  8
0
 62
4
 10
-3.34354779E+01
 20
1.05379260E+02
  0
VERTEX
  8
0
 62
4
 10
-3.36541631E+01
 20
1.05181917E+02
  0
VERTEX
  8
0
 62
4
 10
-3.38545511E+01
 20
1.04966554E+02
  0
VERTEX
  8
0
 62
4
 10
-3.40351170E+01
 20
1.04734811E+02
  0
VERTEX
  8
0
 62
4
 10
-3.41944864E+01
 20
1.04488451E+02
  0
VERTEX
  8
0
 62
4
 10
-3.43314465E+01
 20
1.04229350E+02
  0
VERTEX
  8
0
 62
4
 10
-3.44449549E+01
 20
1.03959480E+02
  0
VERTEX
  8
0
 62
4
 10
-3.45341478E+01
 20
1.03680894E+02
  0
VERTEX
  8
0
 62
4
 10
-3.45983464E+01
 20
1.03395712E+02
  0
VERTEX
  8
0
 62
4
 10
-3.46370620E+01
 20
1.03106106E+02
  0
VERTEX
  8
0
 62
4
 10
-3.46500000E+01
 20
1.02814278E+02
  0
SEQEND
  8
0
  0
LINE
  8
0
 62
4
 10
-2.78500000E+01
 20
1.02617916E+02
 11
-2.78500000E+01
 21
1.02814278E+02
  0
ARC
  8
0
 62
4
 10
9.99314687E+01
 20
-3.01934850E+01
 40
1.86971513E+02
 50
1.33801123E+02
 51
1.35321779E+02
  0
ARC
  8
0
 62
4
 10
-1.62431469E+02
 20
-3.01934850E+01
 40
1.86971513E+02
 50
4.46782203E+01
 51
4.61988768E+01
  0
LINE
  8
0
 62
4
 10
-5.37500000E+01
 20
9.21037861E+01
 11
-5.37500000E+01
 21
9.03694494E+01
  0
LINE
  8
0
 62
4
 10
-5.37500000E+01
 20
9.61762276E+01
 11
-5.37500000E+01
 21
9.21037861E+01
  0
LINE
  8
0
 62
4
 10
-5.37500000E+01
 20
9.66339018E+01
 11
-4.20871230E+01
 21
9.66339018E+01
  0
LINE
  8
0
 62
4
 10
-5.37500000E+01
 20
9.22369965E+01
 11
-3.02500000E+01
 21
9.22369965E+01
  0
LINE
  8
0
 62
4
 10
-5.37500000E+01
 20
9.61762276E+01
 11
-4.16872448E+01
 21
9.61762276E+01
  0
LINE
  8
0
 62
4
 10
-5.52500000E+01
 20
9.25444682E+01
 11
-5.37500000E+01
 21
9.15424038E+01
  0
LINE
  8
0
 62
4
 10
-5.52500000E+01
 20
9.29377813E+01
 11
-5.37500000E+01
 21
9.22369965E+01
  0
LINE
  8
0
 62
4
 10
-5.52500000E+01
 20
9.51683709E+01
 11
-5.52500000E+01
 21
9.25444682E+01
  0
LINE
  8
0
 62
4
 10
-5.37500000E+01
 20
9.61762276E+01
 11
-5.52500000E+01
 21
9.51683709E+01
  0
LINE
  8
0
 62
4
 10
-5.37500000E+01
 20
9.21037861E+01
 11
-2.37500000E+01
 21
9.21037861E+01
  0
LINE
  8
0
 62
4
 10
-5.37500000E+01
 20
9.11189784E+01
 11
-2.37500000E+01
 21
9.11189784E+01
  0
LINE
  8
0
 62
4
 10
-5.37500000E+01
 20
1.06875902E+02
 11
-2.37500000E+01
 21
1.06875902E+02
  0
POLYLINE
  8
0
 62
4
 66
1
  0
VERTEX
  8
0
 62
4
 10
1.07500000E+01
 20
8.26996244E+01
  0
VERTEX
  8
0
 62
4
 10
1.07419486E+01
 20
8.28761794E+01
  0
VERTEX
  8
0
 62
4
 10
1.07178592E+01
 20
8.30513128E+01
  0
VERTEX
  8
0
 62
4
 10
1.06779257E+01
 20
8.32236147E+01
  0
VERTEX
  8
0
 62
4
 10
1.06224697E+01
 20
8.33916977E+01
  0
VERTEX
  8
0
 62
4
 10
1.05519377E+01
 20
8.35542085E+01
  0
VERTEX
  8
0
 62
4
 10
1.04668976E+01
 20
8.37098388E+01
  0
VERTEX
  8
0
 62
4
 10
1.03680340E+01
 20
8.38573353E+01
  0
VERTEX
  8
0
 62
4
 10
1.02561429E+01
 20
8.39955107E+01
  0
VERTEX
  8
0
 62
4
 10
1.01321253E+01
 20
8.41232524E+01
  0
VERTEX
  8
0
 62
4
 10
9.99697962E+00
 20
8.42395318E+01
  0
VERTEX
  8
0
 62
4
 10
9.85179398E+00
 20
8.43434128E+01
  0
VERTEX
  8
0
 62
4
 10
9.69773734E+00
 20
8.44340590E+01
  0
VERTEX
  8
0
 62
4
 10
9.53605008E+00
 20
8.45107406E+01
  0
VERTEX
  8
0
 62
4
 10
9.36803401E+00
 20
8.45728401E+01
  0
VERTEX
  8
0
 62
4
 10
9.19504188E+00
 20
8.46198575E+01
  0
VERTEX
  8
0
 62
4
 10
9.01846655E+00
 20
8.46514144E+01
  0
VERTEX
  8
0
 62
4
 10
8.83972968E+00
 20
8.46672566E+01
  0
VERTEX
  8
0
 62
4
 10
8.66027036E+00
 20
8.46672566E+01
  0
VERTEX
  8
0
 62
4
 10
8.48153349E+00
 20
8.46514144E+01
  0
VERTEX
  8
0
 62
4
 10
8.30495815E+00
 20
8.46198575E+01
  0
VERTEX
  8
0
 62
4
 10
8.13196603E+00
 20
8.45728401E+01
  0
VERTEX
  8
0
 62
4
 10
7.96394995E+00
 20
8.45107406E+01
  0
VERTEX
  8
0
 62
4
 10
7.80226269E+00
 20
8.44340590E+01
  0
VERTEX
  8
0
 62
4
 10
7.64820605E+00
 20
8.43434128E+01
  0
VERTEX
  8
0
 62
4
 10
7.50302041E+00
 20
8.42395318E+01
  0
VERTEX
  8
0
 62
4
 10
7.36787472E+00
 20
8.41232524E+01
  0
VERTEX
  8
0
 62
4
 10
7.24385708E+00
 20
8.39955107E+01
  0
VERTEX
  8
0
 62
4
 10
7.13196602E+00
 20
8.38573354E+01
  0
VERTEX
  8
0
 62
4
 10
7.03310242E+00
 20
8.37098388E+01
  0
VERTEX
  8
0
 62
4
 10
6.94806227E+00
 20
8.35542086E+01
  0
VERTEX
  8
0
 62
4
 10
6.87753027E+00
 20
8.33916977E+01
  0
VERTEX
  8
0
 62
4
 10
6.82207428E+00
 20
8.32236147E+01
  0
VERTEX
  8
0
 62
4
 10
6.78214083E+00
 20
8.30513128E+01
  0
VERTEX
  8
0
 62
4
 10
6.75805141E+00
 20
8.28761794E+01
  0
VERTEX
  8
0
 62
4
 10
6.75000000E+00
 20
8.26996244E+01
  0
SEQEND
  8
0
  0
POLYLINE
  8
0
 62
4
 66
1
  0
VERTEX
  8
0
 62
4
 10
6.75000000E+00
 20
8.21639850E+01
  0
VERTEX
  8
0
 62
4
 10
6.75761060E+00
 20
8.19923217E+01
  0
VERTEX
  8
0
 62
4
 10
6.78038449E+00
 20
8.18219649E+01
  0
VERTEX
  8
0
 62
4
 10
6.81814835E+00
 20
8.16542110E+01
  0
VERTEX
  8
0
 62
4
 10
6.87061476E+00
 20
8.14903368E+01
  0
VERTEX
  8
0
 62
4
 10
6.93738442E+00
 20
8.13315895E+01
  0
VERTEX
  8
0
 62
4
 10
7.01794919E+00
 20
8.11791773E+01
  0
VERTEX
  8
0
 62
4
 10
7.11169591E+00
 20
8.10342600E+01
  0
VERTEX
  8
0
 62
4
 10
7.21791111E+00
 20
8.08979406E+01
  0
VERTEX
  8
0
 62
4
 10
7.33578643E+00
 20
8.07712565E+01
  0
VERTEX
  8
0
 62
4
 10
7.46442478E+00
 20
8.06551720E+01
  0
VERTEX
  8
0
 62
4
 10
7.60284712E+00
 20
8.05505704E+01
  0
VERTEX
  8
0
 62
4
 10
7.74999999E+00
 20
8.04582479E+01
  0
VERTEX
  8
0
 62
4
 10
7.90476347E+00
 20
8.03789071E+01
  0
VERTEX
  8
0
 62
4
 10
8.06595971E+00
 20
8.03131518E+01
  0
VERTEX
  8
0
 62
4
 10
8.23236190E+00
 20
8.02614825E+01
  0
VERTEX
  8
0
 62
4
 10
8.40270364E+00
 20
8.02242924E+01
  0
VERTEX
  8
0
 62
4
 10
8.57568851E+00
 20
8.02018645E+01
  0
VERTEX
  8
0
 62
4
 10
8.74999999E+00
 20
8.01943695E+01
  0
VERTEX
  8
0
 62
4
 10
8.92431148E+00
 20
8.02018645E+01
  0
VERTEX
  8
0
 62
4
 10
9.09729635E+00
 20
8.02242924E+01
  0
VERTEX
  8
0
 62
4
 10
9.26763808E+00
 20
8.02614825E+01
  0
VERTEX
  8
0
 62
4
 10
9.43404028E+00
 20
8.03131518E+01
  0
VERTEX
  8
0
 62
4
 10
9.59523652E+00
 20
8.03789071E+01
  0
VERTEX
  8
0
 62
4
 10
9.75000000E+00
 20
8.04582479E+01
  0
VERTEX
  8
0
 62
4
 10
9.89715287E+00
 20
8.05505704E+01
  0
VERTEX
  8
0
 62
4
 10
1.00355752E+01
 20
8.06551720E+01
  0
VERTEX
  8
0
 62
4
 10
1.01642136E+01
 20
8.07712565E+01
  0
VERTEX
  8
0
 62
4
 10
1.02820889E+01
 20
8.08979406E+01
  0
VERTEX
  8
0
 62
4
 10
1.03883041E+01
 20
8.10342600E+01
  0
VERTEX
  8
0
 62
4
 10
1.04820508E+01
 20
8.11791772E+01
  0
VERTEX
  8
0
 62
4
 10
1.05626156E+01
 20
8.13315895E+01
  0
VERTEX
  8
0
 62
4
 10
1.06293852E+01
 20
8.14903368E+01
  0
VERTEX
  8
0
 62
4
 10
1.06818517E+01
 20
8.16542110E+01
  0
VERTEX
  8
0
 62
4
 10
1.07196155E+01
 20
8.18219649E+01
  0
VERTEX
  8
0
 62
4
 10
1.07423894E+01
 20
8.19923217E+01
  0
VERTEX
  8
0
 62
4
 10
1.07500000E+01
 20
8.21639850E+01
  0
VERTEX
  8
0
 62
4
 10
1.07423894E+01
 20
8.23356483E+01
  0
VERTEX
  8
0
 62
4
 10
1.07196155E+01
 20
8.25060051E+01
  0
VERTEX
  8
0
 62
4
 10
1.06818517E+01
 20
8.26737590E+01
  0
VERTEX
  8
0
 62
4
 10
1.06293852E+01
 20
8.28376332E+01
  0
VERTEX
  8
0
 62
4
 10
1.05626156E+01
 20
8.29963805E+01
  0
VERTEX
  8
0
 62
4
 10
1.04820508E+01
 20
8.31487928E+01
  0
VERTEX
  8
0
 62
4
 10
1.03883041E+01
 20
8.32937100E+01
  0
VERTEX
  8
0
 62
4
 10
1.02820889E+01
 20
8.34300294E+01
  0
VERTEX
  8
0
 62
4
 10
1.01642136E+01
 20
8.35567135E+01
  0
VERTEX
  8
0
 62
4
 10
1.00355752E+01
 20
8.36727980E+01
  0
VERTEX
  8
0
 62
4
 10
9.89715288E+00
 20
8.37773996E+01
  0
VERTEX
  8
0
 62
4
 10
9.75000000E+00
 20
8.38697221E+01
  0
VERTEX
  8
0
 62
4
 10
9.59523653E+00
 20
8.39490629E+01
  0
VERTEX
  8
0
 62
4
 10
9.43404029E+00
 20
8.40148182E+01
  0
VERTEX
  8
0
 62
4
 10
9.26763809E+00
 20
8.40664875E+01
  0
VERTEX
  8
0
 62
4
 10
9.09729636E+00
 20
8.41036776E+01
  0
VERTEX
  8
0
 62
4
 10
8.92431149E+00
 20
8.41261055E+01
  0
VERTEX
  8
0
 62
4
 10
8.75000000E+00
 20
8.41336005E+01
  0
VERTEX
  8
0
 62
4
 10
8.57568852E+00
 20
8.41261055E+01
  0
VERTEX
  8
0
 62
4
 10
8.40270365E+00
 20
8.41036776E+01
  0
VERTEX
  8
0
 62
4
 10
8.23236191E+00
 20
8.40664875E+01
  0
VERTEX
  8
0
 62
4
 10
8.06595972E+00
 20
8.40148182E+01
  0
VERTEX
  8
0
 62
4
 10
7.90476348E+00
 20
8.39490629E+01
  0
VERTEX
  8
0
 62
4
 10
7.75000000E+00
 20
8.38697221E+01
  0
VERTEX
  8
0
 62
4
 10
7.60284713E+00
 20
8.37773996E+01
  0
VERTEX
  8
0
 62
4
 10
7.46442478E+00
 20
8.36727980E+01
  0
VERTEX
  8
0
 62
4
 10
7.33578644E+00
 20
8.35567135E+01
  0
VERTEX
  8
0
 62
4
 10
7.21791112E+00
 20
8.34300294E+01
  0
VERTEX
  8
0
 62
4
 10
7.11169591E+00
 20
8.32937100E+01
  0
VERTEX
  8
0
 62
4
 10
7.01794919E+00
 20
8.31487928E+01
  0
VERTEX
  8
0
 62
4
 10
6.93738443E+00
 20
8.29963805E+01
  0
VERTEX
  8
0
 62
4
 10
6.87061476E+00
 20
8.28376332E+01
  0
VERTEX
  8
0
 62
4
 10
6.81814835E+00
 20
8.26737590E+01
  0
VERTEX
  8
0
 62
4
 10
6.78038449E+00
 20
8.25060051E+01
  0
VERTEX
  8
0
 62
4
 10
6.75761060E+00
 20
8.23356483E+01
  0
VERTEX
  8
0
 62
4
 10
6.75000000E+00
 20
8.21639850E+01
  0
SEQEND
  8
0
  0
LINE
  8
0
 62
4
 10
6.75000000E+00
 20
8.21639850E+01
 11
6.75000000E+00
 21
8.26996244E+01
  0
LINE
  8
0
 62
4
 10
1.07500000E+01
 20
8.21639850E+01
 11
1.07500000E+01
 21
8.26996244E+01
  0
POLYLINE
  8
0
 62
6
 66
1
  0
VERTEX
  8
0
 62
6
 10
1.02500000E+01
 20
8.21639850E+01
  0
VERTEX
  8
0
 62
6
 10
1.02442920E+01
 20
8.22927325E+01
  0
VERTEX
  8
0
 62
6
 10
1.02272116E+01
 20
8.24205001E+01
  0
VERTEX
  8
0
 62
6
 10
1.01988887E+01
 20
8.25463155E+01
  0
VERTEX
  8
0
 62
6
 10
1.01595389E+01
 20
8.26692211E+01
  0
VERTEX
  8
0
 62
6
 10
1.01094617E+01
 20
8.27882816E+01
  0
VERTEX
  8
0
 62
6
 10
1.00490381E+01
 20
8.29025908E+01
  0
VERTEX
  8
0
 62
6
 10
9.97872807E+00
 20
8.30112788E+01
  0
VERTEX
  8
0
 62
6
 10
9.89906666E+00
 20
8.31135183E+01
  0
VERTEX
  8
0
 62
6
 10
9.81066017E+00
 20
8.32085314E+01
  0
VERTEX
  8
0
 62
6
 10
9.71418141E+00
 20
8.32955948E+01
  0
VERTEX
  8
0
 62
6
 10
9.61036465E+00
 20
8.33740459E+01
  0
VERTEX
  8
0
 62
6
 10
9.50000000E+00
 20
8.34432878E+01
  0
VERTEX
  8
0
 62
6
 10
9.38392739E+00
 20
8.35027934E+01
  0
VERTEX
  8
0
 62
6
 10
9.26303021E+00
 20
8.35521099E+01
  0
VERTEX
  8
0
 62
6
 10
9.13822857E+00
 20
8.35908619E+01
  0
VERTEX
  8
0
 62
6
 10
9.01047227E+00
 20
8.36187545E+01
  0
VERTEX
  8
0
 62
6
 10
8.88073361E+00
 20
8.36355754E+01
  0
VERTEX
  8
0
 62
6
 10
8.75000000E+00
 20
8.36411966E+01
  0
VERTEX
  8
0
 62
6
 10
8.61926638E+00
 20
8.36355754E+01
  0
VERTEX
  8
0
 62
6
 10
8.48952773E+00
 20
8.36187545E+01
  0
VERTEX
  8
0
 62
6
 10
8.36177143E+00
 20
8.35908619E+01
  0
VERTEX
  8
0
 62
6
 10
8.23696978E+00
 20
8.35521099E+01
  0
VERTEX
  8
0
 62
6
 10
8.11607261E+00
 20
8.35027934E+01
  0
VERTEX
  8
0
 62
6
 10
8.00000000E+00
 20
8.34432878E+01
  0
VERTEX
  8
0
 62
6
 10
7.88963534E+00
 20
8.33740459E+01
  0
VERTEX
  8
0
 62
6
 10
7.78581858E+00
 20
8.32955948E+01
  0
VERTEX
  8
0
 62
6
 10
7.68933983E+00
 20
8.32085314E+01
  0
VERTEX
  8
0
 62
6
 10
7.60093333E+00
 20
8.31135183E+01
  0
VERTEX
  8
0
 62
6
 10
7.52127193E+00
 20
8.30112788E+01
  0
VERTEX
  8
0
 62
6
 10
7.45096189E+00
 20
8.29025908E+01
  0
VERTEX
  8
0
 62
6
 10
7.39053832E+00
 20
8.27882816E+01
  0
VERTEX
  8
0
 62
6
 10
7.34046107E+00
 20
8.26692211E+01
  0
VERTEX
  8
0
 62
6
 10
7.30111126E+00
 20
8.25463155E+01
  0
VERTEX
  8
0
 62
6
 10
7.27278837E+00
 20
8.24205001E+01
  0
VERTEX
  8
0
 62
6
 10
7.25570795E+00
 20
8.22927325E+01
  0
VERTEX
  8
0
 62
6
 10
7.25000000E+00
 20
8.21639850E+01
  0
VERTEX
  8
0
 62
6
 10
7.25570795E+00
 20
8.20352375E+01
  0
VERTEX
  8
0
 62
6
 10
7.27278837E+00
 20
8.19074699E+01
  0
VERTEX
  8
0
 62
6
 10
7.30111126E+00
 20
8.17816545E+01
  0
VERTEX
  8
0
 62
6
 10
7.34046107E+00
 20
8.16587489E+01
  0
VERTEX
  8
0
 62
6
 10
7.39053832E+00
 20
8.15396884E+01
  0
VERTEX
  8
0
 62
6
 10
7.45096190E+00
 20
8.14253792E+01
  0
VERTEX
  8
0
 62
6
 10
7.52127194E+00
 20
8.13166912E+01
  0
VERTEX
  8
0
 62
6
 10
7.60093334E+00
 20
8.12144517E+01
  0
VERTEX
  8
0
 62
6
 10
7.68933983E+00
 20
8.11194386E+01
  0
VERTEX
  8
0
 62
6
 10
7.78581859E+00
 20
8.10323752E+01
  0
VERTEX
  8
0
 62
6
 10
7.88963535E+00
 20
8.09539241E+01
  0
VERTEX
  8
0
 62
6
 10
8.00000000E+00
 20
8.08846822E+01
  0
VERTEX
  8
0
 62
6
 10
8.11607261E+00
 20
8.08251766E+01
  0
VERTEX
  8
0
 62
6
 10
8.23696979E+00
 20
8.07758601E+01
  0
VERTEX
  8
0
 62
6
 10
8.36177144E+00
 20
8.07371081E+01
  0
VERTEX
  8
0
 62
6
 10
8.48952774E+00
 20
8.07092155E+01
  0
VERTEX
  8
0
 62
6
 10
8.61926639E+00
 20
8.06923946E+01
  0
VERTEX
  8
0
 62
6
 10
8.75000000E+00
 20
8.06867734E+01
  0
VERTEX
  8
0
 62
6
 10
8.88073362E+00
 20
8.06923946E+01
  0
VERTEX
  8
0
 62
6
 10
9.01047227E+00
 20
8.07092155E+01
  0
VERTEX
  8
0
 62
6
 10
9.13822857E+00
 20
8.07371081E+01
  0
VERTEX
  8
0
 62
6
 10
9.26303022E+00
 20
8.07758601E+01
  0
VERTEX
  8
0
 62
6
 10
9.38392740E+00
 20
8.08251766E+01
  0
VERTEX
  8
0
 62
6
 10
9.50000000E+00
 20
8.08846822E+01
  0
VERTEX
  8
0
 62
6
 10
9.61036466E+00
 20
8.09539241E+01
  0
VERTEX
  8
0
 62
6
 10
9.71418142E+00
 20
8.10323752E+01
  0
VERTEX
  8
0
 62
6
 10
9.81066017E+00
 20
8.11194386E+01
  0
VERTEX
  8
0
 62
6
 10
9.89906667E+00
 20
8.12144517E+01
  0
VERTEX
  8
0
 62
6
 10
9.97872807E+00
 20
8.13166912E+01
  0
VERTEX
  8
0
 62
6
 10
1.00490381E+01
 20
8.14253792E+01
  0
VERTEX
  8
0
 62
6
 10
1.01094617E+01
 20
8.15396884E+01
  0
VERTEX
  8
0
 62
6
 10
1.01595389E+01
 20
8.16587489E+01
  0
VERTEX
  8
0
 62
6
 10
1.01988887E+01
 20
8.17816545E+01
  0
VERTEX
  8
0
 62
6
 10
1.02272116E+01
 20
8.19074699E+01
  0
VERTEX
  8
0
 62
6
 10
1.02442920E+01
 20
8.20352375E+01
  0
VERTEX
  8
0
 62
6
 10
1.02500000E+01
 20
8.21639850E+01
  0
SEQEND
  8
0
  0
LINE
  8
0
 62
4
 10
7.75000000E+00
 20
8.27351735E+01
 11
7.75000000E+00
 21
8.15927965E+01
  0
LINE
  8
0
 62
4
 10
9.75000000E+00
 20
8.27351735E+01
 11
9.75000000E+00
 21
8.15927965E+01
  0
LINE
  8
0
 62
4
 10
8.75000000E+00
 20
8.32965139E+01
 11
7.75000000E+00
 21
8.27351735E+01
  0
LINE
  8
0
 62
4
 10
8.75000000E+00
 20
8.32965139E+01
 11
9.75000000E+00
 21
8.27351735E+01
  0
LINE
  8
0
 62
4
 10
9.75000000E+00
 20
8.15927965E+01
 11
8.75000000E+00
 21
8.10216080E+01
  0
LINE
  8
0
 62
4
 10
7.75000000E+00
 20
8.15927965E+01
 11
8.75000000E+00
 21
8.10216080E+01
  0
LINE
  8
0
 62
4
 10
1.57500000E+01
 20
8.15927965E+01
 11
1.67500000E+01
 21
8.10216080E+01
  0
LINE
  8
0
 62
4
 10
1.77500000E+01
 20
8.15927965E+01
 11
1.67500000E+01
 21
8.10216080E+01
  0
LINE
  8
0
 62
4
 10
1.67500000E+01
 20
8.32965139E+01
 11
1.77500000E+01
 21
8.27351735E+01
  0
LINE
  8
0
 62
4
 10
1.67500000E+01
 20
8.32965139E+01
 11
1.57500000E+01
 21
8.27351735E+01
  0
LINE
  8
0
 62
4
 10
1.77500000E+01
 20
8.27351735E+01
 11
1.77500000E+01
 21
8.15927965E+01
  0
LINE
  8
0
 62
4
 10
1.57500000E+01
 20
8.27351735E+01
 11
1.57500000E+01
 21
8.15927965E+01
  0
POLYLINE
  8
0
 62
6
 66
1
  0
VERTEX
  8
0
 62
6
 10
1.82500000E+01
 20
8.21639850E+01
  0
VERTEX
  8
0
 62
6
 10
1.82442920E+01
 20
8.22927325E+01
  0
VERTEX
  8
0
 62
6
 10
1.82272116E+01
 20
8.24205001E+01
  0
VERTEX
  8
0
 62
6
 10
1.81988887E+01
 20
8.25463155E+01
  0
VERTEX
  8
0
 62
6
 10
1.81595389E+01
 20
8.26692211E+01
  0
VERTEX
  8
0
 62
6
 10
1.81094617E+01
 20
8.27882816E+01
  0
VERTEX
  8
0
 62
6
 10
1.80490381E+01
 20
8.29025908E+01
  0
VERTEX
  8
0
 62
6
 10
1.79787281E+01
 20
8.30112788E+01
  0
VERTEX
  8
0
 62
6
 10
1.78990667E+01
 20
8.31135183E+01
  0
VERTEX
  8
0
 62
6
 10
1.78106602E+01
 20
8.32085314E+01
  0
VERTEX
  8
0
 62
6
 10
1.77141814E+01
 20
8.32955948E+01
  0
VERTEX
  8
0
 62
6
 10
1.76103647E+01
 20
8.33740459E+01
  0
VERTEX
  8
0
 62
6
 10
1.75000000E+01
 20
8.34432878E+01
  0
VERTEX
  8
0
 62
6
 10
1.73839274E+01
 20
8.35027934E+01
  0
VERTEX
  8
0
 62
6
 10
1.72630302E+01
 20
8.35521099E+01
  0
VERTEX
  8
0
 62
6
 10
1.71382286E+01
 20
8.35908619E+01
  0
VERTEX
  8
0
 62
6
 10
1.70104723E+01
 20
8.36187545E+01
  0
VERTEX
  8
0
 62
6
 10
1.68807336E+01
 20
8.36355754E+01
  0
VERTEX
  8
0
 62
6
 10
1.67500000E+01
 20
8.36411966E+01
  0
VERTEX
  8
0
 62
6
 10
1.66192664E+01
 20
8.36355754E+01
  0
VERTEX
  8
0
 62
6
 10
1.64895277E+01
 20
8.36187545E+01
  0
VERTEX
  8
0
 62
6
 10
1.63617714E+01
 20
8.35908619E+01
  0
VERTEX
  8
0
 62
6
 10
1.62369698E+01
 20
8.35521099E+01
  0
VERTEX
  8
0
 62
6
 10
1.61160726E+01
 20
8.35027934E+01
  0
VERTEX
  8
0
 62
6
 10
1.60000000E+01
 20
8.34432878E+01
  0
VERTEX
  8
0
 62
6
 10
1.58896353E+01
 20
8.33740459E+01
  0
VERTEX
  8
0
 62
6
 10
1.57858186E+01
 20
8.32955948E+01
  0
VERTEX
  8
0
 62
6
 10
1.56893398E+01
 20
8.32085314E+01
  0
VERTEX
  8
0
 62
6
 10
1.56009333E+01
 20
8.31135183E+01
  0
VERTEX
  8
0
 62
6
 10
1.55212719E+01
 20
8.30112788E+01
  0
VERTEX
  8
0
 62
6
 10
1.54509619E+01
 20
8.29025908E+01
  0
VERTEX
  8
0
 62
6
 10
1.53905383E+01
 20
8.27882816E+01
  0
VERTEX
  8
0
 62
6
 10
1.53404611E+01
 20
8.26692211E+01
  0
VERTEX
  8
0
 62
6
 10
1.53011113E+01
 20
8.25463155E+01
  0
VERTEX
  8
0
 62
6
 10
1.52727884E+01
 20
8.24205001E+01
  0
VERTEX
  8
0
 62
6
 10
1.52557080E+01
 20
8.22927325E+01
  0
VERTEX
  8
0
 62
6
 10
1.52500000E+01
 20
8.21639850E+01
  0
VERTEX
  8
0
 62
6
 10
1.52557080E+01
 20
8.20352375E+01
  0
VERTEX
  8
0
 62
6
 10
1.52727884E+01
 20
8.19074699E+01
  0
VERTEX
  8
0
 62
6
 10
1.53011113E+01
 20
8.17816545E+01
  0
VERTEX
  8
0
 62
6
 10
1.53404611E+01
 20
8.16587489E+01
  0
VERTEX
  8
0
 62
6
 10
1.53905383E+01
 20
8.15396884E+01
  0
VERTEX
  8
0
 62
6
 10
1.54509619E+01
 20
8.14253792E+01
  0
VERTEX
  8
0
 62
6
 10
1.55212719E+01
 20
8.13166912E+01
  0
VERTEX
  8
0
 62
6
 10
1.56009333E+01
 20
8.12144517E+01
  0
VERTEX
  8
0
 62
6
 10
1.56893398E+01
 20
8.11194386E+01
  0
VERTEX
  8
0
 62
6
 10
1.57858186E+01
 20
8.10323752E+01
  0
VERTEX
  8
0
 62
6
 10
1.58896353E+01
 20
8.09539241E+01
  0
VERTEX
  8
0
 62
6
 10
1.60000000E+01
 20
8.08846822E+01
  0
VERTEX
  8
0
 62
6
 10
1.61160726E+01
 20
8.08251766E+01
  0
VERTEX
  8
0
 62
6
 10
1.62369698E+01
 20
8.07758601E+01
  0
VERTEX
  8
0
 62
6
 10
1.63617714E+01
 20
8.07371081E+01
  0
VERTEX
  8
0
 62
6
 10
1.64895277E+01
 20
8.07092155E+01
  0
VERTEX
  8
0
 62
6
 10
1.66192664E+01
 20
8.06923946E+01
  0
VERTEX
  8
0
 62
6
 10
1.67500000E+01
 20
8.06867734E+01
  0
VERTEX
  8
0
 62
6
 10
1.68807336E+01
 20
8.06923946E+01
  0
VERTEX
  8
0
 62
6
 10
1.70104723E+01
 20
8.07092155E+01
  0
VERTEX
  8
0
 62
6
 10
1.71382286E+01
 20
8.07371081E+01
  0
VERTEX
  8
0
 62
6
 10
1.72630302E+01
 20
8.07758601E+01
  0
VERTEX
  8
0
 62
6
 10
1.73839274E+01
 20
8.08251766E+01
  0
VERTEX
  8
0
 62
6
 10
1.75000000E+01
 20
8.08846822E+01
  0
VERTEX
  8
0
 62
6
 10
1.76103647E+01
 20
8.09539241E+01
  0
VERTEX
  8
0
 62
6
 10
1.77141814E+01
 20
8.10323752E+01
  0
VERTEX
  8
0
 62
6
 10
1.78106602E+01
 20
8.11194386E+01
  0
VERTEX
  8
0
 62
6
 10
1.78990667E+01
 20
8.12144517E+01
  0
VERTEX
  8
0
 62
6
 10
1.79787281E+01
 20
8.13166912E+01
  0
VERTEX
  8
0
 62
6
 10
1.80490381E+01
 20
8.14253792E+01
  0
VERTEX
  8
0
 62
6
 10
1.81094617E+01
 20
8.15396884E+01
  0
VERTEX
  8
0
 62
6
 10
1.81595389E+01
 20
8.16587489E+01
  0
VERTEX
  8
0
 62
6
 10
1.81988887E+01
 20
8.17816545E+01
  0
VERTEX
  8
0
 62
6
 10
1.82272116E+01
 20
8.19074699E+01
  0
VERTEX
  8
0
 62
6
 10
1.82442920E+01
 20
8.20352375E+01
  0
VERTEX
  8
0
 62
6
 10
1.82500000E+01
 20
8.21639850E+01
  0
SEQEND
  8
0
  0
LINE
  8
0
 62
4
 10
1.87500000E+01
 20
8.21639850E+01
 11
1.87500000E+01
 21
8.26996244E+01
  0
LINE
  8
0
 62
4
 10
1.47500000E+01
 20
8.21639850E+01
 11
1.47500000E+01
 21
8.26996244E+01
  0
POLYLINE
  8
0
 62
4
 66
1
  0
VERTEX
  8
0
 62
4
 10
1.47500000E+01
 20
8.21639850E+01
  0
VERTEX
  8
0
 62
4
 10
1.47576106E+01
 20
8.19923217E+01
  0
VERTEX
  8
0
 62
4
 10
1.47803845E+01
 20
8.18219649E+01
  0
VERTEX
  8
0
 62
4
 10
1.48181483E+01
 20
8.16542110E+01
  0
VERTEX
  8
0
 62
4
 10
1.48706148E+01
 20
8.14903368E+01
  0
VERTEX
  8
0
 62
4
 10
1.49373844E+01
 20
8.13315895E+01
  0
VERTEX
  8
0
 62
4
 10
1.50179492E+01
 20
8.11791773E+01
  0
VERTEX
  8
0
 62
4
 10
1.51116959E+01
 20
8.10342600E+01
  0
VERTEX
  8
0
 62
4
 10
1.52179111E+01
 20
8.08979406E+01
  0
VERTEX
  8
0
 62
4
 10
1.53357864E+01
 20
8.07712565E+01
  0
VERTEX
  8
0
 62
4
 10
1.54644248E+01
 20
8.06551720E+01
  0
VERTEX
  8
0
 62
4
 10
1.56028471E+01
 20
8.05505704E+01
  0
VERTEX
  8
0
 62
4
 10
1.57500000E+01
 20
8.04582479E+01
  0
VERTEX
  8
0
 62
4
 10
1.59047635E+01
 20
8.03789071E+01
  0
VERTEX
  8
0
 62
4
 10
1.60659597E+01
 20
8.03131518E+01
  0
VERTEX
  8
0
 62
4
 10
1.62323619E+01
 20
8.02614825E+01
  0
VERTEX
  8
0
 62
4
 10
1.64027036E+01
 20
8.02242924E+01
  0
VERTEX
  8
0
 62
4
 10
1.65756885E+01
 20
8.02018645E+01
  0
VERTEX
  8
0
 62
4
 10
1.67500000E+01
 20
8.01943695E+01
  0
VERTEX
  8
0
 62
4
 10
1.69243115E+01
 20
8.02018645E+01
  0
VERTEX
  8
0
 62
4
 10
1.70972963E+01
 20
8.02242924E+01
  0
VERTEX
  8
0
 62
4
 10
1.72676381E+01
 20
8.02614825E+01
  0
VERTEX
  8
0
 62
4
 10
1.74340403E+01
 20
8.03131518E+01
  0
VERTEX
  8
0
 62
4
 10
1.75952365E+01
 20
8.03789071E+01
  0
VERTEX
  8
0
 62
4
 10
1.77500000E+01
 20
8.04582479E+01
  0
VERTEX
  8
0
 62
4
 10
1.78971529E+01
 20
8.05505704E+01
  0
VERTEX
  8
0
 62
4
 10
1.80355752E+01
 20
8.06551720E+01
  0
VERTEX
  8
0
 62
4
 10
1.81642136E+01
 20
8.07712565E+01
  0
VERTEX
  8
0
 62
4
 10
1.82820889E+01
 20
8.08979406E+01
  0
VERTEX
  8
0
 62
4
 10
1.83883041E+01
 20
8.10342600E+01
  0
VERTEX
  8
0
 62
4
 10
1.84820508E+01
 20
8.11791772E+01
  0
VERTEX
  8
0
 62
4
 10
1.85626156E+01
 20
8.13315895E+01
  0
VERTEX
  8
0
 62
4
 10
1.86293852E+01
 20
8.14903368E+01
  0
VERTEX
  8
0
 62
4
 10
1.86818517E+01
 20
8.16542110E+01
  0
VERTEX
  8
0
 62
4
 10
1.87196155E+01
 20
8.18219649E+01
  0
VERTEX
  8
0
 62
4
 10
1.87423894E+01
 20
8.19923217E+01
  0
VERTEX
  8
0
 62
4
 10
1.87500000E+01
 20
8.21639850E+01
  0
VERTEX
  8
0
 62
4
 10
1.87423894E+01
 20
8.23356483E+01
  0
VERTEX
  8
0
 62
4
 10
1.87196155E+01
 20
8.25060051E+01
  0
VERTEX
  8
0
 62
4
 10
1.86818517E+01
 20
8.26737590E+01
  0
VERTEX
  8
0
 62
4
 10
1.86293852E+01
 20
8.28376332E+01
  0
VERTEX
  8
0
 62
4
 10
1.85626156E+01
 20
8.29963805E+01
  0
VERTEX
  8
0
 62
4
 10
1.84820508E+01
 20
8.31487928E+01
  0
VERTEX
  8
0
 62
4
 10
1.83883041E+01
 20
8.32937100E+01
  0
VERTEX
  8
0
 62
4
 10
1.82820889E+01
 20
8.34300294E+01
  0
VERTEX
  8
0
 62
4
 10
1.81642136E+01
 20
8.35567135E+01
  0
VERTEX
  8
0
 62
4
 10
1.80355752E+01
 20
8.36727980E+01
  0
VERTEX
  8
0
 62
4
 10
1.78971529E+01
 20
8.37773996E+01
  0
VERTEX
  8
0
 62
4
 10
1.77500000E+01
 20
8.38697221E+01
  0
VERTEX
  8
0
 62
4
 10
1.75952365E+01
 20
8.39490629E+01
  0
VERTEX
  8
0
 62
4
 10
1.74340403E+01
 20
8.40148182E+01
  0
VERTEX
  8
0
 62
4
 10
1.72676381E+01
 20
8.40664875E+01
  0
VERTEX
  8
0
 62
4
 10
1.70972964E+01
 20
8.41036776E+01
  0
VERTEX
  8
0
 62
4
 10
1.69243115E+01
 20
8.41261055E+01
  0
VERTEX
  8
0
 62
4
 10
1.67500000E+01
 20
8.41336005E+01
  0
VERTEX
  8
0
 62
4
 10
1.65756885E+01
 20
8.41261055E+01
  0
VERTEX
  8
0
 62
4
 10
1.64027036E+01
 20
8.41036776E+01
  0
VERTEX
  8
0
 62
4
 10
1.62323619E+01
 20
8.40664875E+01
  0
VERTEX
  8
0
 62
4
 10
1.60659597E+01
 20
8.40148182E+01
  0
VERTEX
  8
0
 62
4
 10
1.59047635E+01
 20
8.39490629E+01
  0
VERTEX
  8
0
 62
4
 10
1.57500000E+01
 20
8.38697221E+01
  0
VERTEX
  8
0
 62
4
 10
1.56028471E+01
 20
8.37773996E+01
  0
VERTEX
  8
0
 62
4
 10
1.54644248E+01
 20
8.36727980E+01
  0
VERTEX
  8
0
 62
4
 10
1.53357864E+01
 20
8.35567135E+01
  0
VERTEX
  8
0
 62
4
 10
1.52179111E+01
 20
8.34300294E+01
  0
VERTEX
  8
0
 62
4
 10
1.51116959E+01
 20
8.32937100E+01
  0
VERTEX
  8
0
 62
4
 10
1.50179492E+01
 20
8.31487928E+01
  0
VERTEX
  8
0
 62
4
 10
1.49373844E+01
 20
8.29963805E+01
  0
VERTEX
  8
0
 62
4
 10
1.48706148E+01
 20
8.28376332E+01
  0
VERTEX
  8
0
 62
4
 10
1.48181483E+01
 20
8.26737590E+01
  0
VERTEX
  8
0
 62
4
 10
1.47803845E+01
 20
8.25060051E+01
  0
VERTEX
  8
0
 62
4
 10
1.47576106E+01
 20
8.23356483E+01
  0
VERTEX
  8
0
 62
4
 10
1.47500000E+01
 20
8.21639850E+01
  0
SEQEND
  8
0
  0
POLYLINE
  8
0
 62
4
 66
1
  0
VERTEX
  8
0
 62
4
 10
1.87500000E+01
 20
8.26996244E+01
  0
VERTEX
  8
0
 62
4
 10
1.87419486E+01
 20
8.28761794E+01
  0
VERTEX
  8
0
 62
4
 10
1.87178592E+01
 20
8.30513128E+01
  0
VERTEX
  8
0
 62
4
 10
1.86779257E+01
 20
8.32236147E+01
  0
VERTEX
  8
0
 62
4
 10
1.86224697E+01
 20
8.33916977E+01
  0
VERTEX
  8
0
 62
4
 10
1.85519377E+01
 20
8.35542085E+01
  0
VERTEX
  8
0
 62
4
 10
1.84668976E+01
 20
8.37098388E+01
  0
VERTEX
  8
0
 62
4
 10
1.83680340E+01
 20
8.38573353E+01
  0
VERTEX
  8
0
 62
4
 10
1.82561429E+01
 20
8.39955107E+01
  0
VERTEX
  8
0
 62
4
 10
1.81321253E+01
 20
8.41232524E+01
  0
VERTEX
  8
0
 62
4
 10
1.79969796E+01
 20
8.42395318E+01
  0
VERTEX
  8
0
 62
4
 10
1.78517940E+01
 20
8.43434128E+01
  0
VERTEX
  8
0
 62
4
 10
1.76977373E+01
 20
8.44340590E+01
  0
VERTEX
  8
0
 62
4
 10
1.75360501E+01
 20
8.45107406E+01
  0
VERTEX
  8
0
 62
4
 10
1.73680340E+01
 20
8.45728401E+01
  0
VERTEX
  8
0
 62
4
 10
1.71950419E+01
 20
8.46198575E+01
  0
VERTEX
  8
0
 62
4
 10
1.70184665E+01
 20
8.46514144E+01
  0
VERTEX
  8
0
 62
4
 10
1.68397297E+01
 20
8.46672566E+01
  0
VERTEX
  8
0
 62
4
 10
1.66602704E+01
 20
8.46672566E+01
  0
VERTEX
  8
0
 62
4
 10
1.64815335E+01
 20
8.46514144E+01
  0
VERTEX
  8
0
 62
4
 10
1.63049581E+01
 20
8.46198575E+01
  0
VERTEX
  8
0
 62
4
 10
1.61319660E+01
 20
8.45728401E+01
  0
VERTEX
  8
0
 62
4
 10
1.59639500E+01
 20
8.45107406E+01
  0
VERTEX
  8
0
 62
4
 10
1.58022627E+01
 20
8.44340590E+01
  0
VERTEX
  8
0
 62
4
 10
1.56482061E+01
 20
8.43434128E+01
  0
VERTEX
  8
0
 62
4
 10
1.55030204E+01
 20
8.42395318E+01
  0
VERTEX
  8
0
 62
4
 10
1.53678747E+01
 20
8.41232524E+01
  0
VERTEX
  8
0
 62
4
 10
1.52438571E+01
 20
8.39955107E+01
  0
VERTEX
  8
0
 62
4
 10
1.51319660E+01
 20
8.38573354E+01
  0
VERTEX
  8
0
 62
4
 10
1.50331024E+01
 20
8.37098388E+01
  0
VERTEX
  8
0
 62
4
 10
1.49480623E+01
 20
8.35542086E+01
  0
VERTEX
  8
0
 62
4
 10
1.48775303E+01
 20
8.33916977E+01
  0
VERTEX
  8
0
 62
4
 10
1.48220743E+01
 20
8.32236147E+01
  0
VERTEX
  8
0
 62
4
 10
1.47821408E+01
 20
8.30513128E+01
  0
VERTEX
  8
0
 62
4
 10
1.47580514E+01
 20
8.28761794E+01
  0
VERTEX
  8
0
 62
4
 10
1.47500000E+01
 20
8.26996244E+01
  0
SEQEND
  8
0
  0
POLYLINE
  8
0
 62
4
 66
1
  0
VERTEX
  8
0
 62
4
 10
2.55000000E+01
 20
1.00655691E+02
  0
VERTEX
  8
0
 62
4
 10
2.55085619E+01
 20
1.00462570E+02
  0
VERTEX
  8
0
 62
4
 10
2.55341826E+01
 20
1.00270918E+02
  0
VERTEX
  8
0
 62
4
 10
2.55766669E+01
 20
1.00082195E+02
  0
VERTEX
  8
0
 62
4
 10
2.56356916E+01
 20
9.98978368E+01
  0
VERTEX
  8
0
 62
4
 10
2.57108075E+01
 20
9.97192461E+01
  0
VERTEX
  8
0
 62
4
 10
2.58014428E+01
 20
9.95477823E+01
  0
VERTEX
  8
0
 62
4
 10
2.59069079E+01
 20
9.93847503E+01
  0
VERTEX
  8
0
 62
4
 10
2.60264000E+01
 20
9.92313910E+01
  0
VERTEX
  8
0
 62
4
 10
2.61590097E+01
 20
9.90888715E+01
  0
VERTEX
  8
0
 62
4
 10
2.63037279E+01
 20
9.89582764E+01
  0
VERTEX
  8
0
 62
4
 10
2.64594530E+01
 20
9.88405996E+01
  0
VERTEX
  8
0
 62
4
 10
2.66250000E+01
 20
9.87367368E+01
  0
VERTEX
  8
0
 62
4
 10
2.67991089E+01
 20
9.86474784E+01
  0
VERTEX
  8
0
 62
4
 10
2.69804547E+01
 20
9.85735037E+01
  0
VERTEX
  8
0
 62
4
 10
2.71676571E+01
 20
9.85153757E+01
  0
VERTEX
  8
0
 62
4
 10
2.73592916E+01
 20
9.84735368E+01
  0
VERTEX
  8
0
 62
4
 10
2.75538996E+01
 20
9.84483054E+01
  0
VERTEX
  8
0
 62
4
 10
2.77500000E+01
 20
9.84398736E+01
  0
VERTEX
  8
0
 62
4
 10
2.79461004E+01
 20
9.84483054E+01
  0
VERTEX
  8
0
 62
4
 10
2.81407084E+01
 20
9.84735368E+01
  0
VERTEX
  8
0
 62
4
 10
2.83323428E+01
 20
9.85153757E+01
  0
VERTEX
  8
0
 62
4
 10
2.85195453E+01
 20
9.85735037E+01
  0
VERTEX
  8
0
 62
4
 10
2.87008911E+01
 20
9.86474784E+01
  0
VERTEX
  8
0
 62
4
 10
2.88750000E+01
 20
9.87367368E+01
  0
VERTEX
  8
0
 62
4
 10
2.90405470E+01
 20
9.88405996E+01
  0
VERTEX
  8
0
 62
4
 10
2.91962721E+01
 20
9.89582764E+01
  0
VERTEX
  8
0
 62
4
 10
2.93409903E+01
 20
9.90888715E+01
  0
VERTEX
  8
0
 62
4
 10
2.94736000E+01
 20
9.92313910E+01
  0
VERTEX
  8
0
 62
4
 10
2.95930921E+01
 20
9.93847503E+01
  0
VERTEX
  8
0
 62
4
 10
2.96985572E+01
 20
9.95477823E+01
  0
VERTEX
  8
0
 62
4
 10
2.97891925E+01
 20
9.97192461E+01
  0
VERTEX
  8
0
 62
4
 10
2.98643084E+01
 20
9.98978368E+01
  0
VERTEX
  8
0
 62
4
 10
2.99233331E+01
 20
1.00082195E+02
  0
VERTEX
  8
0
 62
4
 10
2.99658174E+01
 20
1.00270918E+02
  0
VERTEX
  8
0
 62
4
 10
2.99914381E+01
 20
1.00462570E+02
  0
VERTEX
  8
0
 62
4
 10
3.00000000E+01
 20
1.00655691E+02
  0
VERTEX
  8
0
 62
4
 10
2.99914381E+01
 20
1.00848812E+02
  0
VERTEX
  8
0
 62
4
 10
2.99658174E+01
 20
1.01040464E+02
  0
VERTEX
  8
0
 62
4
 10
2.99233331E+01
 20
1.01229187E+02
  0
VERTEX
  8
0
 62
4
 10
2.98643084E+01
 20
1.01413545E+02
  0
VERTEX
  8
0
 62
4
 10
2.97891925E+01
 20
1.01592136E+02
  0
VERTEX
  8
0
 62
4
 10
2.96985572E+01
 20
1.01763600E+02
  0
VERTEX
  8
0
 62
4
 10
2.95930921E+01
 20
1.01926632E+02
  0
VERTEX
  8
0
 62
4
 10
2.94736000E+01
 20
1.02079991E+02
  0
VERTEX
  8
0
 62
4
 10
2.93409903E+01
 20
1.02222511E+02
  0
VERTEX
  8
0
 62
4
 10
2.91962721E+01
 20
1.02353106E+02
  0
VERTEX
  8
0
 62
4
 10
2.90405470E+01
 20
1.02470782E+02
  0
VERTEX
  8
0
 62
4
 10
2.88750000E+01
 20
1.02574645E+02
  0
VERTEX
  8
0
 62
4
 10
2.87008911E+01
 20
1.02663904E+02
  0
VERTEX
  8
0
 62
4
 10
2.85195453E+01
 20
1.02737878E+02
  0
VERTEX
  8
0
 62
4
 10
2.83323429E+01
 20
1.02796006E+02
  0
VERTEX
  8
0
 62
4
 10
2.81407084E+01
 20
1.02837845E+02
  0
VERTEX
  8
0
 62
4
 10
2.79461004E+01
 20
1.02863077E+02
  0
VERTEX
  8
0
 62
4
 10
2.77500000E+01
 20
1.02871508E+02
  0
VERTEX
  8
0
 62
4
 10
2.75538996E+01
 20
1.02863077E+02
  0
VERTEX
  8
0
 62
4
 10
2.73592916E+01
 20
1.02837845E+02
  0
VERTEX
  8
0
 62
4
 10
2.71676572E+01
 20
1.02796006E+02
  0
VERTEX
  8
0
 62
4
 10
2.69804547E+01
 20
1.02737878E+02
  0
VERTEX
  8
0
 62
4
 10
2.67991089E+01
 20
1.02663904E+02
  0
VERTEX
  8
0
 62
4
 10
2.66250000E+01
 20
1.02574645E+02
  0
VERTEX
  8
0
 62
4
 10
2.64594530E+01
 20
1.02470782E+02
  0
VERTEX
  8
0
 62
4
 10
2.63037279E+01
 20
1.02353106E+02
  0
VERTEX
  8
0
 62
4
 10
2.61590097E+01
 20
1.02222511E+02
  0
VERTEX
  8
0
 62
4
 10
2.60264000E+01
 20
1.02079991E+02
  0
VERTEX
  8
0
 62
4
 10
2.59069079E+01
 20
1.01926632E+02
  0
VERTEX
  8
0
 62
4
 10
2.58014428E+01
 20
1.01763600E+02
  0
VERTEX
  8
0
 62
4
 10
2.57108075E+01
 20
1.01592136E+02
  0
VERTEX
  8
0
 62
4
 10
2.56356916E+01
 20
1.01413545E+02
  0
VERTEX
  8
0
 62
4
 10
2.55766669E+01
 20
1.01229187E+02
  0
VERTEX
  8
0
 62
4
 10
2.55341826E+01
 20
1.01040464E+02
  0
VERTEX
  8
0
 62
4
 10
2.55085619E+01
 20
1.00848812E+02
  0
VERTEX
  8
0
 62
4
 10
2.55000000E+01
 20
1.00655691E+02
  0
SEQEND
  8
0
  0
LINE
  8
0
 62
4
 10
2.02500000E+01
 20
9.66470010E+01
 11
3.52500000E+01
 21
9.66470010E+01
  0
LINE
  8
0
 62
4
 10
2.02500000E+01
 20
9.67164603E+01
 11
3.52500000E+01
 21
9.67164603E+01
  0
LINE
  8
0
 62
4
 10
2.02500000E+01
 20
8.92609429E+01
 11
3.52500000E+01
 21
8.92609429E+01
  0
LINE
  8
0
 62
4
 10
5.24999999E+00
 20
7.75208656E+01
 11
2.02500000E+01
 21
7.75208656E+01
  0
LINE
  8
0
 62
4
 10
6.41156398E+00
 20
8.78970144E+01
 11
1.89907473E+01
 21
8.78970144E+01
  0
LINE
  8
0
 62
4
 10
5.24999999E+00
 20
1.03871789E+02
 11
2.02500000E+01
 21
1.03871789E+02
  0
LINE
  8
0
 62
4
 10
5.24999999E+00
 20
1.05087326E+02
 11
3.52500000E+01
 21
1.05087326E+02
  0
LINE
  8
0
 62
4
 10
5.24999999E+00
 20
1.06875902E+02
 11
3.52500000E+01
 21
1.06875902E+02
  0
LINE
  8
0
  6
CENTER
 62
6
 10
3.13245969E+01
 20
1.00655691E+02
 11
2.41754031E+01
 21
1.00655691E+02
  0
LINE
  8
0
  6
CENTER
 62
6
 10
2.77500000E+01
 20
1.04230288E+02
 11
2.77500000E+01
 21
9.70810944E+01
  0
LINE
  8
0
 62
4
 10
3.52500000E+01
 20
1.06875902E+02
 11
3.52500000E+01
 21
8.92609429E+01
  0
LINE
  8
0
 62
4
 10
5.25000000E+00
 20
1.06875902E+02
 11
5.25000000E+00
 21
7.75208656E+01
  0
LINE
  8
0
 62
4
 10
2.02500000E+01
 20
1.05087326E+02
 11
2.02500000E+01
 21
7.75208656E+01
  0
LINE
  8
0
  6
CENTER
 62
6
 10
1.92500000E+01
 20
8.26996244E+01
 11
1.42500000E+01
 21
8.26996244E+01
  0
LINE
  8
0
  6
CENTER
 62
6
 10
1.67500000E+01
 20
8.51996244E+01
 11
1.67500000E+01
 21
8.01996244E+01
  0
LINE
  8
0
  6
CENTER
 62
6
 10
8.75000000E+00
 20
8.51996244E+01
 11
8.75000000E+00
 21
8.01996244E+01
  0
LINE
  8
0
  6
CENTER
 62
6
 10
1.12500000E+01
 20
8.26996244E+01
 11
6.25000000E+00
 21
8.26996244E+01
  0
LINE
  8
0
 62
4
 10
-3.02500000E+01
 20
9.61762276E+01
 11
-3.02500000E+01
 21
9.21037861E+01
  0
LINE
  8
0
 62
4
 10
-5.37500000E+01
 20
1.06875902E+02
 11
-5.37500000E+01
 21
9.61762276E+01
  0
LINE
  8
0
 62
4
 10
-2.37500000E+01
 20
9.03694494E+01
 11
-2.37500000E+01
 21
9.23593157E+01
  0
LINE
  8
0
  6
CENTER
 62
2
 10
7.49770203E+01
 20
4.98694647E+01
 11
-9.73534241E+01
 21
4.98694647E+01
  0
LINE
  8
0
 62
7
 10
4.17500000E+01
 20
5.25194586E+01
 11
-6.42500000E+01
 21
5.25194586E+01
  0
LINE
  8
0
 62
7
 10
4.17499847E+01
 20
4.72194708E+01
 11
-6.42499695E+01
 21
4.72194708E+01
  0
LINE
  8
0
 62
7
 10
7.27500000E+01
 20
4.41550329E+01
 11
7.27500000E+01
 21
9.25838964E+01
  0
LINE
  8
0
 62
7
 10
-9.52499847E+01
 20
5.43694647E+01
 11
-9.52499847E+01
 21
4.53694723E+01
  0
LINE
  8
0
 62
7
 10
4.17500000E+01
 20
4.63694799E+01
 11
-6.42500000E+01
 21
4.63694799E+01
  0
LINE
  8
0
  6
CENTER
 62
2
 10
-1.47487213E+02
 20
6.83694647E+01
 11
7.90549469E+01
 21
6.83694647E+01
  0
LINE
  8
0
 62
7
 10
-1.10250000E+02
 20
5.38694647E+01
 11
-1.10250000E+02
 21
8.28694647E+01
  0
LINE
  8
0
 62
7
 10
-1.09750031E+02
 20
5.33694342E+01
 11
-1.05241058E+02
 21
5.33694342E+01
  0
LINE
  8
0
 62
7
 10
7.42500000E+01
 20
5.23694647E+01
 11
7.27500000E+01
 21
5.23694647E+01
  0
LINE
  8
0
 62
7
 10
4.17500000E+01
 20
9.33694647E+01
 11
4.17500000E+01
 21
4.33694647E+01
  0
LINE
  8
0
 62
7
 10
6.77500000E+01
 20
4.33694647E+01
 11
4.17500000E+01
 21
4.33694647E+01
  0
LINE
  8
0
 62
7
 10
7.27500316E+01
 20
4.41550219E+01
 11
4.17499997E+01
 21
4.33432575E+01
  0
LINE
  8
0
 62
7
 10
-1.05008701E+02
 20
5.31110007E+01
 11
-9.72491175E+01
 21
5.28400301E+01
  0
LINE
  8
0
 62
7
 10
6.77500000E+01
 20
4.40240667E+01
 11
6.77500000E+01
 21
4.33694647E+01
  0
LINE
  8
0
  6
CENTER
 62
2
 10
5.47500000E+01
 20
9.51218298E+01
 11
5.47500000E+01
 21
8.39412268E+01
  0
LINE
  8
0
 62
7
 10
-9.72500000E+01
 20
8.38694647E+01
 11
-9.72500000E+01
 21
5.28400457E+01
  0
LINE
  8
0
 62
7
 10
-1.05250000E+02
 20
5.33694342E+01
 11
-1.05250000E+02
 21
8.33780706E+01
  0
LINE
  8
0
 62
7
 10
-9.67500000E+01
 20
5.23694647E+01
 11
-9.52500000E+01
 21
5.23694647E+01
  0
LINE
  8
0
 62
7
 10
-6.42500000E+01
 20
9.33694647E+01
 11
-6.42500000E+01
 21
4.33432653E+01
  0
LINE
  8
0
 62
7
 10
-9.52500000E+01
 20
9.25838964E+01
 11
-9.52500000E+01
 21
4.41550329E+01
  0
LINE
  8
0
 62
7
 10
-9.02500000E+01
 20
4.33694647E+01
 11
-6.42500000E+01
 21
4.33694647E+01
  0
LINE
  8
0
 62
7
 10
-9.52500745E+01
 20
4.41550268E+01
 11
-6.42500502E+01
 21
4.33432627E+01
  0
LINE
  8
0
 62
7
 10
-9.02500000E+01
 20
4.40240667E+01
 11
-9.02500000E+01
 21
4.33694647E+01
  0
LINE
  8
0
 62
7
 10
7.47500000E+01
 20
8.38694647E+01
 11
7.47500000E+01
 21
5.28400457E+01
  0
LINE
  8
0
 62
7
 10
-1.17250000E+02
 20
6.44964788E+01
 11
-1.17250000E+02
 21
6.03694494E+01
  0
LINE
  8
0
 62
7
 10
-1.20250000E+02
 20
6.13694342E+01
 11
-1.20250000E+02
 21
7.53694494E+01
  0
LINE
  8
0
 62
7
 10
-1.17250000E+02
 20
6.03694494E+01
 11
-1.10250015E+02
 21
6.03694494E+01
  0
LINE
  8
0
 62
7
 10
-1.17250000E+02
 20
7.22424505E+01
 11
-1.17250000E+02
 21
7.63694342E+01
  0
LINE
  8
0
 62
7
 10
-1.13250000E+02
 20
6.44964788E+01
 11
-1.13250000E+02
 21
7.22424505E+01
  0
LINE
  8
0
 62
7
 10
-1.44249969E+02
 20
6.28694189E+01
 11
-1.44249969E+02
 21
7.38694494E+01
  0
LINE
  8
0
 62
7
 10
-1.42749969E+02
 20
7.53694494E+01
 11
-1.37750000E+02
 21
7.53694494E+01
  0
LINE
  8
0
 62
7
 10
-1.42749969E+02
 20
6.13694342E+01
 11
-1.37750000E+02
 21
6.13694342E+01
  0
LINE
  8
0
 62
2
 10
-1.43569916E+02
 20
7.45494573E+01
 11
-1.37750000E+02
 21
7.45494573E+01
  0
LINE
  8
0
 62
2
 10
-1.43569916E+02
 20
6.21894262E+01
 11
-1.37750000E+02
 21
6.21894262E+01
  0
LINE
  8
0
 62
7
 10
-1.42749969E+02
 20
7.53694494E+01
 11
-1.42749969E+02
 21
6.13694342E+01
  0
LINE
  8
0
 62
7
 10
-1.23250000E+02
 20
7.53694494E+01
 11
-1.23250000E+02
 21
6.13694342E+01
  0
LINE
  8
0
 62
7
 10
-1.44249881E+02
 20
7.38693605E+01
 11
-1.42749935E+02
 21
7.53693526E+01
  0
LINE
  8
0
 62
7
 10
-1.44249981E+02
 20
6.28694285E+01
 11
-1.42749969E+02
 21
6.13694162E+01
  0
LINE
  8
0
 62
7
 10
-1.17249985E+02
 20
7.22424505E+01
 11
-1.13250000E+02
 21
7.22424505E+01
  0
LINE
  8
0
 62
7
 10
-1.17249985E+02
 20
6.44964788E+01
 11
-1.13250000E+02
 21
6.44964788E+01
  0
LINE
  8
0
 62
2
 10
-1.18634602E+02
 20
6.62840051E+01
 11
-1.13249982E+02
 21
7.22424488E+01
  0
LINE
  8
0
 62
2
 10
-1.18634604E+02
 20
7.04549287E+01
 11
-1.13249990E+02
 21
6.44964907E+01
  0
LINE
  8
0
  6
CENTER
 62
2
 10
7.49770203E+01
 20
8.68694647E+01
 11
-9.73534241E+01
 21
8.68694647E+01
  0
LINE
  8
0
 62
7
 10
4.17500000E+01
 20
8.42194708E+01
 11
2.02500000E+01
 21
8.42194708E+01
  0
LINE
  8
0
 62
7
 10
4.17499847E+01
 20
8.95194586E+01
 11
3.52500000E+01
 21
8.95194586E+01
  0
LINE
  8
0
 62
7
 10
4.17500000E+01
 20
9.03694494E+01
 11
3.52500000E+01
 21
9.03694494E+01
  0
LINE
  8
0
 62
7
 10
-1.09750031E+02
 20
8.33694952E+01
 11
-1.05241058E+02
 21
8.33694952E+01
  0
LINE
  8
0
 62
7
 10
7.42500000E+01
 20
8.43694647E+01
 11
7.27500000E+01
 21
8.43694647E+01
  0
LINE
  8
0
 62
7
 10
6.77500000E+01
 20
9.33694647E+01
 11
4.17500000E+01
 21
9.33694647E+01
  0
LINE
  8
0
 62
7
 10
7.27500217E+01
 20
9.25838952E+01
 11
4.17499897E+01
 21
9.33956596E+01
  0
LINE
  8
0
 62
7
 10
-1.05008727E+02
 20
8.36279475E+01
 11
-9.72491442E+01
 21
8.38989181E+01
  0
LINE
  8
0
 62
7
 10
6.77500000E+01
 20
9.27148626E+01
 11
6.77500000E+01
 21
9.33694647E+01
  0
LINE
  8
0
 62
7
 10
-1.17250000E+02
 20
7.63694799E+01
 11
-1.10250015E+02
 21
7.63694799E+01
  0
LINE
  8
0
 62
7
 10
-9.67500000E+01
 20
8.43694647E+01
 11
-9.52500000E+01
 21
8.43694647E+01
  0
LINE
  8
0
 62
7
 10
-9.02500000E+01
 20
9.33694647E+01
 11
-6.42500000E+01
 21
9.33694647E+01
  0
LINE
  8
0
 62
7
 10
-9.52500645E+01
 20
9.25838903E+01
 11
-6.42500402E+01
 21
9.33956545E+01
  0
LINE
  8
0
 62
7
 10
-9.02500000E+01
 20
9.27148626E+01
 11
-9.02500000E+01
 21
9.33694647E+01
  0
LINE
  8
0
  6
CENTER
 62
2
 10
-7.72500000E+01
 20
9.51218298E+01
 11
-7.72500000E+01
 21
8.39412268E+01
  0
LINE
  8
0
 62
7
 10
-1.20250000E+02
 20
6.83694663E+01
 11
-1.17250000E+02
 21
7.22424534E+01
  0
LINE
  8
0
 62
7
 10
-1.17250001E+02
 20
7.63694843E+01
 11
-1.20250006E+02
 21
7.53694521E+01
  0
LINE
  8
0
 62
7
 10
-1.20249985E+02
 20
6.83694494E+01
 11
-1.17249991E+02
 21
6.44964714E+01
  0
LINE
  8
0
 62
7
 10
-1.20249975E+02
 20
6.13694281E+01
 11
-1.17249986E+02
 21
6.03694467E+01
  0
LINE
  8
0
 62
7
 10
-1.23250000E+02
 20
7.45494573E+01
 11
-1.20250000E+02
 21
7.45494573E+01
  0
LINE
  8
0
 62
7
 10
-1.23250000E+02
 20
6.21894262E+01
 11
-1.20250000E+02
 21
6.21894262E+01
  0
ARC
  8
0
 62
7
 10
-1.09750031E+02
 20
5.38694647E+01
 40
5.00000000E-01
 50
1.79999981E+02
 51
2.69999963E+02
  0
ARC
  8
0
 62
7
 10
-9.67500000E+01
 20
5.28694647E+01
 40
5.00000000E-01
 50
1.79999981E+02
 51
2.69999963E+02
  0
ARC
  8
0
 62
7
 10
-1.05000000E+02
 20
5.33608587E+01
 40
2.50000000E-01
 50
1.79999981E+02
 51
2.67999203E+02
  0
ARC
  8
0
 62
7
 10
7.42500000E+01
 20
5.28694647E+01
 40
5.00000000E-01
 50
2.70000073E+02
 51
5.46415133E-05
  0
ARC
  8
0
 62
7
 10
7.42500000E+01
 20
8.38694647E+01
 40
5.00000000E-01
 50
5.46415133E-05
 51
9.00000369E+01
  0
ARC
  8
0
 62
7
 10
-1.20250000E+02
 20
6.83694647E+01
 40
8.00000000E+00
 50
3.31044960E+02
 51
2.89550399E+01
  0
ARC
  8
0
 62
7
 10
-1.05000000E+02
 20
8.33780706E+01
 40
2.50000000E-01
 50
9.20007356E+01
 51
1.79999964E+02
  0
ARC
  8
0
 62
7
 10
7.42500000E+01
 20
8.38694647E+01
 40
5.00000000E-01
 50
3.59999891E+02
 51
8.99998730E+01
  0
ARC
  8
0
 62
7
 10
-9.67500000E+01
 20
8.38694647E+01
 40
5.00000000E-01
 50
8.99999818E+01
 51
1.79999964E+02
  0
ARC
  8
0
 62
7
 10
-1.09750031E+02
 20
8.28694647E+01
 40
5.00000000E-01
 50
8.99999818E+01
 51
1.79999964E+02
  0
CIRCLE
  8
0
 62
7
 10
-2.35249893E+02
 20
8.68694647E+01
 40
2.45850000E+00
  0
CIRCLE
  8
0
 62
7
 10
-2.35249969E+02
 20
4.98693884E+01
 40
2.45850000E+00
  0
CIRCLE
  8
0
 62
7
 10
-2.72250046E+02
 20
4.98694647E+01
 40
2.45850000E+00
  0
CIRCLE
  8
0
 62
7
 10
-2.72249969E+02
 20
8.68695410E+01
 40
2.45850000E+00
  0
LINE
  8
0
 62
4
 10
-2.42749969E+02
 20
7.47203176E+01
 11
-2.53749969E+02
 21
8.10711706E+01
  0
LINE
  8
0
 62
4
 10
-2.42749969E+02
 20
6.20186117E+01
 11
-2.42749969E+02
 21
7.47203176E+01
  0
LINE
  8
0
 62
4
 10
-2.53749969E+02
 20
5.56677587E+01
 11
-2.42749969E+02
 21
6.20186117E+01
  0
LINE
  8
0
 62
4
 10
-2.64749969E+02
 20
6.20186117E+01
 11
-2.53749969E+02
 21
5.56677587E+01
  0
LINE
  8
0
 62
4
 10
-2.64749969E+02
 20
7.47203176E+01
 11
-2.64749969E+02
 21
6.20186117E+01
  0
LINE
  8
0
 62
4
 10
-2.53749969E+02
 20
8.10711706E+01
 11
-2.64749969E+02
 21
7.47203176E+01
  0
CIRCLE
  8
0
 62
4
 10
-2.53749969E+02
 20
6.83694647E+01
 40
1.10000000E+01
  0
LINE
  8
0
 62
6
 10
-2.82263102E+02
 20
8.06868497E+01
 11
-2.79225341E+02
 21
8.12224890E+01
  0
LINE
  8
0
 62
6
 10
-2.82784047E+02
 20
8.36412730E+01
 11
-2.79746285E+02
 21
8.41769123E+01
  0
LINE
  8
0
 62
4
 10
-2.82176278E+02
 20
8.01944458E+01
 11
-2.82870871E+02
 21
8.41336768E+01
  0
LINE
  8
0
 62
4
 10
-2.82176278E+02
 20
8.01944458E+01
 11
-2.79138517E+02
 21
8.07300852E+01
  0
LINE
  8
0
 62
4
 10
-2.82870871E+02
 20
8.41336768E+01
 11
-2.79833109E+02
 21
8.46693162E+01
  0
LINE
  8
0
 62
4
 10
-2.80402253E+02
 20
8.78970907E+01
 11
-2.78791220E+02
 21
7.87604697E+01
  0
LINE
  8
0
 62
4
 10
-2.67694256E+02
 20
1.05087402E+02
 11
-2.74587911E+02
 21
1.03871865E+02
  0
LINE
  8
0
 62
4
 10
-2.74587911E+02
 20
1.03871865E+02
 11
-2.80402253E+02
 21
8.78970907E+01
  0
ARC
  8
0
 62
4
 10
-2.77314009E+02
 20
7.90209419E+01
 40
1.50000000E+00
 50
1.90000000E+02
 51
1.96794373E+02
  0
LINE
  8
0
 62
4
 10
-2.66218247E+02
 20
9.67165366E+01
 11
-2.66710651E+02
 21
9.66297125E+01
  0
LINE
  8
0
 62
4
 10
-2.67116231E+02
 20
9.60504845E+01
 11
-2.66643500E+02
 21
9.33694952E+01
  0
ARC
  8
0
 62
4
 10
-2.66623827E+02
 20
9.61373086E+01
 40
5.00000000E-01
 50
9.99999999E+01
 51
1.90000000E+02
  0
LINE
  8
0
  6
CENTER
 62
6
 10
-2.73408852E+02
 20
8.37712328E+01
 11
-2.80874857E+02
 21
8.24547748E+01
  0
LINE
  8
0
  6
CENTER
 62
6
 10
-2.67843510E+02
 20
9.69376722E+01
 11
-2.54993005E+02
 21
9.92035630E+01
  0
LINE
  8
0
  6
CENTER
 62
6
 10
-2.77685146E+02
 20
9.87563194E+01
 11
-2.55600773E+02
 21
1.02650390E+02
  0
LINE
  8
0
 62
4
 10
-2.58925202E+02
 20
9.56670160E+01
 11
-2.58600738E+02
 21
9.61303984E+01
  0
LINE
  8
0
 62
4
 10
-2.58600738E+02
 20
9.61303984E+01
 11
-2.55744796E+02
 21
9.66339781E+01
  0
LINE
  8
0
 62
4
 10
-2.59417606E+02
 20
9.55801919E+01
 11
-2.59027800E+02
 21
9.33694952E+01
  0
LINE
  8
0
 62
4
 10
-2.59417606E+02
 20
9.55801919E+01
 11
-2.58925202E+02
 21
9.56670160E+01
  0
LINE
  8
0
 62
4
 10
-2.67694256E+02
 20
1.05087402E+02
 11
-2.66218247E+02
 21
9.67165366E+01
  0
LINE
  8
0
 62
4
 10
-2.57550737E+02
 20
1.06875979E+02
 11
-2.67694256E+02
 21
1.05087402E+02
  0
LINE
  8
0
 62
4
 10
-2.66612170E+02
 20
9.66470773E+01
 11
-2.66034244E+02
 21
9.33694952E+01
  0
LINE
  8
0
 62
4
 10
-2.56166719E+02
 20
9.51684472E+01
 11
-2.55849515E+02
 21
9.33694952E+01
  0
LINE
  8
0
 62
4
 10
-2.58149456E+02
 20
9.33694952E+01
 11
-2.58397308E+02
 21
9.47751341E+01
  0
LINE
  8
0
 62
4
 10
-2.55461010E+02
 20
9.61763038E+01
 11
-2.56166719E+02
 21
9.51684472E+01
  0
LINE
  8
0
 62
4
 10
-2.59400241E+02
 20
9.54817111E+01
 11
-2.58397308E+02
 21
9.47751341E+01
  0
LINE
  8
0
 62
4
 10
-2.58397308E+02
 20
9.47751341E+01
 11
-2.56166719E+02
 21
9.51684472E+01
  0
LINE
  8
0
 62
4
 10
-2.59400241E+02
 20
9.54817111E+01
 11
-2.55461010E+02
 21
9.61763038E+01
  0
LINE
  8
0
 62
4
 10
-2.55461010E+02
 20
9.61763038E+01
 11
-2.54966094E+02
 21
9.33694952E+01
  0
LINE
  8
0
  6
CENTER
 62
6
 10
-2.57604274E+02
 20
9.68138152E+01
 11
-2.56562384E+02
 21
9.09049687E+01
  0
LINE
  8
0
  6
CENTER
 62
6
 10
-2.60037752E+02
 20
9.33384475E+01
 11
-2.54128906E+02
 21
9.43803365E+01
  0
LINE
  8
0
 62
4
 10
-2.57429183E+02
 20
1.06186613E+02
 11
-2.56444375E+02
 21
1.06360261E+02
  0
ARC
  8
0
 62
4
 10
-2.54254133E+02
 20
1.00450815E+02
 40
1.00000000E+00
 50
3.28723662E+02
 51
3.57172490E+02
  0
ARC
  8
0
 62
4
 10
-2.55087645E+02
 20
1.05177893E+02
 40
1.00000000E+00
 50
2.28275100E+01
 51
9.99999999E+01
  0
ARC
  8
0
 62
4
 10
-2.65050973E+02
 20
1.00984065E+02
 40
1.18100000E+01
 50
3.57172490E+02
 51
2.28275100E+01
  0
LINE
  8
0
 62
4
 10
-2.56374916E+02
 20
1.05966338E+02
 11
-2.55262083E+02
 21
1.06162561E+02
  0
LINE
  8
0
 62
4
 10
-2.55897383E+02
 20
1.03258117E+02
 11
-2.56444375E+02
 21
1.06360261E+02
  0
LINE
  8
0
 62
4
 10
-2.55066684E+02
 20
9.49765508E+01
 11
-2.56507964E+02
 21
1.03150455E+02
  0
LINE
  8
0
 62
4
 10
-2.56856144E+02
 20
1.02936748E+02
 11
-2.56481917E+02
 21
1.03002734E+02
  0
LINE
  8
0
 62
4
 10
-2.55269997E+02
 20
9.50930153E+01
 11
-2.55092731E+02
 21
9.51242720E+01
  0
LINE
  8
0
 62
4
 10
-2.56507964E+02
 20
1.03150455E+02
 11
-2.54774702E+02
 21
1.03456076E+02
  0
LINE
  8
0
 62
4
 10
-2.55066684E+02
 20
9.49765508E+01
 11
-2.53333423E+02
 21
9.52821716E+01
  0
ARC
  8
0
 62
4
 10
-2.64947120E+02
 20
9.74562415E+01
 40
1.18100000E+01
 50
9.99999999E+00
 51
3.05326991E+01
  0
ARC
  8
0
 62
4
 10
-2.64944433E+02
 20
9.74410000E+01
 40
1.18100000E+01
 50
3.49467301E+02
 51
9.99999999E+00
  0
LINE
  8
0
 62
4
 10
-2.55657971E+02
 20
9.61415742E+01
 11
-2.57550737E+02
 21
1.06875979E+02
  0
LINE
  8
0
 62
4
 10
-2.52032920E+02
 20
9.50582857E+01
 11
-2.49949141E+02
 21
1.06875979E+02
  0
LINE
  8
0
 62
4
 10
-2.52032919E+02
 20
9.50582857E+01
 11
-2.52407146E+02
 21
9.51242720E+01
  0
LINE
  8
0
 62
4
 10
-2.52433194E+02
 20
9.49765508E+01
 11
-2.51764648E+02
 21
9.87680607E+01
  0
LINE
  8
0
 62
4
 10
-2.52375229E+02
 20
9.88757225E+01
 11
-2.51055503E+02
 21
1.06360261E+02
  0
LINE
  8
0
 62
4
 10
-2.50070695E+02
 20
1.06186613E+02
 11
-2.51055503E+02
 21
1.06360261E+02
  0
LINE
  8
0
 62
4
 10
-2.51390421E+02
 20
9.87020744E+01
 11
-2.52375229E+02
 21
9.88757225E+01
  0
ARC
  8
0
 62
4
 10
-2.50546785E+02
 20
9.31207862E+01
 40
5.00000000E-01
 50
2.98293252E+01
 51
1.50170675E+02
  0
CIRCLE
  8
0
 62
4
 10
-2.50286313E+02
 20
9.45979978E+01
 40
5.00000000E-01
  0
CIRCLE
  8
0
 62
4
 10
-2.50286313E+02
 20
9.45979978E+01
 40
3.00000000E-01
  0
ARC
  8
0
 62
4
 10
-2.50546785E+02
 20
9.31207862E+01
 40
3.00000000E-01
 50
5.59992305E+01
 51
1.24000769E+02
  0
ARC
  8
0
 62
4
 10
-2.50416549E+02
 20
9.38593920E+01
 40
1.50000000E+00
 50
3.40937591E+02
 51
1.99062409E+02
  0
LINE
  8
0
 62
4
 10
-2.27097625E+02
 20
8.78970907E+01
 11
-2.28708658E+02
 21
7.87604697E+01
  0
LINE
  8
0
 62
4
 10
-2.39805622E+02
 20
1.05087402E+02
 11
-2.32911967E+02
 21
1.03871865E+02
  0
LINE
  8
0
 62
4
 10
-2.32911967E+02
 20
1.03871865E+02
 11
-2.27097625E+02
 21
8.78970907E+01
  0
ARC
  8
0
 62
4
 10
-2.30185869E+02
 20
7.90209419E+01
 40
1.50000000E+00
 50
3.43189498E+02
 51
3.50000000E+02
  0
LINE
  8
0
 62
4
 10
-2.41281631E+02
 20
9.67165366E+01
 11
-2.40789227E+02
 21
9.66297125E+01
  0
LINE
  8
0
 62
4
 10
-2.40383647E+02
 20
9.60504845E+01
 11
-2.40856378E+02
 21
9.33694952E+01
  0
ARC
  8
0
 62
4
 10
-2.40876051E+02
 20
9.61373086E+01
 40
5.00000000E-01
 50
3.50000000E+02
 51
7.99999999E+01
  0
LINE
  8
0
  6
CENTER
 62
6
 10
-2.33681960E+02
 20
8.36991035E+01
 11
-2.26215956E+02
 21
8.23826456E+01
  0
LINE
  8
0
  6
CENTER
 62
6
 10
-2.39656368E+02
 20
9.69376722E+01
 11
-2.52506873E+02
 21
9.92035630E+01
  0
LINE
  8
0
  6
CENTER
 62
6
 10
-2.29814732E+02
 20
9.87563194E+01
 11
-2.51899105E+02
 21
1.02650390E+02
  0
LINE
  8
0
 62
4
 10
-2.48574676E+02
 20
9.56670160E+01
 11
-2.48899140E+02
 21
9.61303984E+01
  0
LINE
  8
0
 62
4
 10
-2.48899140E+02
 20
9.61303984E+01
 11
-2.51755082E+02
 21
9.66339781E+01
  0
LINE
  8
0
 62
4
 10
-2.48082272E+02
 20
9.55801919E+01
 11
-2.48472078E+02
 21
9.33694952E+01
  0
LINE
  8
0
 62
4
 10
-2.48082272E+02
 20
9.55801919E+01
 11
-2.48574676E+02
 21
9.56670160E+01
  0
LINE
  8
0
 62
4
 10
-2.39805622E+02
 20
1.05087402E+02
 11
-2.41281631E+02
 21
9.67165366E+01
  0
LINE
  8
0
 62
4
 10
-2.49949141E+02
 20
1.06875979E+02
 11
-2.39805622E+02
 21
1.05087402E+02
  0
LINE
  8
0
 62
4
 10
-2.40887708E+02
 20
9.66470773E+01
 11
-2.41465634E+02
 21
9.33694952E+01
  0
LINE
  8
0
 62
4
 10
-2.48099637E+02
 20
9.54817111E+01
 11
-2.52038868E+02
 21
9.61763038E+01
  0
LINE
  8
0
 62
4
 10
-2.52038868E+02
 20
9.61763038E+01
 11
-2.52533784E+02
 21
9.33694952E+01
  0
LINE
  8
0
  6
CENTER
 62
6
 10
-2.49895604E+02
 20
9.68138152E+01
 11
-2.50937493E+02
 21
9.09049687E+01
  0
LINE
  8
0
  6
CENTER
 62
6
 10
-2.47462126E+02
 20
9.33384475E+01
 11
-2.53370972E+02
 21
9.43803365E+01
  0
LINE
  8
0
 62
4
 10
-2.24629007E+02
 20
8.41336768E+01
 11
-2.27666769E+02
 21
8.46693162E+01
  0
LINE
  8
0
 62
4
 10
-2.25323600E+02
 20
8.01944458E+01
 11
-2.28361361E+02
 21
8.07300852E+01
  0
LINE
  8
0
 62
6
 10
-2.24715831E+02
 20
8.36412730E+01
 11
-2.27753593E+02
 21
8.41769123E+01
  0
LINE
  8
0
 62
6
 10
-2.25236775E+02
 20
8.06868497E+01
 11
-2.28274537E+02
 21
8.12224890E+01
  0
LINE
  8
0
 62
4
 10
-2.25323600E+02
 20
8.01944458E+01
 11
-2.24629007E+02
 21
8.41336768E+01
  0
ARC
  8
0
 62
4
 10
-2.52412233E+02
 20
1.05177893E+02
 40
1.00000000E+00
 50
7.99999999E+01
 51
1.57172490E+02
  0
LINE
  8
0
 62
4
 10
-2.51124962E+02
 20
1.05966338E+02
 11
-2.52237795E+02
 21
1.06162561E+02
  0
ARC
  8
0
  6
DASHED
 62
4
 10
-2.42448905E+02
 20
1.00984065E+02
 40
1.18100000E+01
 50
1.63117791E+02
 51
1.82827510E+02
  0
LINE
  8
0
 62
4
 10
-2.52305770E+02
 20
9.92696456E+01
 11
-2.53305871E+02
 21
9.94459906E+01
  0
ARC
  8
0
  6
DASHED
 62
4
 10
-2.53245745E+02
 20
1.00450815E+02
 40
1.00000000E+00
 50
1.82827510E+02
 51
2.60000000E+02
  0
ARC
  8
0
  6
DASHED
 62
4
 10
-2.42555445E+02
 20
9.74410000E+01
 40
1.18100000E+01
 50
1.70000000E+02
 51
1.90532699E+02
  0
ARC
  8
0
  6
DASHED
 62
4
 10
-2.42552758E+02
 20
9.74562415E+01
 40
1.18100000E+01
 50
1.67900933E+02
 51
1.70000000E+02
  0
LINE
  8
0
 62
4
 10
-2.52433194E+02
 20
9.49765508E+01
 11
-2.53749939E+02
 21
9.52087285E+01
  0
ARC
  8
0
 62
4
 10
-2.42448905E+02
 20
1.00984065E+02
 40
1.18100000E+01
 50
1.57172490E+02
 51
1.63117791E+02
  0
LINE
  8
0
  6
DASHED
 62
4
 10
-2.53305871E+02
 20
9.94459906E+01
 11
-2.53418602E+02
 21
9.94658681E+01
  0
LINE
  8
0
  6
DASHED
 62
4
 10
-2.53749939E+02
 20
9.52087285E+01
 11
-2.54166455E+02
 21
9.52821716E+01
  0
LINE
  8
0
  6
CENTER
 62
2
 10
-2.35249908E+02
 20
9.53761175E+01
 11
-2.35249908E+02
 21
8.04549749E+01
  0
LINE
  8
0
 62
7
 10
-2.28749969E+02
 20
9.03694952E+01
 11
-2.28749969E+02
 21
4.63694494E+01
  0
LINE
  8
0
 62
7
 10
-2.75749969E+02
 20
9.28694952E+01
 11
-2.31749969E+02
 21
9.28694342E+01
  0
LINE
  8
0
 62
7
 10
-2.29249969E+02
 20
9.03694342E+01
 11
-2.29249969E+02
 21
4.63694494E+01
  0
LINE
  8
0
 62
7
 10
-2.32749969E+02
 20
6.93694647E+01
 11
-2.36868011E+02
 21
6.93694647E+01
  0
LINE
  8
0
 62
7
 10
-2.40020171E+02
 20
8.06852728E+01
 11
-2.41105648E+02
 21
7.95997966E+01
  0
LINE
  8
0
 62
7
 10
-2.52749969E+02
 20
8.93694647E+01
 11
-2.52749969E+02
 21
8.52514074E+01
  0
LINE
  8
0
 62
7
 10
-2.41434331E+02
 20
8.20994541E+01
 11
-2.42519796E+02
 21
8.10139887E+01
  0
LINE
  8
0
 62
7
 10
-2.31749969E+02
 20
7.33694952E+01
 11
-2.31749969E+02
 21
6.33694342E+01
  0
LINE
  8
0
  6
CENTER
 62
2
 10
-2.80839874E+02
 20
8.68695410E+01
 11
-2.66173004E+02
 21
8.68695410E+01
  0
LINE
  8
0
  6
CENTER
 62
2
 10
-2.72249969E+02
 20
9.52721136E+01
 11
-2.72249969E+02
 21
7.89851263E+01
  0
LINE
  8
0
 62
7
 10
-2.75750031E+02
 20
9.33694952E+01
 11
-2.31749969E+02
 21
9.33694952E+01
  0
LINE
  8
0
 62
7
 10
-2.78750031E+02
 20
9.03694952E+01
 11
-2.78750031E+02
 21
4.63694494E+01
  0
LINE
  8
0
 62
7
 10
-2.78249969E+02
 20
9.03694952E+01
 11
-2.78249969E+02
 21
4.63694799E+01
  0
LINE
  8
0
  6
CENTER
 62
2
 10
-2.72250092E+02
 20
4.12464636E+01
 11
-2.72250092E+02
 21
5.78889654E+01
  0
LINE
  8
0
  6
CENTER
 62
2
 10
-2.80694672E+02
 20
4.98694799E+01
 11
-2.65882599E+02
 21
4.98694799E+01
  0
LINE
  8
0
 62
7
 10
-2.75750031E+02
 20
4.38694799E+01
 11
-2.31750031E+02
 21
4.38694494E+01
  0
LINE
  8
0
 62
7
 10
-2.54749969E+02
 20
8.93694647E+01
 11
-2.54749969E+02
 21
8.52514227E+01
  0
LINE
  8
0
 62
7
 10
-2.74749969E+02
 20
6.93694799E+01
 11
-2.70631927E+02
 21
6.93694799E+01
  0
LINE
  8
0
 62
7
 10
-2.67479917E+02
 20
8.06851629E+01
 11
-2.66394440E+02
 21
7.95996869E+01
  0
LINE
  8
0
 62
7
 10
-2.66065746E+02
 20
8.20994200E+01
 11
-2.64980270E+02
 21
8.10139439E+01
  0
LINE
  8
0
 62
7
 10
-2.58750031E+02
 20
9.03694952E+01
 11
-2.48749969E+02
 21
9.03694952E+01
  0
LINE
  8
0
 62
7
 10
-2.75749969E+02
 20
7.33694952E+01
 11
-2.75749969E+02
 21
6.33694342E+01
  0
LINE
  8
0
 62
7
 10
-2.74749969E+02
 20
6.73694799E+01
 11
-2.70631927E+02
 21
6.73694799E+01
  0
LINE
  8
0
 62
7
 10
-2.67480042E+02
 20
5.60538779E+01
 11
-2.66394566E+02
 21
5.71393543E+01
  0
LINE
  8
0
 62
7
 10
-2.54750031E+02
 20
4.73694952E+01
 11
-2.54750031E+02
 21
5.14875372E+01
  0
LINE
  8
0
 62
7
 10
-2.66065828E+02
 20
5.46397077E+01
 11
-2.64980363E+02
 21
5.57251733E+01
  0
LINE
  8
0
 62
7
 10
-2.75750031E+02
 20
4.33694494E+01
 11
-2.31749969E+02
 21
4.33694494E+01
  0
LINE
  8
0
 62
7
 10
-2.52750031E+02
 20
4.73694952E+01
 11
-2.52750031E+02
 21
5.14875372E+01
  0
LINE
  8
0
 62
7
 10
-2.41434331E+02
 20
5.46394471E+01
 11
-2.42519807E+02
 21
5.57249233E+01
  0
LINE
  8
0
 62
7
 10
-2.32749969E+02
 20
6.73694494E+01
 11
-2.36868011E+02
 21
6.73694494E+01
  0
LINE
  8
0
 62
7
 10
-2.40020182E+02
 20
5.60537255E+01
 11
-2.41105615E+02
 21
5.71391586E+01
  0
LINE
  8
0
 62
7
 10
-2.58750031E+02
 20
4.63694342E+01
 11
-2.48749969E+02
 21
4.63694342E+01
  0
LINE
  8
0
  6
CENTER
 62
2
 10
-2.53749969E+02
 20
9.68644598E+01
 11
-2.53749969E+02
 21
3.90682104E+01
  0
LINE
  8
0
  6
CENTER
 62
2
 10
-2.35250031E+02
 20
4.14814108E+01
 11
-2.35250031E+02
 21
5.74458044E+01
  0
LINE
  8
0
 62
7
 10
-2.73749969E+02
 20
9.33694952E+01
 11
-2.73749969E+02
 21
9.28694952E+01
  0
LINE
  8
0
 62
7
 10
-2.33749969E+02
 20
9.33694952E+01
 11
-2.33749969E+02
 21
9.28694342E+01
  0
LINE
  8
0
 62
7
 10
-2.73749969E+02
 20
4.38694799E+01
 11
-2.73749969E+02
 21
4.33694494E+01
  0
LINE
  8
0
 62
7
 10
-2.33749969E+02
 20
4.38694494E+01
 11
-2.33749969E+02
 21
4.33694494E+01
  0
LINE
  8
0
 62
7
 10
-2.64463165E+02
 20
5.03694799E+01
 11
-2.62500031E+02
 21
5.03694799E+01
  0
LINE
  8
0
 62
7
 10
-2.43038055E+02
 20
5.03693884E+01
 11
-2.44999969E+02
 21
5.03693884E+01
  0
LINE
  8
0
 62
7
 10
-2.35750031E+02
 20
5.76568640E+01
 11
-2.35750031E+02
 21
5.96194342E+01
  0
LINE
  8
0
 62
7
 10
-2.35749908E+02
 20
7.90807684E+01
 11
-2.35749908E+02
 21
7.71194952E+01
  0
LINE
  8
0
 62
7
 10
-2.64461700E+02
 20
8.63695562E+01
 11
-2.62500031E+02
 21
8.63695562E+01
  0
LINE
  8
0
 62
7
 10
-2.71749969E+02
 20
7.90816229E+01
 11
-2.71749969E+02
 21
7.71194952E+01
  0
LINE
  8
0
 62
7
 10
-2.71749969E+02
 20
5.76573065E+01
 11
-2.71749969E+02
 21
5.96194342E+01
  0
LINE
  8
0
  6
CENTER
 62
2
 10
-2.41631378E+02
 20
4.98694799E+01
 11
-2.27109711E+02
 21
4.98694799E+01
  0
LINE
  8
0
  6
CENTER
 62
2
 10
-2.41631378E+02
 20
8.68695410E+01
 11
-2.27109711E+02
 21
8.68695410E+01
  0
LINE
  8
0
  6
CENTER
 62
2
 10
-2.24777649E+02
 20
6.83694647E+01
 11
-2.83453766E+02
 21
6.83694647E+01
  0
LINE
  8
0
 62
7
 10
-2.43136932E+02
 20
8.63986547E+01
 11
-2.45167023E+02
 21
8.63986547E+01
  0
LINE
  8
0
  6
CENTER
 62
2
 10
-2.57750031E+02
 20
9.51218603E+01
 11
-2.57750031E+02
 21
8.39412573E+01
  0
ARC
  8
0
 62
7
 10
-2.31749969E+02
 20
9.03694342E+01
 40
2.50000000E+00
 50
0.00000000E+00
 51
8.99999818E+01
  0
CIRCLE
  8
0
 62
7
 10
-2.35249908E+02
 20
8.68694647E+01
 40
5.00000000E+00
  0
CIRCLE
  8
0
 62
7
 10
-2.35249908E+02
 20
8.68694647E+01
 40
4.50000000E+00
  0
ARC
  8
0
 62
7
 10
-2.42141388E+02
 20
8.28064459E+01
 40
1.00000000E+00
 50
3.15000624E+02
 51
3.05224488E+01
  0
ARC
  8
0
 62
7
 10
-2.32749969E+02
 20
7.03694647E+01
 40
1.00000000E+00
 50
2.69999963E+02
 51
0.00000000E+00
  0
ARC
  8
0
 62
7
 10
-2.36868011E+02
 20
7.03694647E+01
 40
1.00000000E+00
 50
1.86756090E+02
 51
2.69999963E+02
  0
ARC
  8
0
 62
7
 10
-2.39312958E+02
 20
7.99780310E+01
 40
1.00000000E+00
 50
5.94777518E+01
 51
1.34999345E+02
  0
ARC
  8
0
 62
7
 10
-2.51749969E+02
 20
8.93694647E+01
 40
1.00000000E+00
 50
8.99999818E+01
 51
1.79999964E+02
  0
ARC
  8
0
 62
7
 10
-2.51749969E+02
 20
8.52514074E+01
 40
1.00000000E+00
 50
1.79999964E+02
 51
2.63243741E+02
  0
ARC
  8
0
 62
7
 10
-2.40398407E+02
 20
7.88925512E+01
 40
1.00000000E+00
 50
1.34999959E+02
 51
2.18243614E+02
  0
ARC
  8
0
 62
7
 10
-2.43226837E+02
 20
8.17209814E+01
 40
1.00000000E+00
 50
2.31755794E+02
 51
3.14999380E+02
  0
ARC
  8
0
 62
7
 10
-2.31749969E+02
 20
9.03694952E+01
 40
3.00000000E+00
 50
0.00000000E+00
 51
8.99999818E+01
  0
ARC
  8
0
 62
7
 10
-2.32749969E+02
 20
7.33694952E+01
 40
1.00000000E+00
 50
0.00000000E+00
 51
8.99999818E+01
  0
ARC
  8
0
 62
7
 10
-2.32749969E+02
 20
7.73694952E+01
 40
3.00000000E+00
 50
1.77973583E+02
 51
2.69999946E+02
  0
ARC
  8
0
 62
7
 10
-2.36747467E+02
 20
7.90109289E+01
 40
1.00000000E+00
 50
3.57973879E+02
 51
7.92109058E+01
  0
ARC
  8
0
 62
7
 10
-2.35249969E+02
 20
8.68695257E+01
 40
7.00000000E+00
 50
1.90788702E+02
 51
2.59211358E+02
  0
ARC
  8
0
 62
7
 10
-2.43108551E+02
 20
8.53720281E+01
 40
1.00000000E+00
 50
1.07884614E+01
 51
9.20251808E+01
  0
ARC
  8
0
 62
7
 10
-2.44749969E+02
 20
8.93695257E+01
 40
3.00000000E+00
 50
1.80000569E+02
 51
2.72025811E+02
  0
ARC
  8
0
 62
7
 10
-2.48749969E+02
 20
8.93694952E+01
 40
1.00000000E+00
 50
0.00000000E+00
 51
8.99999818E+01
  0
ARC
  8
0
 62
7
 10
-2.75750031E+02
 20
4.63694799E+01
 40
2.50000000E+00
 50
1.79999964E+02
 51
2.69999946E+02
  0
ARC
  8
0
 62
7
 10
-2.75749969E+02
 20
9.03694952E+01
 40
2.50000000E+00
 50
8.99999818E+01
 51
1.79999964E+02
  0
ARC
  8
0
 62
7
 10
-2.75750031E+02
 20
9.03694952E+01
 40
3.00000000E+00
 50
8.99999818E+01
 51
1.79999964E+02
  0
ARC
  8
0
 62
7
 10
-2.75750031E+02
 20
4.63694494E+01
 40
3.00000000E+00
 50
1.79999964E+02
 51
2.69999946E+02
  0
CIRCLE
  8
0
 62
7
 10
-2.72249969E+02
 20
8.68695257E+01
 40
4.50000000E+00
  0
CIRCLE
  8
0
 62
7
 10
-2.72249969E+02
 20
8.68695257E+01
 40
5.00000000E+00
  0
CIRCLE
  8
0
 62
7
 10
-2.72250031E+02
 20
4.98694647E+01
 40
4.50000000E+00
  0
CIRCLE
  8
0
 62
7
 10
-2.72250031E+02
 20
4.98694647E+01
 40
5.00000000E+00
  0
ARC
  8
0
 62
7
 10
-2.74749969E+02
 20
7.03694647E+01
 40
1.00000000E+00
 50
1.79999964E+02
 51
2.69999946E+02
  0
ARC
  8
0
 62
7
 10
-2.55749969E+02
 20
8.93694647E+01
 40
1.00000000E+00
 50
3.59999959E+02
 51
8.99999956E+01
  0
ARC
  8
0
 62
7
 10
-2.65358551E+02
 20
8.28065069E+01
 40
1.00000000E+00
 50
1.49477747E+02
 51
2.24999340E+02
  0
ARC
  8
0
 62
7
 10
-2.72249969E+02
 20
8.68695257E+01
 40
7.00000000E+00
 50
2.80788623E+02
 51
3.49211279E+02
  0
ARC
  8
0
 62
7
 10
-2.68186981E+02
 20
7.99780767E+01
 40
1.00000000E+00
 50
4.50006194E+01
 51
1.20522431E+02
  0
ARC
  8
0
 62
7
 10
-2.55749969E+02
 20
8.52514227E+01
 40
1.00000000E+00
 50
2.76756086E+02
 51
3.59999959E+02
  0
ARC
  8
0
 62
7
 10
-2.64273102E+02
 20
8.17210577E+01
 40
1.00000000E+00
 50
2.24999972E+02
 51
3.08243613E+02
  0
ARC
  8
0
 62
7
 10
-2.67101532E+02
 20
7.88926275E+01
 40
1.00000000E+00
 50
3.21755790E+02
 51
4.49993763E+01
  0
ARC
  8
0
 62
7
 10
-2.70631927E+02
 20
7.03694647E+01
 40
1.00000000E+00
 50
2.69999963E+02
 51
3.53243768E+02
  0
ARC
  8
0
 62
7
 10
-2.65358612E+02
 20
5.39324835E+01
 40
1.00000000E+00
 50
1.35000615E+02
 51
2.10522426E+02
  0
ARC
  8
0
 62
7
 10
-2.74749969E+02
 20
6.63694647E+01
 40
1.00000000E+00
 50
8.99999549E+01
 51
1.79999991E+02
  0
ARC
  8
0
 62
7
 10
-2.70631927E+02
 20
6.63694647E+01
 40
1.00000000E+00
 50
6.75608163E+00
 51
8.99999549E+01
  0
ARC
  8
0
 62
7
 10
-2.68187042E+02
 20
5.67608831E+01
 40
1.00000000E+00
 50
2.39477760E+02
 51
3.14999353E+02
  0
ARC
  8
0
 62
7
 10
-2.55749969E+02
 20
4.73694647E+01
 40
1.00000000E+00
 50
2.69999991E+02
 51
3.59999973E+02
  0
ARC
  8
0
 62
7
 10
-2.55749969E+02
 20
5.14875067E+01
 40
1.00000000E+00
 50
3.59999973E+02
 51
8.32437569E+01
  0
ARC
  8
0
 62
7
 10
-2.67101593E+02
 20
5.78463629E+01
 40
1.00000000E+00
 50
3.14999968E+02
 51
3.82436225E+01
  0
ARC
  8
0
 62
7
 10
-2.64273163E+02
 20
5.50179327E+01
 40
1.00000000E+00
 50
5.17557857E+01
 51
1.34999372E+02
  0
ARC
  8
0
 62
7
 10
-2.74749969E+02
 20
7.73694952E+01
 40
3.00000000E+00
 50
2.70000018E+02
 51
0.00000000E+00
  0
ARC
  8
0
 62
7
 10
-2.62750031E+02
 20
8.93695257E+01
 40
3.00000000E+00
 50
2.67974177E+02
 51
3.59999417E+02
  0
ARC
  8
0
 62
7
 10
-2.74749969E+02
 20
7.33694952E+01
 40
1.00000000E+00
 50
8.99999818E+01
 51
1.79999964E+02
  0
ARC
  8
0
 62
7
 10
-2.70752472E+02
 20
7.90109289E+01
 40
1.00000000E+00
 50
1.00789058E+02
 51
1.82026085E+02
  0
ARC
  8
0
 62
7
 10
-2.58750031E+02
 20
8.93694952E+01
 40
1.00000000E+00
 50
8.99999818E+01
 51
1.79999964E+02
  0
ARC
  8
0
 62
7
 10
-2.64391388E+02
 20
8.53720281E+01
 40
1.00000000E+00
 50
8.79747829E+01
 51
1.69211502E+02
  0
ARC
  8
0
 62
7
 10
-2.70752472E+02
 20
5.77280004E+01
 40
1.00000000E+00
 50
1.77973898E+02
 51
2.59210925E+02
  0
ARC
  8
0
 62
7
 10
-2.72249969E+02
 20
4.98694036E+01
 40
7.00000000E+00
 50
1.07887209E+01
 51
7.92113774E+01
  0
ARC
  8
0
 62
7
 10
-2.64391388E+02
 20
5.13669012E+01
 40
1.00000000E+00
 50
1.90788497E+02
 51
2.72025217E+02
  0
ARC
  8
0
 62
7
 10
-2.62750031E+02
 20
4.73694036E+01
 40
3.00000000E+00
 50
5.82842824E-04
 51
9.20258231E+01
  0
ARC
  8
0
 62
7
 10
-2.58750031E+02
 20
4.73694342E+01
 40
1.00000000E+00
 50
1.80000036E+02
 51
2.70000018E+02
  0
ARC
  8
0
 62
7
 10
-2.31750031E+02
 20
4.63694494E+01
 40
2.50000000E+00
 50
2.69999963E+02
 51
0.00000000E+00
  0
ARC
  8
0
 62
7
 10
-2.31749969E+02
 20
4.63694494E+01
 40
3.00000000E+00
 50
2.69999963E+02
 51
0.00000000E+00
  0
CIRCLE
  8
0
 62
7
 10
-2.35249969E+02
 20
4.98694036E+01
 40
4.50000000E+00
  0
CIRCLE
  8
0
 62
7
 10
-2.35249969E+02
 20
4.98694036E+01
 40
5.00000000E+00
  0
ARC
  8
0
 62
7
 10
-2.39313019E+02
 20
5.67608526E+01
 40
1.00000000E+00
 50
2.25000628E+02
 51
3.00522440E+02
  0
ARC
  8
0
 62
7
 10
-2.51749969E+02
 20
4.73694647E+01
 40
1.00000000E+00
 50
1.79999951E+02
 51
2.70000001E+02
  0
ARC
  8
0
 62
7
 10
-2.51749969E+02
 20
5.14875067E+01
 40
1.00000000E+00
 50
9.67560773E+01
 51
1.79999951E+02
  0
ARC
  8
0
 62
7
 10
-2.42141388E+02
 20
5.39324224E+01
 40
1.00000000E+00
 50
3.29477756E+02
 51
4.49993490E+01
  0
ARC
  8
0
 62
7
 10
-2.32749969E+02
 20
6.63694647E+01
 40
1.00000000E+00
 50
3.59999986E+02
 51
8.99999681E+01
  0
ARC
  8
0
 62
7
 10
-2.36868011E+02
 20
6.63694647E+01
 40
1.00000000E+00
 50
8.99999681E+01
 51
1.73243759E+02
  0
ARC
  8
0
 62
7
 10
-2.43226898E+02
 20
5.50178717E+01
 40
1.00000000E+00
 50
4.49999637E+01
 51
1.28243618E+02
  0
ARC
  8
0
 62
7
 10
-2.40398468E+02
 20
5.78463018E+01
 40
1.00000000E+00
 50
1.41755781E+02
 51
2.24999368E+02
  0
ARC
  8
0
 62
7
 10
-2.48749969E+02
 20
4.73694342E+01
 40
1.00000000E+00
 50
2.70000018E+02
 51
0.00000000E+00
  0
ARC
  8
0
 62
7
 10
-2.44749969E+02
 20
4.73694036E+01
 40
3.00000000E+00
 50
8.79741887E+01
 51
1.79999431E+02
  0
ARC
  8
0
 62
7
 10
-2.43108551E+02
 20
5.13669012E+01
 40
1.00000000E+00
 50
2.67974819E+02
 51
3.49211538E+02
  0
ARC
  8
0
 62
7
 10
-2.35249969E+02
 20
4.98694036E+01
 40
7.00000000E+00
 50
1.00788641E+02
 51
1.69211298E+02
  0
ARC
  8
0
 62
7
 10
-2.36747467E+02
 20
5.77280004E+01
 40
1.00000000E+00
 50
2.80789094E+02
 51
2.02612098E+00
  0
ARC
  8
0
 62
7
 10
-2.32749969E+02
 20
5.93694342E+01
 40
3.00000000E+00
 50
9.00000369E+01
 51
1.82026399E+02
  0
ARC
  8
0
 62
7
 10
-2.32749969E+02
 20
6.33694342E+01
 40
1.00000000E+00
 50
2.70000018E+02
 51
0.00000000E+00
  0
CIRCLE
  8
0
 62
7
 10
-2.53749969E+02
 20
6.83694647E+01
 40
1.60000000E+01
  0
CIRCLE
  8
0
 62
7
 10
-2.53749969E+02
 20
6.83694647E+01
 40
1.55000010E+01
  0
CIRCLE
  8
0
 62
7
 10
-2.53749969E+02
 20
6.83694647E+01
 40
1.50000000E+01
  0
ARC
  8
0
 62
7
 10
-2.74749969E+02
 20
5.93694342E+01
 40
3.00000000E+00
 50
3.57973625E+02
 51
8.99999818E+01
  0
ARC
  8
0
 62
7
 10
-2.74749969E+02
 20
6.33694342E+01
 40
1.00000000E+00
 50
1.79999981E+02
 51
2.70000018E+02
  0
CIRCLE
  8
0
 62
2
 10
-2.72249969E+02
 20
8.68695410E+01
 40
3.00000000E+00
  0
CIRCLE
  8
0
 62
2
 10
-2.72250092E+02
 20
4.98694799E+01
 40
3.00000000E+00
  0
CIRCLE
  8
0
 62
2
 10
-2.35250031E+02
 20
4.98694799E+01
 40
3.00000000E+00
  0
CIRCLE
  8
0
 62
2
 10
-2.35249908E+02
 20
8.68695410E+01
 40
3.00000000E+00
  0
CIRCLE
  8
0
 62
7
 10
-2.53749969E+02
 20
6.83694647E+01
 40
6.99998474E+00
  0
CIRCLE
  8
0
 62
2
 10
-2.53749969E+02
 20
6.83694647E+01
 40
6.17999268E+00
  0
CIRCLE
  8
0
 62
7
 10
-2.53749969E+02
 20
6.83694647E+01
 40
5.49998474E+00
  0
CIRCLE
  8
0
 62
7
 10
1.77094315E+02
 20
4.98694647E+01
 40
2.45850000E+00
  0
CIRCLE
  8
0
 62
7
 10
2.14094391E+02
 20
4.98693884E+01
 40
2.45850000E+00
  0
CIRCLE
  8
0
 62
7
 10
2.14094467E+02
 20
8.68694647E+01
 40
2.45850000E+00
  0
CIRCLE
  8
0
 62
7
 10
1.77094391E+02
 20
8.68695410E+01
 40
2.45850000E+00
  0
LINE
  8
0
 62
6
 10
1.67081258E+02
 20
8.06868497E+01
 11
1.70119020E+02
 21
8.12224890E+01
  0
LINE
  8
0
 62
6
 10
1.66560313E+02
 20
8.36412730E+01
 11
1.69598075E+02
 21
8.41769123E+01
  0
LINE
  8
0
 62
4
 10
1.67168082E+02
 20
8.01944458E+01
 11
1.66473489E+02
 21
8.41336768E+01
  0
LINE
  8
0
 62
4
 10
1.67168082E+02
 20
8.01944458E+01
 11
1.70205844E+02
 21
8.07300852E+01
  0
LINE
  8
0
 62
4
 10
1.66473489E+02
 20
8.41336768E+01
 11
1.69511251E+02
 21
8.46693162E+01
  0
LINE
  8
0
 62
4
 10
1.68942107E+02
 20
8.78970907E+01
 11
1.70553140E+02
 21
7.87604697E+01
  0
LINE
  8
0
 62
4
 10
1.81650104E+02
 20
1.05087402E+02
 11
1.74756450E+02
 21
1.03871865E+02
  0
LINE
  8
0
 62
4
 10
1.74756450E+02
 20
1.03871865E+02
 11
1.68942107E+02
 21
8.78970907E+01
  0
ARC
  8
0
 62
4
 10
1.72030352E+02
 20
7.90209419E+01
 40
1.50000000E+00
 50
1.90000000E+02
 51
1.96794373E+02
  0
LINE
  8
0
 62
4
 10
1.83126113E+02
 20
9.67165366E+01
 11
1.82633710E+02
 21
9.66297125E+01
  0
LINE
  8
0
 62
4
 10
1.82228130E+02
 20
9.60504845E+01
 11
1.82700861E+02
 21
9.33694952E+01
  0
ARC
  8
0
 62
4
 10
1.82720534E+02
 20
9.61373086E+01
 40
5.00000000E-01
 50
9.99999999E+01
 51
1.90000000E+02
  0
LINE
  8
0
  6
CENTER
 62
6
 10
1.75935508E+02
 20
8.37712328E+01
 11
1.68469504E+02
 21
8.24547748E+01
  0
LINE
  8
0
  6
CENTER
 62
6
 10
1.81500850E+02
 20
9.69376722E+01
 11
1.94351356E+02
 21
9.92035630E+01
  0
LINE
  8
0
  6
CENTER
 62
6
 10
1.71659215E+02
 20
9.87563194E+01
 11
1.93743587E+02
 21
1.02650390E+02
  0
LINE
  8
0
 62
4
 10
1.90419159E+02
 20
9.56670160E+01
 11
1.90743622E+02
 21
9.61303984E+01
  0
LINE
  8
0
 62
4
 10
1.90743622E+02
 20
9.61303984E+01
 11
1.93599565E+02
 21
9.66339781E+01
  0
LINE
  8
0
 62
4
 10
1.89926755E+02
 20
9.55801919E+01
 11
1.90316560E+02
 21
9.33694952E+01
  0
LINE
  8
0
 62
4
 10
1.89926755E+02
 20
9.55801919E+01
 11
1.90419159E+02
 21
9.56670160E+01
  0
LINE
  8
0
 62
4
 10
1.81650104E+02
 20
1.05087402E+02
 11
1.83126113E+02
 21
9.67165366E+01
  0
LINE
  8
0
 62
4
 10
1.91793624E+02
 20
1.06875979E+02
 11
1.81650104E+02
 21
1.05087402E+02
  0
LINE
  8
0
 62
4
 10
1.82732190E+02
 20
9.66470773E+01
 11
1.83310117E+02
 21
9.33694952E+01
  0
LINE
  8
0
 62
4
 10
1.93177642E+02
 20
9.51684472E+01
 11
1.93494845E+02
 21
9.33694952E+01
  0
LINE
  8
0
 62
4
 10
1.91194904E+02
 20
9.33694952E+01
 11
1.90947052E+02
 21
9.47751341E+01
  0
LINE
  8
0
 62
4
 10
1.93883350E+02
 20
9.61763038E+01
 11
1.93177642E+02
 21
9.51684472E+01
  0
LINE
  8
0
 62
4
 10
1.89944119E+02
 20
9.54817111E+01
 11
1.90947052E+02
 21
9.47751341E+01
  0
LINE
  8
0
 62
4
 10
1.90947052E+02
 20
9.47751341E+01
 11
1.93177642E+02
 21
9.51684472E+01
  0
LINE
  8
0
 62
4
 10
1.89944119E+02
 20
9.54817111E+01
 11
1.93883350E+02
 21
9.61763038E+01
  0
LINE
  8
0
 62
4
 10
1.93883350E+02
 20
9.61763038E+01
 11
1.94378267E+02
 21
9.33694952E+01
  0
LINE
  8
0
  6
CENTER
 62
6
 10
1.91740087E+02
 20
9.68138152E+01
 11
1.92781976E+02
 21
9.09049687E+01
  0
LINE
  8
0
  6
CENTER
 62
6
 10
1.89306608E+02
 20
9.33384475E+01
 11
1.95215455E+02
 21
9.43803365E+01
  0
LINE
  8
0
 62
4
 10
1.91915178E+02
 20
1.06186613E+02
 11
1.92899985E+02
 21
1.06360261E+02
  0
ARC
  8
0
 62
4
 10
1.95090227E+02
 20
1.00450815E+02
 40
1.00000000E+00
 50
3.28723662E+02
 51
3.57172490E+02
  0
ARC
  8
0
 62
4
 10
1.94256716E+02
 20
1.05177893E+02
 40
1.00000000E+00
 50
2.28275100E+01
 51
9.99999999E+01
  0
ARC
  8
0
 62
4
 10
1.84293387E+02
 20
1.00984065E+02
 40
1.18100000E+01
 50
3.57172490E+02
 51
2.28275100E+01
  0
LINE
  8
0
 62
4
 10
1.92969445E+02
 20
1.05966338E+02
 11
1.94082277E+02
 21
1.06162561E+02
  0
LINE
  8
0
 62
4
 10
1.93446977E+02
 20
1.03258117E+02
 11
1.92899985E+02
 21
1.06360261E+02
  0
LINE
  8
0
 62
4
 10
1.94277676E+02
 20
9.49765508E+01
 11
1.92836396E+02
 21
1.03150455E+02
  0
LINE
  8
0
 62
4
 10
1.92488216E+02
 20
1.02936748E+02
 11
1.92862443E+02
 21
1.03002734E+02
  0
LINE
  8
0
 62
4
 10
1.94074363E+02
 20
9.50930153E+01
 11
1.94251629E+02
 21
9.51242720E+01
  0
LINE
  8
0
 62
4
 10
1.92836396E+02
 20
1.03150455E+02
 11
1.94569658E+02
 21
1.03456076E+02
  0
LINE
  8
0
 62
4
 10
1.94277676E+02
 20
9.49765508E+01
 11
1.96010938E+02
 21
9.52821716E+01
  0
ARC
  8
0
 62
4
 10
1.84397240E+02
 20
9.74562415E+01
 40
1.18100000E+01
 50
9.99999999E+00
 51
3.05326991E+01
  0
ARC
  8
0
 62
4
 10
1.84399927E+02
 20
9.74410000E+01
 40
1.18100000E+01
 50
3.49467301E+02
 51
9.99999999E+00
  0
LINE
  8
0
 62
4
 10
1.93686389E+02
 20
9.61415742E+01
 11
1.91793624E+02
 21
1.06875979E+02
  0
LINE
  8
0
 62
4
 10
1.97311441E+02
 20
9.50582857E+01
 11
1.99395219E+02
 21
1.06875979E+02
  0
LINE
  8
0
 62
4
 10
1.97311441E+02
 20
9.50582857E+01
 11
1.96937214E+02
 21
9.51242720E+01
  0
LINE
  8
0
 62
4
 10
1.96911167E+02
 20
9.49765508E+01
 11
1.97579712E+02
 21
9.87680607E+01
  0
LINE
  8
0
 62
4
 10
1.96969131E+02
 20
9.88757225E+01
 11
1.98288858E+02
 21
1.06360261E+02
  0
LINE
  8
0
 62
4
 10
1.99273665E+02
 20
1.06186613E+02
 11
1.98288858E+02
 21
1.06360261E+02
  0
LINE
  8
0
 62
4
 10
1.97953939E+02
 20
9.87020744E+01
 11
1.96969131E+02
 21
9.88757225E+01
  0
ARC
  8
0
 62
4
 10
1.98797575E+02
 20
9.31207862E+01
 40
5.00000000E-01
 50
2.98293252E+01
 51
1.50170675E+02
  0
CIRCLE
  8
0
 62
4
 10
1.99058048E+02
 20
9.45979978E+01
 40
5.00000000E-01
  0
CIRCLE
  8
0
 62
4
 10
1.99058048E+02
 20
9.45979978E+01
 40
3.00000000E-01
  0
ARC
  8
0
 62
4
 10
1.98797575E+02
 20
9.31207862E+01
 40
3.00000000E-01
 50
5.59992305E+01
 51
1.24000769E+02
  0
ARC
  8
0
 62
4
 10
1.98927811E+02
 20
9.38593920E+01
 40
1.50000000E+00
 50
3.40937591E+02
 51
1.99062409E+02
  0
LINE
  8
0
 62
4
 10
2.22246736E+02
 20
8.78970907E+01
 11
2.20635703E+02
 21
7.87604697E+01
  0
LINE
  8
0
 62
4
 10
2.09538739E+02
 20
1.05087402E+02
 11
2.16432393E+02
 21
1.03871865E+02
  0
LINE
  8
0
 62
4
 10
2.16432393E+02
 20
1.03871865E+02
 11
2.22246736E+02
 21
8.78970907E+01
  0
ARC
  8
0
 62
4
 10
2.19158491E+02
 20
7.90209419E+01
 40
1.50000000E+00
 50
3.43189498E+02
 51
3.50000000E+02
  0
LINE
  8
0
 62
4
 10
2.08062729E+02
 20
9.67165366E+01
 11
2.08555133E+02
 21
9.66297125E+01
  0
LINE
  8
0
 62
4
 10
2.08960713E+02
 20
9.60504845E+01
 11
2.08487982E+02
 21
9.33694952E+01
  0
ARC
  8
0
 62
4
 10
2.08468309E+02
 20
9.61373086E+01
 40
5.00000000E-01
 50
3.50000000E+02
 51
7.99999999E+01
  0
LINE
  8
0
  6
CENTER
 62
6
 10
2.15662400E+02
 20
8.36991035E+01
 11
2.23128404E+02
 21
8.23826456E+01
  0
LINE
  8
0
  6
CENTER
 62
6
 10
2.09687992E+02
 20
9.69376722E+01
 11
1.96837487E+02
 21
9.92035630E+01
  0
LINE
  8
0
  6
CENTER
 62
6
 10
2.19529628E+02
 20
9.87563194E+01
 11
1.97445256E+02
 21
1.02650390E+02
  0
LINE
  8
0
 62
4
 10
2.00769684E+02
 20
9.56670160E+01
 11
2.00445220E+02
 21
9.61303984E+01
  0
LINE
  8
0
 62
4
 10
2.00445220E+02
 20
9.61303984E+01
 11
1.97589278E+02
 21
9.66339781E+01
  0
LINE
  8
0
 62
4
 10
2.01262088E+02
 20
9.55801919E+01
 11
2.00872283E+02
 21
9.33694952E+01
  0
LINE
  8
0
 62
4
 10
2.01262088E+02
 20
9.55801919E+01
 11
2.00769684E+02
 21
9.56670160E+01
  0
LINE
  8
0
 62
4
 10
2.09538739E+02
 20
1.05087402E+02
 11
2.08062729E+02
 21
9.67165366E+01
  0
LINE
  8
0
 62
4
 10
1.99395219E+02
 20
1.06875979E+02
 11
2.09538739E+02
 21
1.05087402E+02
  0
LINE
  8
0
 62
4
 10
2.08456652E+02
 20
9.66470773E+01
 11
2.07878726E+02
 21
9.33694952E+01
  0
LINE
  8
0
 62
4
 10
2.01244723E+02
 20
9.54817111E+01
 11
1.97305492E+02
 21
9.61763038E+01
  0
LINE
  8
0
 62
4
 10
1.97305492E+02
 20
9.61763038E+01
 11
1.96810576E+02
 21
9.33694952E+01
  0
LINE
  8
0
  6
CENTER
 62
6
 10
1.99448756E+02
 20
9.68138152E+01
 11
1.98406867E+02
 21
9.09049687E+01
  0
LINE
  8
0
  6
CENTER
 62
6
 10
2.01882235E+02
 20
9.33384475E+01
 11
1.95973388E+02
 21
9.43803365E+01
  0
LINE
  8
0
 62
4
 10
2.24715353E+02
 20
8.41336768E+01
 11
2.21677592E+02
 21
8.46693162E+01
  0
LINE
  8
0
 62
4
 10
2.24020761E+02
 20
8.01944458E+01
 11
2.20982999E+02
 21
8.07300852E+01
  0
LINE
  8
0
 62
6
 10
2.24628529E+02
 20
8.36412730E+01
 11
2.21590768E+02
 21
8.41769123E+01
  0
LINE
  8
0
 62
6
 10
2.24107585E+02
 20
8.06868497E+01
 11
2.21069823E+02
 21
8.12224890E+01
  0
LINE
  8
0
 62
4
 10
2.24020761E+02
 20
8.01944458E+01
 11
2.24715354E+02
 21
8.41336768E+01
  0
ARC
  8
0
 62
4
 10
1.96932127E+02
 20
1.05177893E+02
 40
1.00000000E+00
 50
7.99999999E+01
 51
1.57172490E+02
  0
LINE
  8
0
 62
4
 10
1.98219398E+02
 20
1.05966338E+02
 11
1.97106565E+02
 21
1.06162561E+02
  0
ARC
  8
0
  6
DASHED
 62
4
 10
2.06895455E+02
 20
1.00984065E+02
 40
1.18100000E+01
 50
1.63117791E+02
 51
1.82827510E+02
  0
LINE
  8
0
 62
4
 10
1.97038591E+02
 20
9.92696456E+01
 11
1.96038489E+02
 21
9.94459906E+01
  0
ARC
  8
0
  6
DASHED
 62
4
 10
1.96098616E+02
 20
1.00450815E+02
 40
1.00000000E+00
 50
1.82827510E+02
 51
2.60000000E+02
  0
ARC
  8
0
  6
DASHED
 62
4
 10
2.06788915E+02
 20
9.74410000E+01
 40
1.18100000E+01
 50
1.70000000E+02
 51
1.90532699E+02
  0
ARC
  8
0
  6
DASHED
 62
4
 10
2.06791603E+02
 20
9.74562415E+01
 40
1.18100000E+01
 50
1.67900933E+02
 51
1.70000000E+02
  0
LINE
  8
0
 62
4
 10
1.96911167E+02
 20
9.49765508E+01
 11
1.95594421E+02
 21
9.52087285E+01
  0
ARC
  8
0
 62
4
 10
2.06895455E+02
 20
1.00984065E+02
 40
1.18100000E+01
 50
1.57172490E+02
 51
1.63117791E+02
  0
LINE
  8
0
  6
DASHED
 62
4
 10
1.96038489E+02
 20
9.94459906E+01
 11
1.95925758E+02
 21
9.94658681E+01
  0
LINE
  8
0
  6
DASHED
 62
4
 10
1.95594421E+02
 20
9.52087285E+01
 11
1.95177905E+02
 21
9.52821716E+01
  0
LINE
  8
0
  6
CENTER
 62
2
 10
1.99594452E+02
 20
9.51218603E+01
 11
1.99594452E+02
 21
8.39412573E+01
  0
LINE
  8
0
  6
CENTER
 62
2
 10
1.77094330E+02
 20
9.53761175E+01
 11
1.77094330E+02
 21
8.04549749E+01
  0
LINE
  8
0
 62
7
 10
1.70594391E+02
 20
9.03694952E+01
 11
1.70594391E+02
 21
4.63694494E+01
  0
LINE
  8
0
 62
7
 10
1.73594391E+02
 20
9.33694952E+01
 11
2.17594452E+02
 21
9.33694952E+01
  0
LINE
  8
0
 62
7
 10
1.71094391E+02
 20
9.03694342E+01
 11
1.71094391E+02
 21
4.63694494E+01
  0
LINE
  8
0
 62
7
 10
1.74594391E+02
 20
6.93694647E+01
 11
1.78712433E+02
 21
6.93694647E+01
  0
LINE
  8
0
 62
7
 10
1.81864582E+02
 20
8.06852736E+01
 11
1.82950059E+02
 21
7.95997974E+01
  0
LINE
  8
0
 62
7
 10
1.94594391E+02
 20
8.93694647E+01
 11
1.94594391E+02
 21
8.52514074E+01
  0
LINE
  8
0
 62
7
 10
1.83278742E+02
 20
8.20994549E+01
 11
1.84364208E+02
 21
8.10139894E+01
  0
LINE
  8
0
 62
7
 10
1.73594391E+02
 20
7.33694952E+01
 11
1.73594391E+02
 21
6.33694342E+01
  0
LINE
  8
0
  6
CENTER
 62
2
 10
2.22684296E+02
 20
8.68695410E+01
 11
2.08017426E+02
 21
8.68695410E+01
  0
LINE
  8
0
  6
CENTER
 62
2
 10
2.14094391E+02
 20
9.52721136E+01
 11
2.14094391E+02
 21
7.89851263E+01
  0
LINE
  8
0
 62
7
 10
2.20594452E+02
 20
9.03694952E+01
 11
2.20594452E+02
 21
4.63694494E+01
  0
LINE
  8
0
 62
7
 10
2.20094391E+02
 20
9.03694952E+01
 11
2.20094391E+02
 21
4.63694799E+01
  0
LINE
  8
0
 62
7
 10
1.73594391E+02
 20
9.28694342E+01
 11
2.17594391E+02
 21
9.28694952E+01
  0
LINE
  8
0
  6
CENTER
 62
2
 10
2.14094513E+02
 20
4.12464636E+01
 11
2.14094513E+02
 21
5.78889654E+01
  0
LINE
  8
0
  6
CENTER
 62
2
 10
2.22539093E+02
 20
4.98694799E+01
 11
2.07727020E+02
 21
4.98694799E+01
  0
LINE
  8
0
 62
7
 10
1.73594452E+02
 20
4.38694494E+01
 11
2.17594452E+02
 21
4.38694799E+01
  0
LINE
  8
0
 62
7
 10
1.96594391E+02
 20
8.93694647E+01
 11
1.96594391E+02
 21
8.52514227E+01
  0
LINE
  8
0
 62
7
 10
2.16594391E+02
 20
6.93694799E+01
 11
2.12476349E+02
 21
6.93694799E+01
  0
LINE
  8
0
 62
7
 10
2.09324328E+02
 20
8.06851591E+01
 11
2.08238851E+02
 21
7.95996831E+01
  0
LINE
  8
0
 62
7
 10
2.07910158E+02
 20
8.20994162E+01
 11
2.06824681E+02
 21
8.10139401E+01
  0
LINE
  8
0
 62
7
 10
1.90594391E+02
 20
9.03694952E+01
 11
2.00594452E+02
 21
9.03694952E+01
  0
LINE
  8
0
 62
7
 10
2.17594391E+02
 20
7.33694952E+01
 11
2.17594391E+02
 21
6.33694342E+01
  0
LINE
  8
0
 62
7
 10
2.16594391E+02
 20
6.73694799E+01
 11
2.12476349E+02
 21
6.73694799E+01
  0
LINE
  8
0
 62
7
 10
2.09324453E+02
 20
5.60538756E+01
 11
2.08238977E+02
 21
5.71393520E+01
  0
LINE
  8
0
 62
7
 10
1.96594452E+02
 20
4.73694952E+01
 11
1.96594452E+02
 21
5.14875372E+01
  0
LINE
  8
0
 62
7
 10
2.07910239E+02
 20
5.46397054E+01
 11
2.06824774E+02
 21
5.57251710E+01
  0
LINE
  8
0
 62
7
 10
1.73594391E+02
 20
4.33694494E+01
 11
2.17594452E+02
 21
4.33694494E+01
  0
LINE
  8
0
 62
7
 10
1.94594452E+02
 20
4.73694952E+01
 11
1.94594452E+02
 21
5.14875372E+01
  0
LINE
  8
0
 62
7
 10
1.83278742E+02
 20
5.46394463E+01
 11
1.84364218E+02
 21
5.57249226E+01
  0
LINE
  8
0
 62
7
 10
1.74594391E+02
 20
6.73694494E+01
 11
1.78712433E+02
 21
6.73694494E+01
  0
LINE
  8
0
 62
7
 10
1.81864593E+02
 20
5.60537247E+01
 11
1.82950026E+02
 21
5.71391578E+01
  0
LINE
  8
0
 62
7
 10
1.90594391E+02
 20
4.63694342E+01
 11
2.00594452E+02
 21
4.63694342E+01
  0
LINE
  8
0
  6
CENTER
 62
2
 10
1.95594391E+02
 20
9.68644598E+01
 11
1.95594391E+02
 21
3.90682104E+01
  0
LINE
  8
0
  6
CENTER
 62
2
 10
1.77094452E+02
 20
4.14814108E+01
 11
1.77094452E+02
 21
5.74458044E+01
  0
LINE
  8
0
 62
7
 10
2.15594391E+02
 20
9.33694952E+01
 11
2.15594391E+02
 21
9.28694952E+01
  0
LINE
  8
0
 62
7
 10
1.75594391E+02
 20
9.33694952E+01
 11
1.75594391E+02
 21
9.28694342E+01
  0
LINE
  8
0
 62
7
 10
2.15594391E+02
 20
4.38694799E+01
 11
2.15594391E+02
 21
4.33694494E+01
  0
LINE
  8
0
 62
7
 10
1.75594391E+02
 20
4.38694494E+01
 11
1.75594391E+02
 21
4.33694494E+01
  0
LINE
  8
0
 62
7
 10
2.06307587E+02
 20
5.03694799E+01
 11
2.04344452E+02
 21
5.03694799E+01
  0
LINE
  8
0
 62
7
 10
1.84882477E+02
 20
5.03693884E+01
 11
1.86844391E+02
 21
5.03693884E+01
  0
LINE
  8
0
 62
7
 10
1.77594452E+02
 20
5.76568640E+01
 11
1.77594452E+02
 21
5.96194342E+01
  0
LINE
  8
0
 62
7
 10
1.77594330E+02
 20
7.90807684E+01
 11
1.77594330E+02
 21
7.71194952E+01
  0
LINE
  8
0
 62
7
 10
2.06306122E+02
 20
8.63695562E+01
 11
2.04344452E+02
 21
8.63695562E+01
  0
LINE
  8
0
 62
7
 10
2.13594391E+02
 20
7.90816229E+01
 11
2.13594391E+02
 21
7.71194952E+01
  0
LINE
  8
0
 62
7
 10
2.13594391E+02
 20
5.76573065E+01
 11
2.13594391E+02
 21
5.96194342E+01
  0
LINE
  8
0
  6
CENTER
 62
2
 10
1.83475800E+02
 20
4.98694799E+01
 11
1.68954132E+02
 21
4.98694799E+01
  0
LINE
  8
0
  6
CENTER
 62
2
 10
1.83475800E+02
 20
8.68695410E+01
 11
1.68954132E+02
 21
8.68695410E+01
  0
LINE
  8
0
  6
CENTER
 62
2
 10
1.66622070E+02
 20
6.83694647E+01
 11
2.25298187E+02
 21
6.83694647E+01
  0
LINE
  8
0
 62
7
 10
1.84981354E+02
 20
8.63986547E+01
 11
1.87011444E+02
 21
8.63986547E+01
  0
LINE
  8
0
 62
7
 10
1.77094328E+02
 20
9.03336419E+01
 11
1.74094329E+02
 21
8.86015919E+01
  0
LINE
  8
0
 62
7
 10
1.74094330E+02
 20
8.86015966E+01
 11
1.74094330E+02
 21
8.51374853E+01
  0
LINE
  8
0
 62
7
 10
1.77094332E+02
 20
8.34054399E+01
 11
1.74094330E+02
 21
8.51374917E+01
  0
LINE
  8
0
 62
7
 10
1.80094328E+02
 20
8.51374895E+01
 11
1.77094329E+02
 21
8.34054396E+01
  0
LINE
  8
0
 62
7
 10
1.80094330E+02
 20
8.86015966E+01
 11
1.80094330E+02
 21
8.51374853E+01
  0
LINE
  8
0
 62
7
 10
1.77094330E+02
 20
9.03336440E+01
 11
1.80094332E+02
 21
8.86015922E+01
  0
LINE
  8
0
 62
7
 10
2.14094387E+02
 20
9.03336416E+01
 11
2.11094386E+02
 21
8.86015897E+01
  0
LINE
  8
0
 62
7
 10
2.11094391E+02
 20
8.86015966E+01
 11
2.11094391E+02
 21
8.51374853E+01
  0
LINE
  8
0
 62
7
 10
2.14094392E+02
 20
8.34054402E+01
 11
2.11094390E+02
 21
8.51374920E+01
  0
LINE
  8
0
 62
7
 10
2.17094387E+02
 20
8.51374892E+01
 11
2.14094386E+02
 21
8.34054374E+01
  0
LINE
  8
0
 62
7
 10
2.17094391E+02
 20
8.86015966E+01
 11
2.17094391E+02
 21
8.51374853E+01
  0
LINE
  8
0
 62
7
 10
2.14094390E+02
 20
9.03336443E+01
 11
2.17094392E+02
 21
8.86015925E+01
  0
LINE
  8
0
 62
7
 10
2.14094510E+02
 20
5.33335826E+01
 11
2.11094512E+02
 21
5.16015326E+01
  0
LINE
  8
0
 62
7
 10
2.11094513E+02
 20
5.16015280E+01
 11
2.11094513E+02
 21
4.81374319E+01
  0
LINE
  8
0
 62
7
 10
2.14094515E+02
 20
4.64053801E+01
 11
2.11094517E+02
 21
4.81374300E+01
  0
LINE
  8
0
 62
7
 10
2.17094510E+02
 20
4.81374303E+01
 11
2.14094512E+02
 21
4.64053803E+01
  0
LINE
  8
0
 62
7
 10
2.17094513E+02
 20
5.16015280E+01
 11
2.17094513E+02
 21
4.81374319E+01
  0
LINE
  8
0
 62
7
 10
2.14094517E+02
 20
5.33335824E+01
 11
2.17094515E+02
 21
5.16015324E+01
  0
LINE
  8
0
 62
7
 10
1.77094451E+02
 20
5.33335829E+01
 11
1.74094450E+02
 21
5.16015320E+01
  0
LINE
  8
0
 62
7
 10
1.74094452E+02
 20
5.16015280E+01
 11
1.74094452E+02
 21
4.81374319E+01
  0
LINE
  8
0
 62
7
 10
1.77094456E+02
 20
4.64053798E+01
 11
1.74094454E+02
 21
4.81374316E+01
  0
LINE
  8
0
 62
7
 10
1.80094451E+02
 20
4.81374305E+01
 11
1.77094450E+02
 21
4.64053797E+01
  0
LINE
  8
0
 62
7
 10
1.80094452E+02
 20
5.16015280E+01
 11
1.80094452E+02
 21
4.81374319E+01
  0
LINE
  8
0
 62
7
 10
1.77094454E+02
 20
5.33335840E+01
 11
1.80094456E+02
 21
5.16015321E+01
  0
CIRCLE
  8
0
 62
2
 10
2.14094391E+02
 20
8.68695410E+01
 40
3.00000000E+00
  0
ARC
  8
0
 62
7
 10
1.73594391E+02
 20
9.03694342E+01
 40
2.50000000E+00
 50
9.00000162E+01
 51
1.80000005E+02
  0
CIRCLE
  8
0
 62
7
 10
1.77094330E+02
 20
8.68694647E+01
 40
5.00000000E+00
  0
CIRCLE
  8
0
 62
7
 10
1.77094330E+02
 20
8.68694647E+01
 40
4.50000000E+00
  0
ARC
  8
0
 62
7
 10
1.83985809E+02
 20
8.28064459E+01
 40
1.00000000E+00
 50
1.49477556E+02
 51
2.24999381E+02
  0
ARC
  8
0
 62
7
 10
1.74594391E+02
 20
7.03694647E+01
 40
1.00000000E+00
 50
1.79999995E+02
 51
2.70000038E+02
  0
ARC
  8
0
 62
7
 10
1.78712433E+02
 20
7.03694647E+01
 40
1.00000000E+00
 50
2.70000038E+02
 51
3.53243910E+02
  0
ARC
  8
0
 62
7
 10
1.81157379E+02
 20
7.99780310E+01
 40
1.00000000E+00
 50
4.50006569E+01
 51
1.20522253E+02
  0
ARC
  8
0
 62
7
 10
1.93594391E+02
 20
8.93694647E+01
 40
1.00000000E+00
 50
3.59721781E-05
 51
9.00000162E+01
  0
ARC
  8
0
 62
7
 10
1.93594391E+02
 20
8.52514074E+01
 40
1.00000000E+00
 50
2.76756256E+02
 51
3.59721781E-05
  0
ARC
  8
0
 62
7
 10
1.82242828E+02
 20
7.88925512E+01
 40
1.00000000E+00
 50
3.21756388E+02
 51
4.50000423E+01
  0
ARC
  8
0
 62
7
 10
1.85071259E+02
 20
8.17209814E+01
 40
1.00000000E+00
 50
2.25000614E+02
 51
3.08244204E+02
  0
ARC
  8
0
 62
7
 10
1.73594391E+02
 20
9.03694952E+01
 40
3.00000000E+00
 50
9.00000162E+01
 51
1.80000005E+02
  0
ARC
  8
0
 62
7
 10
1.74594391E+02
 20
7.33694952E+01
 40
1.00000000E+00
 50
9.00000162E+01
 51
1.80000005E+02
  0
ARC
  8
0
 62
7
 10
1.74594391E+02
 20
7.73694952E+01
 40
3.00000000E+00
 50
2.70000052E+02
 51
2.02641660E+00
  0
ARC
  8
0
 62
7
 10
1.78591888E+02
 20
7.90109289E+01
 40
1.00000000E+00
 50
1.00789092E+02
 51
1.82026126E+02
  0
ARC
  8
0
 62
7
 10
1.77094391E+02
 20
8.68695257E+01
 40
7.00000000E+00
 50
2.80788643E+02
 51
3.49211298E+02
  0
ARC
  8
0
 62
7
 10
1.84952972E+02
 20
8.53720281E+01
 40
1.00000000E+00
 50
8.79748173E+01
 51
1.69211544E+02
  0
ARC
  8
0
 62
7
 10
1.86594391E+02
 20
8.93695257E+01
 40
3.00000000E+00
 50
2.67974191E+02
 51
3.59999431E+02
  0
ARC
  8
0
 62
7
 10
1.90594391E+02
 20
8.93694952E+01
 40
1.00000000E+00
 50
9.00000162E+01
 51
1.80000005E+02
  0
ARC
  8
0
 62
7
 10
2.17594452E+02
 20
4.63694799E+01
 40
2.50000000E+00
 50
2.70000052E+02
 51
3.59721781E-05
  0
ARC
  8
0
 62
7
 10
2.17594391E+02
 20
9.03694952E+01
 40
2.50000000E+00
 50
3.59721781E-05
 51
9.00000162E+01
  0
ARC
  8
0
 62
7
 10
2.17594452E+02
 20
9.03694952E+01
 40
3.00000000E+00
 50
3.59721781E-05
 51
9.00000162E+01
  0
ARC
  8
0
 62
7
 10
2.17594452E+02
 20
4.63694494E+01
 40
3.00000000E+00
 50
2.70000052E+02
 51
3.59721781E-05
  0
CIRCLE
  8
0
 62
7
 10
2.14094391E+02
 20
8.68695257E+01
 40
4.50000000E+00
  0
CIRCLE
  8
0
 62
7
 10
2.14094391E+02
 20
8.68695257E+01
 40
5.00000000E+00
  0
CIRCLE
  8
0
 62
7
 10
2.14094452E+02
 20
4.98694647E+01
 40
4.50000000E+00
  0
CIRCLE
  8
0
 62
7
 10
2.14094452E+02
 20
4.98694647E+01
 40
5.00000000E+00
  0
ARC
  8
0
 62
7
 10
2.16594391E+02
 20
7.03694647E+01
 40
1.00000000E+00
 50
2.70000052E+02
 51
3.59721781E-05
  0
ARC
  8
0
 62
7
 10
1.97594391E+02
 20
8.93694647E+01
 40
1.00000000E+00
 50
9.00000025E+01
 51
1.80000046E+02
  0
ARC
  8
0
 62
7
 10
2.07202972E+02
 20
8.28065069E+01
 40
1.00000000E+00
 50
3.15000662E+02
 51
3.05222541E+01
  0
ARC
  8
0
 62
7
 10
2.14094391E+02
 20
8.68695257E+01
 40
7.00000000E+00
 50
1.90788716E+02
 51
2.59211379E+02
  0
ARC
  8
0
 62
7
 10
2.10031403E+02
 20
7.99780767E+01
 40
1.00000000E+00
 50
5.94775673E+01
 51
1.34999386E+02
  0
ARC
  8
0
 62
7
 10
1.97594391E+02
 20
8.52514227E+01
 40
1.00000000E+00
 50
1.80000036E+02
 51
2.63243916E+02
  0
ARC
  8
0
 62
7
 10
2.06117523E+02
 20
8.17210577E+01
 40
1.00000000E+00
 50
2.31756382E+02
 51
3.15000026E+02
  0
ARC
  8
0
 62
7
 10
2.08945953E+02
 20
7.88926275E+01
 40
1.00000000E+00
 50
1.35000629E+02
 51
2.18244215E+02
  0
ARC
  8
0
 62
7
 10
2.12476349E+02
 20
7.03694647E+01
 40
1.00000000E+00
 50
1.86756227E+02
 51
2.70000038E+02
  0
ARC
  8
0
 62
7
 10
2.07203033E+02
 20
5.39324835E+01
 40
1.00000000E+00
 50
3.29477575E+02
 51
4.49993865E+01
  0
ARC
  8
0
 62
7
 10
2.16594391E+02
 20
6.63694647E+01
 40
1.00000000E+00
 50
8.65142224E-06
 51
9.00000437E+01
  0
ARC
  8
0
 62
7
 10
2.12476349E+02
 20
6.63694647E+01
 40
1.00000000E+00
 50
9.00000437E+01
 51
1.73243923E+02
  0
ARC
  8
0
 62
7
 10
2.10031464E+02
 20
5.67608831E+01
 40
1.00000000E+00
 50
2.25000642E+02
 51
3.00522242E+02
  0
ARC
  8
0
 62
7
 10
1.97594391E+02
 20
4.73694647E+01
 40
1.00000000E+00
 50
1.80000022E+02
 51
2.70000011E+02
  0
ARC
  8
0
 62
7
 10
1.97594391E+02
 20
5.14875067E+01
 40
1.00000000E+00
 50
9.67562412E+01
 51
1.80000032E+02
  0
ARC
  8
0
 62
7
 10
2.08946014E+02
 20
5.78463629E+01
 40
1.00000000E+00
 50
1.41756382E+02
 51
2.25000037E+02
  0
ARC
  8
0
 62
7
 10
2.06117584E+02
 20
5.50179327E+01
 40
1.00000000E+00
 50
4.50006297E+01
 51
1.28244219E+02
  0
ARC
  8
0
 62
7
 10
2.16594391E+02
 20
7.73694952E+01
 40
3.00000000E+00
 50
1.79999995E+02
 51
2.69999984E+02
  0
ARC
  8
0
 62
7
 10
2.04594452E+02
 20
8.93695257E+01
 40
3.00000000E+00
 50
1.80000582E+02
 51
2.72025825E+02
  0
ARC
  8
0
 62
7
 10
2.16594391E+02
 20
7.33694952E+01
 40
1.00000000E+00
 50
3.59721781E-05
 51
9.00000162E+01
  0
ARC
  8
0
 62
7
 10
2.12596893E+02
 20
7.90109289E+01
 40
1.00000000E+00
 50
3.57973915E+02
 51
7.92109402E+01
  0
ARC
  8
0
 62
7
 10
2.00594452E+02
 20
8.93694952E+01
 40
1.00000000E+00
 50
3.59721781E-05
 51
9.00000162E+01
  0
ARC
  8
0
 62
7
 10
2.06235809E+02
 20
8.53720281E+01
 40
1.00000000E+00
 50
1.07884972E+01
 51
9.20252152E+01
  0
ARC
  8
0
 62
7
 10
2.12596893E+02
 20
5.77280004E+01
 40
1.00000000E+00
 50
2.80789074E+02
 51
2.02610241E+00
  0
ARC
  8
0
 62
7
 10
2.14094391E+02
 20
4.98694036E+01
 40
7.00000000E+00
 50
1.00788621E+02
 51
1.69211284E+02
  0
ARC
  8
0
 62
7
 10
2.06235809E+02
 20
5.13669012E+01
 40
1.00000000E+00
 50
2.67974785E+02
 51
3.49211503E+02
  0
ARC
  8
0
 62
7
 10
2.04594452E+02
 20
4.73694036E+01
 40
3.00000000E+00
 50
8.79741750E+01
 51
1.79999418E+02
  0
ARC
  8
0
 62
7
 10
2.00594452E+02
 20
4.73694342E+01
 40
1.00000000E+00
 50
2.69999984E+02
 51
3.59999964E+02
  0
ARC
  8
0
 62
7
 10
1.73594452E+02
 20
4.63694494E+01
 40
2.50000000E+00
 50
1.79999995E+02
 51
2.70000038E+02
  0
ARC
  8
0
 62
7
 10
1.73594391E+02
 20
4.63694494E+01
 40
3.00000000E+00
 50
1.79999995E+02
 51
2.70000038E+02
  0
CIRCLE
  8
0
 62
7
 10
1.77094391E+02
 20
4.98694036E+01
 40
4.50000000E+00
  0
CIRCLE
  8
0
 62
7
 10
1.77094391E+02
 20
4.98694036E+01
 40
5.00000000E+00
  0
ARC
  8
0
 62
7
 10
1.81157440E+02
 20
5.67608526E+01
 40
1.00000000E+00
 50
2.39477556E+02
 51
3.14999370E+02
  0
ARC
  8
0
 62
7
 10
1.93594391E+02
 20
4.73694647E+01
 40
1.00000000E+00
 50
2.69999998E+02
 51
4.96325564E-05
  0
ARC
  8
0
 62
7
 10
1.93594391E+02
 20
5.14875067E+01
 40
1.00000000E+00
 50
4.96325564E-05
 51
8.32439208E+01
  0
ARC
  8
0
 62
7
 10
1.83985809E+02
 20
5.39324224E+01
 40
1.00000000E+00
 50
1.35000656E+02
 51
2.10522249E+02
  0
ARC
  8
0
 62
7
 10
1.74594391E+02
 20
6.63694647E+01
 40
1.00000000E+00
 50
9.00000300E+01
 51
1.80000019E+02
  0
ARC
  8
0
 62
7
 10
1.78712433E+02
 20
6.63694647E+01
 40
1.00000000E+00
 50
6.75624040E+00
 51
9.00000300E+01
  0
ARC
  8
0
 62
7
 10
1.85071320E+02
 20
5.50178717E+01
 40
1.00000000E+00
 50
5.17563834E+01
 51
1.35000041E+02
  0
ARC
  8
0
 62
7
 10
1.82242889E+02
 20
5.78463018E+01
 40
1.00000000E+00
 50
3.15000634E+02
 51
3.82442202E+01
  0
ARC
  8
0
 62
7
 10
1.90594391E+02
 20
4.73694342E+01
 40
1.00000000E+00
 50
1.79999995E+02
 51
2.69999984E+02
  0
ARC
  8
0
 62
7
 10
1.86594391E+02
 20
4.73694036E+01
 40
3.00000000E+00
 50
5.68726953E-04
 51
9.20258094E+01
  0
ARC
  8
0
 62
7
 10
1.84952972E+02
 20
5.13669012E+01
 40
1.00000000E+00
 50
1.90788456E+02
 51
2.72025183E+02
  0
ARC
  8
0
 62
7
 10
1.77094391E+02
 20
4.98694036E+01
 40
7.00000000E+00
 50
1.07887021E+01
 51
7.92113567E+01
  0
ARC
  8
0
 62
7
 10
1.78591888E+02
 20
5.77280004E+01
 40
1.00000000E+00
 50
1.77973884E+02
 51
2.59210897E+02
  0
ARC
  8
0
 62
7
 10
1.74594391E+02
 20
5.93694342E+01
 40
3.00000000E+00
 50
3.57973601E+02
 51
8.99999618E+01
  0
ARC
  8
0
 62
7
 10
1.74594391E+02
 20
6.33694342E+01
 40
1.00000000E+00
 50
1.79999995E+02
 51
2.69999984E+02
  0
CIRCLE
  8
0
 62
7
 10
1.95594391E+02
 20
6.83694647E+01
 40
1.60000000E+01
  0
ARC
  8
0
 62
7
 10
2.16594391E+02
 20
5.93694342E+01
 40
3.00000000E+00
 50
9.00000162E+01
 51
1.82026372E+02
  0
ARC
  8
0
 62
7
 10
2.16594391E+02
 20
6.33694342E+01
 40
1.00000000E+00
 50
2.69999984E+02
 51
1.86693353E-05
  0
CIRCLE
  8
0
 62
2
 10
2.14094513E+02
 20
4.98694799E+01
 40
3.00000000E+00
  0
CIRCLE
  8
0
 62
2
 10
1.77094452E+02
 20
4.98694799E+01
 40
3.00000000E+00
  0
CIRCLE
  8
0
 62
2
 10
1.77094330E+02
 20
8.68695410E+01
 40
3.00000000E+00
  0
LINE
  8
0
  6
PHANTOM
 10
-9.25000000E+00
 20
2.27628397E+02
 11
-9.25000000E+00
 21
1.27763292E+02
  0
LINE
  8
0
 62
7
 10
-1.29750015E+02
 20
1.81369434E+02
 11
-1.23250000E+02
 21
1.81369434E+02
  0
LINE
  8
0
 62
2
 10
-1.29750015E+02
 20
1.82069431E+02
 11
-1.23250000E+02
 21
1.82069431E+02
  0
LINE
  8
0
 62
7
 10
-1.29750015E+02
 20
1.95369465E+02
 11
-1.23250000E+02
 21
1.95369465E+02
  0
LINE
  8
0
 62
2
 10
-1.29750015E+02
 20
1.94669452E+02
 11
-1.23250000E+02
 21
1.94669452E+02
  0
ARC
  8
0
 62
4
 10
-1.21864068E+02
 20
1.82869465E+02
 40
1.58859473E+01
 50
1.59743839E+02
 51
2.00256161E+02
  0
ARC
  8
0
 62
4
 10
-1.21864068E+02
 20
1.93869465E+02
 40
1.58859474E+01
 50
1.59743839E+02
 51
2.00256161E+02
  0
ARC
  8
0
 62
4
 10
-1.45635965E+02
 20
1.93869465E+02
 40
1.58859499E+01
 50
3.39743842E+02
 51
2.02561578E+01
  0
ARC
  8
0
 62
4
 10
-1.45635965E+02
 20
1.82869465E+02
 40
1.58859499E+01
 50
3.39743842E+02
 51
2.02561578E+01
  0
LINE
  8
0
 62
4
 10
-1.37750015E+02
 20
1.77369465E+02
 11
-1.29750015E+02
 21
1.77369465E+02
  0
LINE
  8
0
 62
4
 10
-1.37750015E+02
 20
1.99369465E+02
 11
-1.29750015E+02
 21
1.99369465E+02
  0
LINE
  8
0
 62
4
 10
-1.36767535E+02
 20
1.88369465E+02
 11
-1.30732496E+02
 21
1.88369465E+02
  0
LINE
  8
0
 62
4
 10
-1.37750015E+02
 20
1.77369465E+02
 11
-1.37750015E+02
 21
1.99369465E+02
  0
LINE
  8
0
 62
4
 10
-1.29750015E+02
 20
1.77369465E+02
 11
-1.29750015E+02
 21
1.99369465E+02
  0
LINE
  8
0
 62
6
 10
-3.01799494E+00
 20
1.88036105E+02
 11
-6.48209656E+00
 21
1.82036105E+02
  0
LINE
  8
0
 62
4
 10
5.24995422E+00
 20
1.86536105E+02
 11
-3.88402038E+00
 21
1.86536105E+02
  0
LINE
  8
0
  6
CENTER
 62
6
 10
4.02499542E+01
 20
1.85036105E+02
 11
-6.75004578E+00
 21
1.85036105E+02
  0
LINE
  8
0
 62
4
 10
5.24995422E+00
 20
1.83536105E+02
 11
-5.61607118E+00
 21
1.83536105E+02
  0
LINE
  8
0
 62
6
 10
-1.54820051E+01
 20
1.88702824E+02
 11
-1.20179034E+01
 21
1.94702824E+02
  0
LINE
  8
0
 62
4
 10
-2.37499542E+01
 20
1.90202824E+02
 11
-1.46159796E+01
 21
1.90202824E+02
  0
LINE
  8
0
  6
CENTER
 62
6
 10
-5.87499542E+01
 20
1.91702824E+02
 11
-1.17499542E+01
 21
1.91702824E+02
  0
LINE
  8
0
 62
4
 10
-2.37499542E+01
 20
1.93202824E+02
 11
-1.28839288E+01
 21
1.93202824E+02
  0
LINE
  8
0
 62
7
 10
2.02499542E+01
 20
1.67219471E+02
 11
4.17499542E+01
 21
1.67219471E+02
  0
LINE
  8
0
 62
7
 10
2.02499542E+01
 20
1.66369480E+02
 11
4.17499542E+01
 21
1.66369480E+02
  0
LINE
  8
0
 62
7
 10
2.02499542E+01
 20
1.72519459E+02
 11
4.17499542E+01
 21
1.72519459E+02
  0
LINE
  8
0
 62
7
 10
-2.37499542E+01
 20
2.04219471E+02
 11
4.17499542E+01
 21
2.04219471E+02
  0
LINE
  8
0
 62
7
 10
-2.37499542E+01
 20
2.09519459E+02
 11
4.17499542E+01
 21
2.09519459E+02
  0
LINE
  8
0
 62
7
 10
-2.37499542E+01
 20
2.10369449E+02
 11
4.17499542E+01
 21
2.10369449E+02
  0
LINE
  8
0
 62
6
 10
1.02499542E+01
 20
1.59366144E+02
 11
1.02499542E+01
 21
1.61717181E+02
  0
LINE
  8
0
 62
6
 10
7.24995420E+00
 20
1.59366144E+02
 11
7.24995420E+00
 21
1.61717181E+02
  0
LINE
  8
0
 62
4
 10
1.07499542E+01
 20
1.59595859E+02
 11
1.07499542E+01
 21
1.61717181E+02
  0
LINE
  8
0
 62
4
 10
6.74995420E+00
 20
1.59595859E+02
 11
6.74995420E+00
 21
1.61717181E+02
  0
LINE
  8
0
 62
4
 10
2.02499542E+01
 20
1.61717181E+02
 11
2.02499542E+01
 21
1.74425178E+02
  0
LINE
  8
0
 62
4
 10
5.24995422E+00
 20
1.61717181E+02
 11
5.24995422E+00
 21
1.87347068E+02
  0
LINE
  8
0
 62
4
 10
3.52499542E+01
 20
1.74425178E+02
 11
3.52499542E+01
 21
1.86374639E+02
  0
LINE
  8
0
  6
CENTER
 62
6
 10
8.74995419E+00
 20
1.56253886E+02
 11
8.74995419E+00
 21
1.66519465E+02
  0
LINE
  8
0
  6
CENTER
 62
6
 10
1.67499542E+01
 20
1.56253886E+02
 11
1.67499542E+01
 21
1.66519465E+02
  0
LINE
  8
0
  6
CENTER
 62
6
 10
2.02499542E+01
 20
1.83457883E+02
 11
2.02499542E+01
 21
1.88457883E+02
  0
LINE
  8
0
 62
4
 10
2.02499542E+01
 20
1.61717181E+02
 11
5.24995423E+00
 21
1.61717181E+02
  0
LINE
  8
0
 62
4
 10
2.02499542E+01
 20
1.67531523E+02
 11
5.24995423E+00
 21
1.67531523E+02
  0
LINE
  8
0
 62
4
 10
3.52499542E+01
 20
1.74425178E+02
 11
5.24995423E+00
 21
1.74425178E+02
  0
LINE
  8
0
 62
4
 10
3.52499542E+01
 20
1.84568698E+02
 11
5.24995423E+00
 21
1.84568698E+02
  0
LINE
  8
0
 62
4
 10
9.34995422E+00
 20
1.87347068E+02
 11
5.24995422E+00
 21
1.87347068E+02
  0
LINE
  8
0
 62
4
 10
9.34995422E+00
 20
1.87173420E+02
 11
5.24995422E+00
 21
1.87173420E+02
  0
LINE
  8
0
 62
4
 10
3.52499542E+01
 20
1.86374639E+02
 11
2.43999542E+01
 21
1.86374639E+02
  0
POLYLINE
  8
0
 62
4
 66
1
  0
VERTEX
  8
0
 62
4
 10
6.74995419E+00
 20
1.59595859E+02
  0
VERTEX
  8
0
 62
4
 10
6.75800560E+00
 20
1.59564728E+02
  0
VERTEX
  8
0
 62
4
 10
6.78209501E+00
 20
1.59533847E+02
  0
VERTEX
  8
0
 62
4
 10
6.82202847E+00
 20
1.59503465E+02
  0
VERTEX
  8
0
 62
4
 10
6.87748445E+00
 20
1.59473828E+02
  0
VERTEX
  8
0
 62
4
 10
6.94801645E+00
 20
1.59445173E+02
  0
VERTEX
  8
0
 62
4
 10
7.03305660E+00
 20
1.59417731E+02
  0
VERTEX
  8
0
 62
4
 10
7.13192020E+00
 20
1.59391723E+02
  0
VERTEX
  8
0
 62
4
 10
7.24381125E+00
 20
1.59367359E+02
  0
VERTEX
  8
0
 62
4
 10
7.36782889E+00
 20
1.59344835E+02
  0
VERTEX
  8
0
 62
4
 10
7.50297458E+00
 20
1.59324332E+02
  0
VERTEX
  8
0
 62
4
 10
7.64816022E+00
 20
1.59306015E+02
  0
VERTEX
  8
0
 62
4
 10
7.80221686E+00
 20
1.59290031E+02
  0
VERTEX
  8
0
 62
4
 10
7.96390412E+00
 20
1.59276510E+02
  0
VERTEX
  8
0
 62
4
 10
8.13192019E+00
 20
1.59265561E+02
  0
VERTEX
  8
0
 62
4
 10
8.30491231E+00
 20
1.59257270E+02
  0
VERTEX
  8
0
 62
4
 10
8.48148765E+00
 20
1.59251706E+02
  0
VERTEX
  8
0
 62
4
 10
8.66022452E+00
 20
1.59248912E+02
  0
VERTEX
  8
0
 62
4
 10
8.83968384E+00
 20
1.59248912E+02
  0
VERTEX
  8
0
 62
4
 10
9.01842071E+00
 20
1.59251706E+02
  0
VERTEX
  8
0
 62
4
 10
9.19499605E+00
 20
1.59257270E+02
  0
VERTEX
  8
0
 62
4
 10
9.36798817E+00
 20
1.59265561E+02
  0
VERTEX
  8
0
 62
4
 10
9.53600424E+00
 20
1.59276510E+02
  0
VERTEX
  8
0
 62
4
 10
9.69769150E+00
 20
1.59290031E+02
  0
VERTEX
  8
0
 62
4
 10
9.85174814E+00
 20
1.59306015E+02
  0
VERTEX
  8
0
 62
4
 10
9.99693378E+00
 20
1.59324332E+02
  0
VERTEX
  8
0
 62
4
 10
1.01320795E+01
 20
1.59344835E+02
  0
VERTEX
  8
0
 62
4
 10
1.02560971E+01
 20
1.59367359E+02
  0
VERTEX
  8
0
 62
4
 10
1.03679882E+01
 20
1.59391723E+02
  0
VERTEX
  8
0
 62
4
 10
1.04668518E+01
 20
1.59417731E+02
  0
VERTEX
  8
0
 62
4
 10
1.05518919E+01
 20
1.59445173E+02
  0
VERTEX
  8
0
 62
4
 10
1.06224239E+01
 20
1.59473828E+02
  0
VERTEX
  8
0
 62
4
 10
1.06778799E+01
 20
1.59503465E+02
  0
VERTEX
  8
0
 62
4
 10
1.07178134E+01
 20
1.59533847E+02
  0
VERTEX
  8
0
 62
4
 10
1.07419028E+01
 20
1.59564728E+02
  0
VERTEX
  8
0
 62
4
 10
1.07499542E+01
 20
1.59595859E+02
  0
SEQEND
  8
0
  0
LINE
  8
0
 62
6
 10
1.82499542E+01
 20
1.59366144E+02
 11
1.82499542E+01
 21
1.61717181E+02
  0
LINE
  8
0
 62
6
 10
1.52499542E+01
 20
1.59366144E+02
 11
1.52499542E+01
 21
1.61717181E+02
  0
LINE
  8
0
 62
4
 10
1.87499542E+01
 20
1.59595859E+02
 11
1.87499542E+01
 21
1.61717181E+02
  0
LINE
  8
0
 62
4
 10
1.47499542E+01
 20
1.59595859E+02
 11
1.47499542E+01
 21
1.61717181E+02
  0
POLYLINE
  8
0
 62
4
 66
1
  0
VERTEX
  8
0
 62
4
 10
1.47499542E+01
 20
1.59595859E+02
  0
VERTEX
  8
0
 62
4
 10
1.47580056E+01
 20
1.59564728E+02
  0
VERTEX
  8
0
 62
4
 10
1.47820950E+01
 20
1.59533847E+02
  0
VERTEX
  8
0
 62
4
 10
1.48220285E+01
 20
1.59503465E+02
  0
VERTEX
  8
0
 62
4
 10
1.48774845E+01
 20
1.59473828E+02
  0
VERTEX
  8
0
 62
4
 10
1.49480165E+01
 20
1.59445173E+02
  0
VERTEX
  8
0
 62
4
 10
1.50330566E+01
 20
1.59417731E+02
  0
VERTEX
  8
0
 62
4
 10
1.51319202E+01
 20
1.59391723E+02
  0
VERTEX
  8
0
 62
4
 10
1.52438113E+01
 20
1.59367359E+02
  0
VERTEX
  8
0
 62
4
 10
1.53678289E+01
 20
1.59344835E+02
  0
VERTEX
  8
0
 62
4
 10
1.55029746E+01
 20
1.59324332E+02
  0
VERTEX
  8
0
 62
4
 10
1.56481602E+01
 20
1.59306015E+02
  0
VERTEX
  8
0
 62
4
 10
1.58022169E+01
 20
1.59290031E+02
  0
VERTEX
  8
0
 62
4
 10
1.59639041E+01
 20
1.59276510E+02
  0
VERTEX
  8
0
 62
4
 10
1.61319202E+01
 20
1.59265561E+02
  0
VERTEX
  8
0
 62
4
 10
1.63049123E+01
 20
1.59257270E+02
  0
VERTEX
  8
0
 62
4
 10
1.64814877E+01
 20
1.59251706E+02
  0
VERTEX
  8
0
 62
4
 10
1.66602245E+01
 20
1.59248912E+02
  0
VERTEX
  8
0
 62
4
 10
1.68396838E+01
 20
1.59248912E+02
  0
VERTEX
  8
0
 62
4
 10
1.70184207E+01
 20
1.59251706E+02
  0
VERTEX
  8
0
 62
4
 10
1.71949961E+01
 20
1.59257270E+02
  0
VERTEX
  8
0
 62
4
 10
1.73679882E+01
 20
1.59265561E+02
  0
VERTEX
  8
0
 62
4
 10
1.75360043E+01
 20
1.59276510E+02
  0
VERTEX
  8
0
 62
4
 10
1.76976915E+01
 20
1.59290031E+02
  0
VERTEX
  8
0
 62
4
 10
1.78517482E+01
 20
1.59306015E+02
  0
VERTEX
  8
0
 62
4
 10
1.79969338E+01
 20
1.59324332E+02
  0
VERTEX
  8
0
 62
4
 10
1.81320795E+01
 20
1.59344835E+02
  0
VERTEX
  8
0
 62
4
 10
1.82560971E+01
 20
1.59367359E+02
  0
VERTEX
  8
0
 62
4
 10
1.83679882E+01
 20
1.59391723E+02
  0
VERTEX
  8
0
 62
4
 10
1.84668518E+01
 20
1.59417731E+02
  0
VERTEX
  8
0
 62
4
 10
1.85518919E+01
 20
1.59445173E+02
  0
VERTEX
  8
0
 62
4
 10
1.86224239E+01
 20
1.59473828E+02
  0
VERTEX
  8
0
 62
4
 10
1.86778799E+01
 20
1.59503465E+02
  0
VERTEX
  8
0
 62
4
 10
1.87178134E+01
 20
1.59533847E+02
  0
VERTEX
  8
0
 62
4
 10
1.87419028E+01
 20
1.59564728E+02
  0
VERTEX
  8
0
 62
4
 10
1.87499542E+01
 20
1.59595859E+02
  0
SEQEND
  8
0
  0
LINE
  8
0
 62
4
 10
3.52499542E+01
 20
1.82719193E+02
 11
3.67499542E+01
 21
1.83722126E+02
  0
LINE
  8
0
 62
4
 10
3.67499542E+01
 20
1.83722126E+02
 11
3.67499542E+01
 21
1.86346029E+02
  0
LINE
  8
0
 62
4
 10
3.67499542E+01
 20
1.85952715E+02
 11
3.52499542E+01
 21
1.86658424E+02
  0
LINE
  8
0
 62
4
 10
3.67499542E+01
 20
1.86346029E+02
 11
3.52499542E+01
 21
1.87353017E+02
  0
LINE
  8
0
 62
4
 10
3.52499542E+01
 20
1.87353017E+02
 11
2.43999542E+01
 21
1.87353017E+02
  0
LINE
  8
0
 62
4
 10
3.52499542E+01
 20
1.86658424E+02
 11
2.43999542E+01
 21
1.86658424E+02
  0
LINE
  8
0
 62
4
 10
3.52499542E+01
 20
1.86374639E+02
 11
3.52499542E+01
 21
1.87347068E+02
  0
POLYLINE
  8
0
 62
4
 66
1
  0
VERTEX
  8
0
 62
4
 10
1.65499542E+01
 20
1.86005739E+02
  0
VERTEX
  8
0
 62
4
 10
1.67317692E+01
 20
1.85949892E+02
  0
VERTEX
  8
0
 62
4
 10
1.69414664E+01
 20
1.85897073E+02
  0
VERTEX
  8
0
 62
4
 10
1.71773841E+01
 20
1.85847703E+02
  0
VERTEX
  8
0
 62
4
 10
1.74376524E+01
 20
1.85802171E+02
  0
VERTEX
  8
0
 62
4
 10
1.77202087E+01
 20
1.85760840E+02
  0
VERTEX
  8
0
 62
4
 10
1.80228138E+01
 20
1.85724035E+02
  0
VERTEX
  8
0
 62
4
 10
1.83430693E+01
 20
1.85692050E+02
  0
VERTEX
  8
0
 62
4
 10
1.86784373E+01
 20
1.85665137E+02
  0
VERTEX
  8
0
 62
4
 10
1.90262598E+01
 20
1.85643511E+02
  0
VERTEX
  8
0
 62
4
 10
1.93837804E+01
 20
1.85627341E+02
  0
VERTEX
  8
0
 62
4
 10
1.97481655E+01
 20
1.85616757E+02
  0
VERTEX
  8
0
 62
4
 10
2.01165274E+01
 20
1.85611843E+02
  0
VERTEX
  8
0
 62
4
 10
2.04859467E+01
 20
1.85612636E+02
  0
VERTEX
  8
0
 62
4
 10
2.08534958E+01
 20
1.85619132E+02
  0
VERTEX
  8
0
 62
4
 10
2.12162616E+01
 20
1.85631278E+02
  0
VERTEX
  8
0
 62
4
 10
2.15713693E+01
 20
1.85648978E+02
  0
VERTEX
  8
0
 62
4
 10
2.19160046E+01
 20
1.85672092E+02
  0
VERTEX
  8
0
 62
4
 10
2.22474360E+01
 20
1.85700437E+02
  0
VERTEX
  8
0
 62
4
 10
2.25630371E+01
 20
1.85733788E+02
  0
VERTEX
  8
0
 62
4
 10
2.28603065E+01
 20
1.85771881E+02
  0
VERTEX
  8
0
 62
4
 10
2.31368885E+01
 20
1.85814414E+02
  0
VERTEX
  8
0
 62
4
 10
2.33905909E+01
 20
1.85861049E+02
  0
VERTEX
  8
0
 62
4
 10
2.36194032E+01
 20
1.85911418E+02
  0
VERTEX
  8
0
 62
4
 10
2.38215120E+01
 20
1.85965121E+02
  0
VERTEX
  8
0
 62
4
 10
2.39953155E+01
 20
1.86021733E+02
  0
VERTEX
  8
0
 62
4
 10
2.41394363E+01
 20
1.86080804E+02
  0
VERTEX
  8
0
 62
4
 10
2.42527323E+01
 20
1.86141867E+02
  0
VERTEX
  8
0
 62
4
 10
2.43343055E+01
 20
1.86204437E+02
  0
VERTEX
  8
0
 62
4
 10
2.43835094E+01
 20
1.86268020E+02
  0
VERTEX
  8
0
 62
4
 10
2.43999542E+01
 20
1.86332110E+02
  0
SEQEND
  8
0
  0
ARC
  8
0
 62
4
 10
2.02422159E+01
 20
1.77175004E+02
 40
1.18100000E+01
 50
8.99624577E+01
 51
1.09675998E+02
  0
ARC
  8
0
 62
4
 10
2.02576925E+01
 20
1.77175004E+02
 40
1.18100000E+01
 50
7.03240015E+01
 51
9.00375421E+01
  0
LINE
  8
0
 62
4
 10
2.43999542E+01
 20
1.88060035E+02
 11
2.43999542E+01
 21
1.86332110E+02
  0
LINE
  8
0
 62
4
 10
1.60999542E+01
 20
1.88060035E+02
 11
1.60999542E+01
 21
1.87920926E+02
  0
LINE
  8
0
 62
4
 10
2.42499542E+01
 20
1.85957883E+02
 11
2.42499542E+01
 21
1.86140113E+02
  0
POLYLINE
  8
0
 62
4
 66
1
  0
VERTEX
  8
0
 62
4
 10
1.65499542E+01
 20
1.85693961E+02
  0
VERTEX
  8
0
 62
4
 10
1.66992622E+01
 20
1.85638041E+02
  0
VERTEX
  8
0
 62
4
 10
1.68765309E+01
 20
1.85584640E+02
  0
VERTEX
  8
0
 62
4
 10
1.70803643E+01
 20
1.85534178E+02
  0
VERTEX
  8
0
 62
4
 10
1.73091574E+01
 20
1.85487053E+02
  0
VERTEX
  8
0
 62
4
 10
1.75611084E+01
 20
1.85443635E+02
  0
VERTEX
  8
0
 62
4
 10
1.78342334E+01
 20
1.85404267E+02
  0
VERTEX
  8
0
 62
4
 10
1.81263815E+01
 20
1.85369258E+02
  0
VERTEX
  8
0
 62
4
 10
1.84352521E+01
 20
1.85338885E+02
  0
VERTEX
  8
0
 62
4
 10
1.87584130E+01
 20
1.85313386E+02
  0
VERTEX
  8
0
 62
4
 10
1.90933194E+01
 20
1.85292962E+02
  0
VERTEX
  8
0
 62
4
 10
1.94373340E+01
 20
1.85277775E+02
  0
VERTEX
  8
0
 62
4
 10
1.97877477E+01
 20
1.85267943E+02
  0
VERTEX
  8
0
 62
4
 10
2.01418011E+01
 20
1.85263544E+02
  0
VERTEX
  8
0
 62
4
 10
2.04967063E+01
 20
1.85264613E+02
  0
VERTEX
  8
0
 62
4
 10
2.08496683E+01
 20
1.85271141E+02
  0
VERTEX
  8
0
 62
4
 10
2.11979078E+01
 20
1.85283077E+02
  0
VERTEX
  8
0
 62
4
 10
2.15386823E+01
 20
1.85300328E+02
  0
VERTEX
  8
0
 62
4
 10
2.18693086E+01
 20
1.85322756E+02
  0
VERTEX
  8
0
 62
4
 10
2.21871828E+01
 20
1.85350185E+02
  0
VERTEX
  8
0
 62
4
 10
2.24898019E+01
 20
1.85382400E+02
  0
VERTEX
  8
0
 62
4
 10
2.27747828E+01
 20
1.85419147E+02
  0
VERTEX
  8
0
 62
4
 10
2.30398814E+01
 20
1.85460136E+02
  0
VERTEX
  8
0
 62
4
 10
2.32830101E+01
 20
1.85505045E+02
  0
VERTEX
  8
0
 62
4
 10
2.35022544E+01
 20
1.85553520E+02
  0
VERTEX
  8
0
 62
4
 10
2.36958876E+01
 20
1.85605179E+02
  0
VERTEX
  8
0
 62
4
 10
2.38623851E+01
 20
1.85659615E+02
  0
VERTEX
  8
0
 62
4
 10
2.40004358E+01
 20
1.85716400E+02
  0
VERTEX
  8
0
 62
4
 10
2.41089524E+01
 20
1.85775087E+02
  0
VERTEX
  8
0
 62
4
 10
2.41870805E+01
 20
1.85835214E+02
  0
VERTEX
  8
0
 62
4
 10
2.42342048E+01
 20
1.85896306E+02
  0
VERTEX
  8
0
 62
4
 10
2.42499542E+01
 20
1.85957883E+02
  0
SEQEND
  8
0
  0
ARC
  8
0
 62
4
 10
2.23685598E+01
 20
1.76473794E+02
 40
1.25124521E+01
 50
9.49416351E+01
 51
1.08095416E+02
  0
ARC
  8
0
 62
4
 10
1.81313484E+01
 20
1.76473791E+02
 40
1.25124547E+01
 50
7.19045858E+01
 51
8.50583647E+01
  0
POLYLINE
  8
0
 62
4
 66
1
  0
VERTEX
  8
0
 62
4
 10
1.60999542E+01
 20
1.88065372E+02
  0
VERTEX
  8
0
 62
4
 10
1.61166609E+01
 20
1.88000774E+02
  0
VERTEX
  8
0
 62
4
 10
1.61666464E+01
 20
1.87936697E+02
  0
VERTEX
  8
0
 62
4
 10
1.62495083E+01
 20
1.87873655E+02
  0
VERTEX
  8
0
 62
4
 10
1.63645795E+01
 20
1.87812157E+02
  0
VERTEX
  8
0
 62
4
 10
1.65109334E+01
 20
1.87752698E+02
  0
VERTEX
  8
0
 62
4
 10
1.66873917E+01
 20
1.87695756E+02
  0
VERTEX
  8
0
 62
4
 10
1.68925337E+01
 20
1.87641790E+02
  0
VERTEX
  8
0
 62
4
 10
1.71247076E+01
 20
1.87591235E+02
  0
VERTEX
  8
0
 62
4
 10
1.73820442E+01
 20
1.87544497E+02
  0
VERTEX
  8
0
 62
4
 10
1.76624715E+01
 20
1.87501953E+02
  0
VERTEX
  8
0
 62
4
 10
1.79637317E+01
 20
1.87463945E+02
  0
VERTEX
  8
0
 62
4
 10
1.82833992E+01
 20
1.87430780E+02
  0
VERTEX
  8
0
 62
4
 10
1.86189003E+01
 20
1.87402724E+02
  0
VERTEX
  8
0
 62
4
 10
1.89675337E+01
 20
1.87380003E+02
  0
VERTEX
  8
0
 62
4
 10
1.93264923E+01
 20
1.87362800E+02
  0
VERTEX
  8
0
 62
4
 10
1.96928861E+01
 20
1.87351254E+02
  0
VERTEX
  8
0
 62
4
 10
2.00637651E+01
 20
1.87345458E+02
  0
VERTEX
  8
0
 62
4
 10
2.04361432E+01
 20
1.87345458E+02
  0
VERTEX
  8
0
 62
4
 10
2.08070222E+01
 20
1.87351254E+02
  0
VERTEX
  8
0
 62
4
 10
2.11734161E+01
 20
1.87362800E+02
  0
VERTEX
  8
0
 62
4
 10
2.15323747E+01
 20
1.87380003E+02
  0
VERTEX
  8
0
 62
4
 10
2.18810081E+01
 20
1.87402724E+02
  0
VERTEX
  8
0
 62
4
 10
2.22165091E+01
 20
1.87430780E+02
  0
VERTEX
  8
0
 62
4
 10
2.25361767E+01
 20
1.87463945E+02
  0
VERTEX
  8
0
 62
4
 10
2.28374369E+01
 20
1.87501953E+02
  0
VERTEX
  8
0
 62
4
 10
2.31178642E+01
 20
1.87544497E+02
  0
VERTEX
  8
0
 62
4
 10
2.33752008E+01
 20
1.87591235E+02
  0
VERTEX
  8
0
 62
4
 10
2.36073747E+01
 20
1.87641790E+02
  0
VERTEX
  8
0
 62
4
 10
2.38125167E+01
 20
1.87695756E+02
  0
VERTEX
  8
0
 62
4
 10
2.39889750E+01
 20
1.87752698E+02
  0
VERTEX
  8
0
 62
4
 10
2.41353289E+01
 20
1.87812157E+02
  0
VERTEX
  8
0
 62
4
 10
2.42504001E+01
 20
1.87873655E+02
  0
VERTEX
  8
0
 62
4
 10
2.43332620E+01
 20
1.87936697E+02
  0
VERTEX
  8
0
 62
4
 10
2.43832475E+01
 20
1.88000774E+02
  0
VERTEX
  8
0
 62
4
 10
2.43999542E+01
 20
1.88065372E+02
  0
SEQEND
  8
0
  0
ARC
  8
0
 62
4
 10
2.41499542E+01
 20
1.88060035E+02
 40
2.50000000E-01
 50
0.00000000E+00
 51
7.03240015E+01
  0
ARC
  8
0
 62
4
 10
1.63499542E+01
 20
1.88060035E+02
 40
2.50000000E-01
 50
1.09675998E+02
 51
1.80000000E+02
  0
LINE
  8
0
 62
4
 10
1.65499542E+01
 20
1.86334922E+02
 11
1.65499542E+01
 21
1.85350114E+02
  0
LINE
  8
0
 62
4
 10
8.94995422E+00
 20
1.86334922E+02
 11
8.94995422E+00
 21
1.85350114E+02
  0
POLYLINE
  8
0
 62
4
 66
1
  0
VERTEX
  8
0
 62
4
 10
8.94995420E+00
 20
1.85350114E+02
  0
VERTEX
  8
0
 62
4
 10
8.96525188E+00
 20
1.85290964E+02
  0
VERTEX
  8
0
 62
4
 10
9.01102176E+00
 20
1.85232291E+02
  0
VERTEX
  8
0
 62
4
 10
9.08689533E+00
 20
1.85174566E+02
  0
VERTEX
  8
0
 62
4
 10
9.19226169E+00
 20
1.85118255E+02
  0
VERTEX
  8
0
 62
4
 10
9.32627250E+00
 20
1.85063810E+02
  0
VERTEX
  8
0
 62
4
 10
9.48784878E+00
 20
1.85011671E+02
  0
VERTEX
  8
0
 62
4
 10
9.67568961E+00
 20
1.84962256E+02
  0
VERTEX
  8
0
 62
4
 10
9.88828262E+00
 20
1.84915965E+02
  0
VERTEX
  8
0
 62
4
 10
1.01239161E+01
 20
1.84873168E+02
  0
VERTEX
  8
0
 62
4
 10
1.03806929E+01
 20
1.84834212E+02
  0
VERTEX
  8
0
 62
4
 10
1.06565457E+01
 20
1.84799410E+02
  0
VERTEX
  8
0
 62
4
 10
1.09492533E+01
 20
1.84769042E+02
  0
VERTEX
  8
0
 62
4
 10
1.12564591E+01
 20
1.84743352E+02
  0
VERTEX
  8
0
 62
4
 10
1.15756896E+01
 20
1.84722547E+02
  0
VERTEX
  8
0
 62
4
 10
1.19043746E+01
 20
1.84706795E+02
  0
VERTEX
  8
0
 62
4
 10
1.22398678E+01
 20
1.84696223E+02
  0
VERTEX
  8
0
 62
4
 10
1.25794678E+01
 20
1.84690915E+02
  0
VERTEX
  8
0
 62
4
 10
1.29204405E+01
 20
1.84690915E+02
  0
VERTEX
  8
0
 62
4
 10
1.32600406E+01
 20
1.84696223E+02
  0
VERTEX
  8
0
 62
4
 10
1.35955337E+01
 20
1.84706795E+02
  0
VERTEX
  8
0
 62
4
 10
1.39242188E+01
 20
1.84722547E+02
  0
VERTEX
  8
0
 62
4
 10
1.42434493E+01
 20
1.84743352E+02
  0
VERTEX
  8
0
 62
4
 10
1.45506551E+01
 20
1.84769042E+02
  0
VERTEX
  8
0
 62
4
 10
1.48433627E+01
 20
1.84799410E+02
  0
VERTEX
  8
0
 62
4
 10
1.51192154E+01
 20
1.84834212E+02
  0
VERTEX
  8
0
 62
4
 10
1.53759922E+01
 20
1.84873168E+02
  0
VERTEX
  8
0
 62
4
 10
1.56116258E+01
 20
1.84915965E+02
  0
VERTEX
  8
0
 62
4
 10
1.58242188E+01
 20
1.84962256E+02
  0
VERTEX
  8
0
 62
4
 10
1.60120596E+01
 20
1.85011671E+02
  0
VERTEX
  8
0
 62
4
 10
1.61736359E+01
 20
1.85063810E+02
  0
VERTEX
  8
0
 62
4
 10
1.63076467E+01
 20
1.85118255E+02
  0
VERTEX
  8
0
 62
4
 10
1.64130131E+01
 20
1.85174566E+02
  0
VERTEX
  8
0
 62
4
 10
1.64888866E+01
 20
1.85232291E+02
  0
VERTEX
  8
0
 62
4
 10
1.65346565E+01
 20
1.85290964E+02
  0
VERTEX
  8
0
 62
4
 10
1.65499542E+01
 20
1.85350114E+02
  0
SEQEND
  8
0
  0
POLYLINE
  8
0
 62
4
 66
1
  0
VERTEX
  8
0
 62
4
 10
9.34995419E+00
 20
1.86629613E+02
  0
VERTEX
  8
0
 62
4
 10
9.21337253E+00
 20
1.86576324E+02
  0
VERTEX
  8
0
 62
4
 10
9.10442466E+00
 20
1.86521148E+02
  0
VERTEX
  8
0
 62
4
 10
9.02396188E+00
 20
1.86464518E+02
  0
VERTEX
  8
0
 62
4
 10
8.97261290E+00
 20
1.86406875E+02
  0
VERTEX
  8
0
 62
4
 10
8.95077895E+00
 20
1.86348669E+02
  0
VERTEX
  8
0
 62
4
 10
8.95863062E+00
 20
1.86290356E+02
  0
VERTEX
  8
0
 62
4
 10
8.99610657E+00
 20
1.86232392E+02
  0
VERTEX
  8
0
 62
4
 10
9.06291398E+00
 20
1.86175229E+02
  0
VERTEX
  8
0
 62
4
 10
9.15853082E+00
 20
1.86119313E+02
  0
VERTEX
  8
0
 62
4
 10
9.28220998E+00
 20
1.86065082E+02
  0
VERTEX
  8
0
 62
4
 10
9.43298506E+00
 20
1.86012960E+02
  0
VERTEX
  8
0
 62
4
 10
9.60967796E+00
 20
1.85963353E+02
  0
VERTEX
  8
0
 62
4
 10
9.81090804E+00
 20
1.85916649E+02
  0
VERTEX
  8
0
 62
4
 10
1.00351030E+01
 20
1.85873214E+02
  0
VERTEX
  8
0
 62
4
 10
1.02805109E+01
 20
1.85833387E+02
  0
VERTEX
  8
0
 62
4
 10
1.05452144E+01
 20
1.85797478E+02
  0
VERTEX
  8
0
 62
4
 10
1.08271450E+01
 20
1.85765769E+02
  0
VERTEX
  8
0
 62
4
 10
1.11240999E+01
 20
1.85738507E+02
  0
VERTEX
  8
0
 62
4
 10
1.14337588E+01
 20
1.85715905E+02
  0
VERTEX
  8
0
 62
4
 10
1.17537020E+01
 20
1.85698140E+02
  0
VERTEX
  8
0
 62
4
 10
1.20814296E+01
 20
1.85685351E+02
  0
VERTEX
  8
0
 62
4
 10
1.24143809E+01
 20
1.85677637E+02
  0
VERTEX
  8
0
 62
4
 10
1.27499542E+01
 20
1.85675059E+02
  0
VERTEX
  8
0
 62
4
 10
1.30855276E+01
 20
1.85677637E+02
  0
VERTEX
  8
0
 62
4
 10
1.34184788E+01
 20
1.85685351E+02
  0
VERTEX
  8
0
 62
4
 10
1.37462065E+01
 20
1.85698140E+02
  0
VERTEX
  8
0
 62
4
 10
1.40661497E+01
 20
1.85715905E+02
  0
VERTEX
  8
0
 62
4
 10
1.43758085E+01
 20
1.85738507E+02
  0
VERTEX
  8
0
 62
4
 10
1.46727634E+01
 20
1.85765769E+02
  0
VERTEX
  8
0
 62
4
 10
1.49546941E+01
 20
1.85797478E+02
  0
VERTEX
  8
0
 62
4
 10
1.52193975E+01
 20
1.85833387E+02
  0
VERTEX
  8
0
 62
4
 10
1.54648055E+01
 20
1.85873214E+02
  0
VERTEX
  8
0
 62
4
 10
1.56890004E+01
 20
1.85916649E+02
  0
VERTEX
  8
0
 62
4
 10
1.58902305E+01
 20
1.85963353E+02
  0
VERTEX
  8
0
 62
4
 10
1.60669234E+01
 20
1.86012960E+02
  0
VERTEX
  8
0
 62
4
 10
1.62176984E+01
 20
1.86065082E+02
  0
VERTEX
  8
0
 62
4
 10
1.63413776E+01
 20
1.86119313E+02
  0
VERTEX
  8
0
 62
4
 10
1.64369944E+01
 20
1.86175229E+02
  0
VERTEX
  8
0
 62
4
 10
1.65038018E+01
 20
1.86232392E+02
  0
VERTEX
  8
0
 62
4
 10
1.65412778E+01
 20
1.86290356E+02
  0
VERTEX
  8
0
 62
4
 10
1.65491294E+01
 20
1.86348669E+02
  0
VERTEX
  8
0
 62
4
 10
1.65272955E+01
 20
1.86406875E+02
  0
VERTEX
  8
0
 62
4
 10
1.64759465E+01
 20
1.86464518E+02
  0
VERTEX
  8
0
 62
4
 10
1.63954837E+01
 20
1.86521148E+02
  0
VERTEX
  8
0
 62
4
 10
1.62865359E+01
 20
1.86576324E+02
  0
VERTEX
  8
0
 62
4
 10
1.61499542E+01
 20
1.86629613E+02
  0
SEQEND
  8
0
  0
LINE
  8
0
 62
4
 10
1.61499542E+01
 20
1.87608675E+02
 11
1.61499542E+01
 21
1.86334922E+02
  0
LINE
  8
0
 62
4
 10
9.34995422E+00
 20
1.87608675E+02
 11
9.34995422E+00
 21
1.86334922E+02
  0
POLYLINE
  8
0
 62
4
 66
1
  0
VERTEX
  8
0
 62
4
 10
9.34995420E+00
 20
1.86334922E+02
  0
VERTEX
  8
0
 62
4
 10
9.36364160E+00
 20
1.86281999E+02
  0
VERTEX
  8
0
 62
4
 10
9.40459360E+00
 20
1.86229501E+02
  0
VERTEX
  8
0
 62
4
 10
9.47248047E+00
 20
1.86177853E+02
  0
VERTEX
  8
0
 62
4
 10
9.56675564E+00
 20
1.86127469E+02
  0
VERTEX
  8
0
 62
4
 10
9.68666004E+00
 20
1.86078755E+02
  0
VERTEX
  8
0
 62
4
 10
9.83122829E+00
 20
1.86032104E+02
  0
VERTEX
  8
0
 62
4
 10
9.99929641E+00
 20
1.85987891E+02
  0
VERTEX
  8
0
 62
4
 10
1.01895112E+01
 20
1.85946472E+02
  0
VERTEX
  8
0
 62
4
 10
1.04003412E+01
 20
1.85908181E+02
  0
VERTEX
  8
0
 62
4
 10
1.06300889E+01
 20
1.85873326E+02
  0
VERTEX
  8
0
 62
4
 10
1.08769044E+01
 20
1.85842187E+02
  0
VERTEX
  8
0
 62
4
 10
1.11388007E+01
 20
1.85815015E+02
  0
VERTEX
  8
0
 62
4
 10
1.14136691E+01
 20
1.85792029E+02
  0
VERTEX
  8
0
 62
4
 10
1.16992964E+01
 20
1.85773415E+02
  0
VERTEX
  8
0
 62
4
 10
1.19933830E+01
 20
1.85759321E+02
  0
VERTEX
  8
0
 62
4
 10
1.22935611E+01
 20
1.85749861E+02
  0
VERTEX
  8
0
 62
4
 10
1.25974138E+01
 20
1.85745113E+02
  0
VERTEX
  8
0
 62
4
 10
1.29024946E+01
 20
1.85745113E+02
  0
VERTEX
  8
0
 62
4
 10
1.32063473E+01
 20
1.85749861E+02
  0
VERTEX
  8
0
 62
4
 10
1.35065254E+01
 20
1.85759321E+02
  0
VERTEX
  8
0
 62
4
 10
1.38006120E+01
 20
1.85773415E+02
  0
VERTEX
  8
0
 62
4
 10
1.40862393E+01
 20
1.85792029E+02
  0
VERTEX
  8
0
 62
4
 10
1.43611076E+01
 20
1.85815015E+02
  0
VERTEX
  8
0
 62
4
 10
1.46230039E+01
 20
1.85842187E+02
  0
VERTEX
  8
0
 62
4
 10
1.48698195E+01
 20
1.85873326E+02
  0
VERTEX
  8
0
 62
4
 10
1.50995672E+01
 20
1.85908181E+02
  0
VERTEX
  8
0
 62
4
 10
1.53103972E+01
 20
1.85946472E+02
  0
VERTEX
  8
0
 62
4
 10
1.55006120E+01
 20
1.85987891E+02
  0
VERTEX
  8
0
 62
4
 10
1.56686801E+01
 20
1.86032104E+02
  0
VERTEX
  8
0
 62
4
 10
1.58132483E+01
 20
1.86078755E+02
  0
VERTEX
  8
0
 62
4
 10
1.59331528E+01
 20
1.86127469E+02
  0
VERTEX
  8
0
 62
4
 10
1.60274279E+01
 20
1.86177853E+02
  0
VERTEX
  8
0
 62
4
 10
1.60953148E+01
 20
1.86229501E+02
  0
VERTEX
  8
0
 62
4
 10
1.61362668E+01
 20
1.86281999E+02
  0
VERTEX
  8
0
 62
4
 10
1.61499542E+01
 20
1.86334922E+02
  0
SEQEND
  8
0
  0
ARC
  8
0
 62
4
 10
1.27499542E+01
 20
1.77068461E+02
 40
1.18100000E+01
 50
7.71724899E+01
 51
1.02827510E+02
  0
ARC
  8
0
 62
4
 10
1.03499539E+01
 20
1.87608675E+02
 40
1.00000000E+00
 50
1.02827510E+02
 51
1.80000000E+02
  0
ARC
  8
0
 62
4
 10
1.51499545E+01
 20
1.87608675E+02
 40
1.00000000E+00
 50
3.60000000E+02
 51
7.71724899E+01
  0
ARC
  8
0
 62
4
 10
1.48717078E+01
 20
1.76349318E+02
 40
1.25306621E+01
 50
9.49686598E+01
 51
1.08083352E+02
  0
ARC
  8
0
 62
4
 10
1.06282006E+01
 20
1.76349317E+02
 40
1.25306626E+01
 50
7.19166483E+01
 51
8.50313400E+01
  0
LINE
  8
0
  6
CENTER
 62
6
 10
2.27499542E+01
 20
1.85957883E+02
 11
1.77499542E+01
 21
1.85957883E+02
  0
LINE
  8
0
  6
CENTER
 62
6
 10
1.27499542E+01
 20
1.82850114E+02
 11
1.27499542E+01
 21
1.87850114E+02
  0
LINE
  8
0
  6
CENTER
 62
6
 10
1.52499542E+01
 20
1.85350114E+02
 11
1.02499542E+01
 21
1.85350114E+02
  0
LINE
  8
0
  6
CENTER
 62
6
 10
2.77499542E+01
 20
1.82850114E+02
 11
2.77499542E+01
 21
1.87850114E+02
  0
LINE
  8
0
  6
CENTER
 62
6
 10
3.02499542E+01
 20
1.85350114E+02
 11
2.52499542E+01
 21
1.85350114E+02
  0
LINE
  8
0
 62
4
 10
8.95684363E+00
 20
1.86374639E+02
 11
5.24995422E+00
 21
1.86374639E+02
  0
LINE
  8
0
 62
6
 10
-2.87499542E+01
 20
2.17372785E+02
 11
-2.87499542E+01
 21
2.15021748E+02
  0
LINE
  8
0
 62
6
 10
-2.57499542E+01
 20
2.17372785E+02
 11
-2.57499542E+01
 21
2.15021748E+02
  0
LINE
  8
0
 62
4
 10
-2.92499542E+01
 20
2.17143070E+02
 11
-2.92499542E+01
 21
2.15021748E+02
  0
LINE
  8
0
 62
4
 10
-2.52499542E+01
 20
2.17143070E+02
 11
-2.52499542E+01
 21
2.15021748E+02
  0
LINE
  8
0
 62
4
 10
-3.87499542E+01
 20
2.15021748E+02
 11
-3.87499542E+01
 21
2.02313752E+02
  0
LINE
  8
0
 62
4
 10
-2.37499542E+01
 20
2.15021748E+02
 11
-2.37499542E+01
 21
1.89391861E+02
  0
LINE
  8
0
 62
4
 10
-5.37499542E+01
 20
2.02313752E+02
 11
-5.37499542E+01
 21
1.90364291E+02
  0
LINE
  8
0
  6
CENTER
 62
6
 10
-2.72499542E+01
 20
2.20485044E+02
 11
-2.72499542E+01
 21
2.10219465E+02
  0
LINE
  8
0
  6
CENTER
 62
6
 10
-3.52499542E+01
 20
2.20485044E+02
 11
-3.52499542E+01
 21
2.10219465E+02
  0
LINE
  8
0
  6
CENTER
 62
6
 10
-3.87499542E+01
 20
1.93281046E+02
 11
-3.87499542E+01
 21
1.88281046E+02
  0
LINE
  8
0
 62
4
 10
-3.87499542E+01
 20
2.15021748E+02
 11
-2.37499542E+01
 21
2.15021748E+02
  0
LINE
  8
0
 62
4
 10
-3.87499542E+01
 20
2.09207406E+02
 11
-2.37499542E+01
 21
2.09207406E+02
  0
LINE
  8
0
 62
4
 10
-5.37499542E+01
 20
2.02313752E+02
 11
-2.37499542E+01
 21
2.02313752E+02
  0
LINE
  8
0
 62
4
 10
-5.37499542E+01
 20
1.92170232E+02
 11
-2.37499542E+01
 21
1.92170232E+02
  0
LINE
  8
0
 62
4
 10
-2.78499542E+01
 20
1.89391861E+02
 11
-2.37499542E+01
 21
1.89391861E+02
  0
LINE
  8
0
 62
4
 10
-2.78499542E+01
 20
1.89565509E+02
 11
-2.37499542E+01
 21
1.89565509E+02
  0
LINE
  8
0
 62
4
 10
-5.37499542E+01
 20
1.90364291E+02
 11
-4.28999542E+01
 21
1.90364291E+02
  0
POLYLINE
  8
0
 62
4
 66
1
  0
VERTEX
  8
0
 62
4
 10
-2.52499542E+01
 20
2.17143070E+02
  0
VERTEX
  8
0
 62
4
 10
-2.52580056E+01
 20
2.17174201E+02
  0
VERTEX
  8
0
 62
4
 10
-2.52820950E+01
 20
2.17205082E+02
  0
VERTEX
  8
0
 62
4
 10
-2.53220285E+01
 20
2.17235464E+02
  0
VERTEX
  8
0
 62
4
 10
-2.53774845E+01
 20
2.17265101E+02
  0
VERTEX
  8
0
 62
4
 10
-2.54480165E+01
 20
2.17293756E+02
  0
VERTEX
  8
0
 62
4
 10
-2.55330566E+01
 20
2.17321198E+02
  0
VERTEX
  8
0
 62
4
 10
-2.56319202E+01
 20
2.17347206E+02
  0
VERTEX
  8
0
 62
4
 10
-2.57438113E+01
 20
2.17371570E+02
  0
VERTEX
  8
0
 62
4
 10
-2.58678289E+01
 20
2.17394094E+02
  0
VERTEX
  8
0
 62
4
 10
-2.60029746E+01
 20
2.17414597E+02
  0
VERTEX
  8
0
 62
4
 10
-2.61481602E+01
 20
2.17432914E+02
  0
VERTEX
  8
0
 62
4
 10
-2.63022169E+01
 20
2.17448898E+02
  0
VERTEX
  8
0
 62
4
 10
-2.64639041E+01
 20
2.17462419E+02
  0
VERTEX
  8
0
 62
4
 10
-2.66319202E+01
 20
2.17473368E+02
  0
VERTEX
  8
0
 62
4
 10
-2.68049123E+01
 20
2.17481659E+02
  0
VERTEX
  8
0
 62
4
 10
-2.69814877E+01
 20
2.17487223E+02
  0
VERTEX
  8
0
 62
4
 10
-2.71602245E+01
 20
2.17490017E+02
  0
VERTEX
  8
0
 62
4
 10
-2.73396838E+01
 20
2.17490017E+02
  0
VERTEX
  8
0
 62
4
 10
-2.75184207E+01
 20
2.17487223E+02
  0
VERTEX
  8
0
 62
4
 10
-2.76949961E+01
 20
2.17481659E+02
  0
VERTEX
  8
0
 62
4
 10
-2.78679882E+01
 20
2.17473368E+02
  0
VERTEX
  8
0
 62
4
 10
-2.80360043E+01
 20
2.17462419E+02
  0
VERTEX
  8
0
 62
4
 10
-2.81976915E+01
 20
2.17448898E+02
  0
VERTEX
  8
0
 62
4
 10
-2.83517482E+01
 20
2.17432914E+02
  0
VERTEX
  8
0
 62
4
 10
-2.84969338E+01
 20
2.17414597E+02
  0
VERTEX
  8
0
 62
4
 10
-2.86320795E+01
 20
2.17394094E+02
  0
VERTEX
  8
0
 62
4
 10
-2.87560971E+01
 20
2.17371570E+02
  0
VERTEX
  8
0
 62
4
 10
-2.88679882E+01
 20
2.17347206E+02
  0
VERTEX
  8
0
 62
4
 10
-2.89668518E+01
 20
2.17321198E+02
  0
VERTEX
  8
0
 62
4
 10
-2.90518919E+01
 20
2.17293756E+02
  0
VERTEX
  8
0
 62
4
 10
-2.91224239E+01
 20
2.17265101E+02
  0
VERTEX
  8
0
 62
4
 10
-2.91778799E+01
 20
2.17235464E+02
  0
VERTEX
  8
0
 62
4
 10
-2.92178134E+01
 20
2.17205082E+02
  0
VERTEX
  8
0
 62
4
 10
-2.92419028E+01
 20
2.17174201E+02
  0
VERTEX
  8
0
 62
4
 10
-2.92499542E+01
 20
2.17143070E+02
  0
SEQEND
  8
0
  0
LINE
  8
0
 62
6
 10
-3.67499542E+01
 20
2.17372785E+02
 11
-3.67499542E+01
 21
2.15021748E+02
  0
LINE
  8
0
 62
6
 10
-3.37499542E+01
 20
2.17372785E+02
 11
-3.37499542E+01
 21
2.15021748E+02
  0
LINE
  8
0
 62
4
 10
-3.72499542E+01
 20
2.17143070E+02
 11
-3.72499542E+01
 21
2.15021748E+02
  0
LINE
  8
0
 62
4
 10
-3.32499542E+01
 20
2.17143070E+02
 11
-3.32499542E+01
 21
2.15021748E+02
  0
POLYLINE
  8
0
 62
4
 66
1
  0
VERTEX
  8
0
 62
4
 10
-3.32499542E+01
 20
2.17143070E+02
  0
VERTEX
  8
0
 62
4
 10
-3.32580056E+01
 20
2.17174201E+02
  0
VERTEX
  8
0
 62
4
 10
-3.32820950E+01
 20
2.17205082E+02
  0
VERTEX
  8
0
 62
4
 10
-3.33220285E+01
 20
2.17235464E+02
  0
VERTEX
  8
0
 62
4
 10
-3.33774845E+01
 20
2.17265101E+02
  0
VERTEX
  8
0
 62
4
 10
-3.34480165E+01
 20
2.17293756E+02
  0
VERTEX
  8
0
 62
4
 10
-3.35330566E+01
 20
2.17321198E+02
  0
VERTEX
  8
0
 62
4
 10
-3.36319202E+01
 20
2.17347206E+02
  0
VERTEX
  8
0
 62
4
 10
-3.37438113E+01
 20
2.17371570E+02
  0
VERTEX
  8
0
 62
4
 10
-3.38678289E+01
 20
2.17394094E+02
  0
VERTEX
  8
0
 62
4
 10
-3.40029746E+01
 20
2.17414597E+02
  0
VERTEX
  8
0
 62
4
 10
-3.41481602E+01
 20
2.17432914E+02
  0
VERTEX
  8
0
 62
4
 10
-3.43022169E+01
 20
2.17448898E+02
  0
VERTEX
  8
0
 62
4
 10
-3.44639041E+01
 20
2.17462419E+02
  0
VERTEX
  8
0
 62
4
 10
-3.46319202E+01
 20
2.17473368E+02
  0
VERTEX
  8
0
 62
4
 10
-3.48049123E+01
 20
2.17481659E+02
  0
VERTEX
  8
0
 62
4
 10
-3.49814877E+01
 20
2.17487223E+02
  0
VERTEX
  8
0
 62
4
 10
-3.51602245E+01
 20
2.17490017E+02
  0
VERTEX
  8
0
 62
4
 10
-3.53396838E+01
 20
2.17490017E+02
  0
VERTEX
  8
0
 62
4
 10
-3.55184207E+01
 20
2.17487223E+02
  0
VERTEX
  8
0
 62
4
 10
-3.56949961E+01
 20
2.17481659E+02
  0
VERTEX
  8
0
 62
4
 10
-3.58679882E+01
 20
2.17473368E+02
  0
VERTEX
  8
0
 62
4
 10
-3.60360043E+01
 20
2.17462419E+02
  0
VERTEX
  8
0
 62
4
 10
-3.61976915E+01
 20
2.17448898E+02
  0
VERTEX
  8
0
 62
4
 10
-3.63517482E+01
 20
2.17432914E+02
  0
VERTEX
  8
0
 62
4
 10
-3.64969338E+01
 20
2.17414597E+02
  0
VERTEX
  8
0
 62
4
 10
-3.66320795E+01
 20
2.17394094E+02
  0
VERTEX
  8
0
 62
4
 10
-3.67560971E+01
 20
2.17371570E+02
  0
VERTEX
  8
0
 62
4
 10
-3.68679882E+01
 20
2.17347206E+02
  0
VERTEX
  8
0
 62
4
 10
-3.69668518E+01
 20
2.17321198E+02
  0
VERTEX
  8
0
 62
4
 10
-3.70518919E+01
 20
2.17293756E+02
  0
VERTEX
  8
0
 62
4
 10
-3.71224239E+01
 20
2.17265101E+02
  0
VERTEX
  8
0
 62
4
 10
-3.71778799E+01
 20
2.17235464E+02
  0
VERTEX
  8
0
 62
4
 10
-3.72178134E+01
 20
2.17205082E+02
  0
VERTEX
  8
0
 62
4
 10
-3.72419028E+01
 20
2.17174201E+02
  0
VERTEX
  8
0
 62
4
 10
-3.72499542E+01
 20
2.17143070E+02
  0
SEQEND
  8
0
  0
LINE
  8
0
 62
4
 10
-5.37499542E+01
 20
1.94019736E+02
 11
-5.52499542E+01
 21
1.93016803E+02
  0
LINE
  8
0
 62
4
 10
-5.52499542E+01
 20
1.93016803E+02
 11
-5.52499542E+01
 21
1.90392901E+02
  0
LINE
  8
0
 62
4
 10
-5.52499542E+01
 20
1.90786214E+02
 11
-5.37499542E+01
 21
1.90080505E+02
  0
LINE
  8
0
 62
4
 10
-5.52499542E+01
 20
1.90392901E+02
 11
-5.37499542E+01
 21
1.89385912E+02
  0
LINE
  8
0
 62
4
 10
-5.37499542E+01
 20
1.89385912E+02
 11
-4.28999542E+01
 21
1.89385912E+02
  0
LINE
  8
0
 62
4
 10
-5.37499542E+01
 20
1.90080505E+02
 11
-4.28999542E+01
 21
1.90080505E+02
  0
LINE
  8
0
 62
4
 10
-5.37499542E+01
 20
1.90364291E+02
 11
-5.37499542E+01
 21
1.89391861E+02
  0
POLYLINE
  8
0
 62
4
 66
1
  0
VERTEX
  8
0
 62
4
 10
-3.50499542E+01
 20
1.90733190E+02
  0
VERTEX
  8
0
 62
4
 10
-3.52317692E+01
 20
1.90789037E+02
  0
VERTEX
  8
0
 62
4
 10
-3.54414664E+01
 20
1.90841856E+02
  0
VERTEX
  8
0
 62
4
 10
-3.56773841E+01
 20
1.90891226E+02
  0
VERTEX
  8
0
 62
4
 10
-3.59376524E+01
 20
1.90936758E+02
  0
VERTEX
  8
0
 62
4
 10
-3.62202087E+01
 20
1.90978089E+02
  0
VERTEX
  8
0
 62
4
 10
-3.65228138E+01
 20
1.91014894E+02
  0
VERTEX
  8
0
 62
4
 10
-3.68430693E+01
 20
1.91046879E+02
  0
VERTEX
  8
0
 62
4
 10
-3.71784373E+01
 20
1.91073792E+02
  0
VERTEX
  8
0
 62
4
 10
-3.75262598E+01
 20
1.91095418E+02
  0
VERTEX
  8
0
 62
4
 10
-3.78837804E+01
 20
1.91111588E+02
  0
VERTEX
  8
0
 62
4
 10
-3.82481655E+01
 20
1.91122172E+02
  0
VERTEX
  8
0
 62
4
 10
-3.86165274E+01
 20
1.91127086E+02
  0
VERTEX
  8
0
 62
4
 10
-3.89859467E+01
 20
1.91126293E+02
  0
VERTEX
  8
0
 62
4
 10
-3.93534958E+01
 20
1.91119797E+02
  0
VERTEX
  8
0
 62
4
 10
-3.97162616E+01
 20
1.91107651E+02
  0
VERTEX
  8
0
 62
4
 10
-4.00713693E+01
 20
1.91089951E+02
  0
VERTEX
  8
0
 62
4
 10
-4.04160046E+01
 20
1.91066837E+02
  0
VERTEX
  8
0
 62
4
 10
-4.07474360E+01
 20
1.91038492E+02
  0
VERTEX
  8
0
 62
4
 10
-4.10630371E+01
 20
1.91005141E+02
  0
VERTEX
  8
0
 62
4
 10
-4.13603065E+01
 20
1.90967048E+02
  0
VERTEX
  8
0
 62
4
 10
-4.16368885E+01
 20
1.90924515E+02
  0
VERTEX
  8
0
 62
4
 10
-4.18905909E+01
 20
1.90877880E+02
  0
VERTEX
  8
0
 62
4
 10
-4.21194032E+01
 20
1.90827511E+02
  0
VERTEX
  8
0
 62
4
 10
-4.23215120E+01
 20
1.90773808E+02
  0
VERTEX
  8
0
 62
4
 10
-4.24953155E+01
 20
1.90717196E+02
  0
VERTEX
  8
0
 62
4
 10
-4.26394363E+01
 20
1.90658125E+02
  0
VERTEX
  8
0
 62
4
 10
-4.27527323E+01
 20
1.90597062E+02
  0
VERTEX
  8
0
 62
4
 10
-4.28343055E+01
 20
1.90534492E+02
  0
VERTEX
  8
0
 62
4
 10
-4.28835094E+01
 20
1.90470909E+02
  0
VERTEX
  8
0
 62
4
 10
-4.28999542E+01
 20
1.90406819E+02
  0
SEQEND
  8
0
  0
ARC
  8
0
 62
4
 10
-3.87422159E+01
 20
1.99563926E+02
 40
1.18100000E+01
 50
2.69962458E+02
 51
2.89675999E+02
  0
ARC
  8
0
 62
4
 10
-3.87576925E+01
 20
1.99563926E+02
 40
1.18100000E+01
 50
2.50324001E+02
 51
2.70037542E+02
  0
LINE
  8
0
 62
4
 10
-4.28999542E+01
 20
1.88678895E+02
 11
-4.28999542E+01
 21
1.90406819E+02
  0
LINE
  8
0
 62
4
 10
-3.45999542E+01
 20
1.88678895E+02
 11
-3.45999542E+01
 21
1.88818004E+02
  0
LINE
  8
0
 62
4
 10
-4.27499542E+01
 20
1.90781046E+02
 11
-4.27499542E+01
 21
1.90598816E+02
  0
POLYLINE
  8
0
 62
4
 66
1
  0
VERTEX
  8
0
 62
4
 10
-3.50499542E+01
 20
1.91044968E+02
  0
VERTEX
  8
0
 62
4
 10
-3.51992622E+01
 20
1.91100888E+02
  0
VERTEX
  8
0
 62
4
 10
-3.53765309E+01
 20
1.91154289E+02
  0
VERTEX
  8
0
 62
4
 10
-3.55803643E+01
 20
1.91204751E+02
  0
VERTEX
  8
0
 62
4
 10
-3.58091574E+01
 20
1.91251876E+02
  0
VERTEX
  8
0
 62
4
 10
-3.60611084E+01
 20
1.91295294E+02
  0
VERTEX
  8
0
 62
4
 10
-3.63342334E+01
 20
1.91334662E+02
  0
VERTEX
  8
0
 62
4
 10
-3.66263815E+01
 20
1.91369671E+02
  0
VERTEX
  8
0
 62
4
 10
-3.69352521E+01
 20
1.91400044E+02
  0
VERTEX
  8
0
 62
4
 10
-3.72584130E+01
 20
1.91425543E+02
  0
VERTEX
  8
0
 62
4
 10
-3.75933194E+01
 20
1.91445967E+02
  0
VERTEX
  8
0
 62
4
 10
-3.79373340E+01
 20
1.91461154E+02
  0
VERTEX
  8
0
 62
4
 10
-3.82877477E+01
 20
1.91470986E+02
  0
VERTEX
  8
0
 62
4
 10
-3.86418011E+01
 20
1.91475385E+02
  0
VERTEX
  8
0
 62
4
 10
-3.89967063E+01
 20
1.91474316E+02
  0
VERTEX
  8
0
 62
4
 10
-3.93496683E+01
 20
1.91467788E+02
  0
VERTEX
  8
0
 62
4
 10
-3.96979078E+01
 20
1.91455852E+02
  0
VERTEX
  8
0
 62
4
 10
-4.00386823E+01
 20
1.91438601E+02
  0
VERTEX
  8
0
 62
4
 10
-4.03693085E+01
 20
1.91416173E+02
  0
VERTEX
  8
0
 62
4
 10
-4.06871828E+01
 20
1.91388744E+02
  0
VERTEX
  8
0
 62
4
 10
-4.09898019E+01
 20
1.91356529E+02
  0
VERTEX
  8
0
 62
4
 10
-4.12747828E+01
 20
1.91319782E+02
  0
VERTEX
  8
0
 62
4
 10
-4.15398814E+01
 20
1.91278793E+02
  0
VERTEX
  8
0
 62
4
 10
-4.17830101E+01
 20
1.91233884E+02
  0
VERTEX
  8
0
 62
4
 10
-4.20022544E+01
 20
1.91185409E+02
  0
VERTEX
  8
0
 62
4
 10
-4.21958876E+01
 20
1.91133750E+02
  0
VERTEX
  8
0
 62
4
 10
-4.23623851E+01
 20
1.91079314E+02
  0
VERTEX
  8
0
 62
4
 10
-4.25004358E+01
 20
1.91022529E+02
  0
VERTEX
  8
0
 62
4
 10
-4.26089524E+01
 20
1.90963842E+02
  0
VERTEX
  8
0
 62
4
 10
-4.26870804E+01
 20
1.90903716E+02
  0
VERTEX
  8
0
 62
4
 10
-4.27342048E+01
 20
1.90842623E+02
  0
VERTEX
  8
0
 62
4
 10
-4.27499542E+01
 20
1.90781046E+02
  0
SEQEND
  8
0
  0
ARC
  8
0
 62
4
 10
-4.08685598E+01
 20
2.00265135E+02
 40
1.25124521E+01
 50
2.74941635E+02
 51
2.88095416E+02
  0
ARC
  8
0
 62
4
 10
-3.66313484E+01
 20
2.00265138E+02
 40
1.25124547E+01
 50
2.51904586E+02
 51
2.65058365E+02
  0
POLYLINE
  8
0
 62
4
 66
1
  0
VERTEX
  8
0
 62
4
 10
-3.45999542E+01
 20
1.88673558E+02
  0
VERTEX
  8
0
 62
4
 10
-3.46166609E+01
 20
1.88738156E+02
  0
VERTEX
  8
0
 62
4
 10
-3.46666464E+01
 20
1.88802233E+02
  0
VERTEX
  8
0
 62
4
 10
-3.47495083E+01
 20
1.88865275E+02
  0
VERTEX
  8
0
 62
4
 10
-3.48645795E+01
 20
1.88926773E+02
  0
VERTEX
  8
0
 62
4
 10
-3.50109334E+01
 20
1.88986232E+02
  0
VERTEX
  8
0
 62
4
 10
-3.51873917E+01
 20
1.89043174E+02
  0
VERTEX
  8
0
 62
4
 10
-3.53925337E+01
 20
1.89097140E+02
  0
VERTEX
  8
0
 62
4
 10
-3.56247076E+01
 20
1.89147695E+02
  0
VERTEX
  8
0
 62
4
 10
-3.58820442E+01
 20
1.89194433E+02
  0
VERTEX
  8
0
 62
4
 10
-3.61624715E+01
 20
1.89236977E+02
  0
VERTEX
  8
0
 62
4
 10
-3.64637317E+01
 20
1.89274985E+02
  0
VERTEX
  8
0
 62
4
 10
-3.67833992E+01
 20
1.89308150E+02
  0
VERTEX
  8
0
 62
4
 10
-3.71189003E+01
 20
1.89336206E+02
  0
VERTEX
  8
0
 62
4
 10
-3.74675336E+01
 20
1.89358927E+02
  0
VERTEX
  8
0
 62
4
 10
-3.78264923E+01
 20
1.89376130E+02
  0
VERTEX
  8
0
 62
4
 10
-3.81928861E+01
 20
1.89387676E+02
  0
VERTEX
  8
0
 62
4
 10
-3.85637651E+01
 20
1.89393472E+02
  0
VERTEX
  8
0
 62
4
 10
-3.89361432E+01
 20
1.89393472E+02
  0
VERTEX
  8
0
 62
4
 10
-3.93070222E+01
 20
1.89387676E+02
  0
VERTEX
  8
0
 62
4
 10
-3.96734161E+01
 20
1.89376130E+02
  0
VERTEX
  8
0
 62
4
 10
-4.00323747E+01
 20
1.89358927E+02
  0
VERTEX
  8
0
 62
4
 10
-4.03810081E+01
 20
1.89336206E+02
  0
VERTEX
  8
0
 62
4
 10
-4.07165091E+01
 20
1.89308150E+02
  0
VERTEX
  8
0
 62
4
 10
-4.10361767E+01
 20
1.89274985E+02
  0
VERTEX
  8
0
 62
4
 10
-4.13374369E+01
 20
1.89236977E+02
  0
VERTEX
  8
0
 62
4
 10
-4.16178642E+01
 20
1.89194433E+02
  0
VERTEX
  8
0
 62
4
 10
-4.18752008E+01
 20
1.89147695E+02
  0
VERTEX
  8
0
 62
4
 10
-4.21073747E+01
 20
1.89097140E+02
  0
VERTEX
  8
0
 62
4
 10
-4.23125167E+01
 20
1.89043174E+02
  0
VERTEX
  8
0
 62
4
 10
-4.24889750E+01
 20
1.88986232E+02
  0
VERTEX
  8
0
 62
4
 10
-4.26353289E+01
 20
1.88926773E+02
  0
VERTEX
  8
0
 62
4
 10
-4.27504001E+01
 20
1.88865275E+02
  0
VERTEX
  8
0
 62
4
 10
-4.28332620E+01
 20
1.88802233E+02
  0
VERTEX
  8
0
 62
4
 10
-4.28832475E+01
 20
1.88738156E+02
  0
VERTEX
  8
0
 62
4
 10
-4.28999542E+01
 20
1.88673558E+02
  0
SEQEND
  8
0
  0
ARC
  8
0
 62
4
 10
-4.26499542E+01
 20
1.88678895E+02
 40
2.50000000E-01
 50
1.80000000E+02
 51
2.50324001E+02
  0
ARC
  8
0
 62
4
 10
-3.48499542E+01
 20
1.88678895E+02
 40
2.50000000E-01
 50
2.89675999E+02
 51
0.00000000E+00
  0
LINE
  8
0
 62
4
 10
-3.50499542E+01
 20
1.90404007E+02
 11
-3.50499542E+01
 21
1.91388815E+02
  0
LINE
  8
0
 62
4
 10
-2.74499542E+01
 20
1.90404007E+02
 11
-2.74499542E+01
 21
1.91388815E+02
  0
POLYLINE
  8
0
 62
4
 66
1
  0
VERTEX
  8
0
 62
4
 10
-2.74499542E+01
 20
1.91388815E+02
  0
VERTEX
  8
0
 62
4
 10
-2.74652519E+01
 20
1.91447965E+02
  0
VERTEX
  8
0
 62
4
 10
-2.75110218E+01
 20
1.91506638E+02
  0
VERTEX
  8
0
 62
4
 10
-2.75868953E+01
 20
1.91564363E+02
  0
VERTEX
  8
0
 62
4
 10
-2.76922617E+01
 20
1.91620674E+02
  0
VERTEX
  8
0
 62
4
 10
-2.78262725E+01
 20
1.91675119E+02
  0
VERTEX
  8
0
 62
4
 10
-2.79878488E+01
 20
1.91727258E+02
  0
VERTEX
  8
0
 62
4
 10
-2.81756896E+01
 20
1.91776673E+02
  0
VERTEX
  8
0
 62
4
 10
-2.83882826E+01
 20
1.91822964E+02
  0
VERTEX
  8
0
 62
4
 10
-2.86239161E+01
 20
1.91865761E+02
  0
VERTEX
  8
0
 62
4
 10
-2.88806929E+01
 20
1.91904717E+02
  0
VERTEX
  8
0
 62
4
 10
-2.91565457E+01
 20
1.91939519E+02
  0
VERTEX
  8
0
 62
4
 10
-2.94492533E+01
 20
1.91969887E+02
  0
VERTEX
  8
0
 62
4
 10
-2.97564591E+01
 20
1.91995577E+02
  0
VERTEX
  8
0
 62
4
 10
-3.00756896E+01
 20
1.92016382E+02
  0
VERTEX
  8
0
 62
4
 10
-3.04043746E+01
 20
1.92032134E+02
  0
VERTEX
  8
0
 62
4
 10
-3.07398678E+01
 20
1.92042706E+02
  0
VERTEX
  8
0
 62
4
 10
-3.10794678E+01
 20
1.92048014E+02
  0
VERTEX
  8
0
 62
4
 10
-3.14204405E+01
 20
1.92048014E+02
  0
VERTEX
  8
0
 62
4
 10
-3.17600406E+01
 20
1.92042706E+02
  0
VERTEX
  8
0
 62
4
 10
-3.20955337E+01
 20
1.92032134E+02
  0
VERTEX
  8
0
 62
4
 10
-3.24242188E+01
 20
1.92016382E+02
  0
VERTEX
  8
0
 62
4
 10
-3.27434493E+01
 20
1.91995577E+02
  0
VERTEX
  8
0
 62
4
 10
-3.30506551E+01
 20
1.91969887E+02
  0
VERTEX
  8
0
 62
4
 10
-3.33433627E+01
 20
1.91939519E+02
  0
VERTEX
  8
0
 62
4
 10
-3.36192154E+01
 20
1.91904717E+02
  0
VERTEX
  8
0
 62
4
 10
-3.38759922E+01
 20
1.91865761E+02
  0
VERTEX
  8
0
 62
4
 10
-3.41116258E+01
 20
1.91822964E+02
  0
VERTEX
  8
0
 62
4
 10
-3.43242188E+01
 20
1.91776673E+02
  0
VERTEX
  8
0
 62
4
 10
-3.45120596E+01
 20
1.91727258E+02
  0
VERTEX
  8
0
 62
4
 10
-3.46736359E+01
 20
1.91675119E+02
  0
VERTEX
  8
0
 62
4
 10
-3.48076467E+01
 20
1.91620674E+02
  0
VERTEX
  8
0
 62
4
 10
-3.49130131E+01
 20
1.91564363E+02
  0
VERTEX
  8
0
 62
4
 10
-3.49888866E+01
 20
1.91506638E+02
  0
VERTEX
  8
0
 62
4
 10
-3.50346565E+01
 20
1.91447965E+02
  0
VERTEX
  8
0
 62
4
 10
-3.50499542E+01
 20
1.91388815E+02
  0
SEQEND
  8
0
  0
POLYLINE
  8
0
 62
4
 66
1
  0
VERTEX
  8
0
 62
4
 10
-2.78499542E+01
 20
1.90109316E+02
  0
VERTEX
  8
0
 62
4
 10
-2.77133725E+01
 20
1.90162605E+02
  0
VERTEX
  8
0
 62
4
 10
-2.76044247E+01
 20
1.90217781E+02
  0
VERTEX
  8
0
 62
4
 10
-2.75239619E+01
 20
1.90274411E+02
  0
VERTEX
  8
0
 62
4
 10
-2.74726129E+01
 20
1.90332054E+02
  0
VERTEX
  8
0
 62
4
 10
-2.74507789E+01
 20
1.90390260E+02
  0
VERTEX
  8
0
 62
4
 10
-2.74586306E+01
 20
1.90448573E+02
  0
VERTEX
  8
0
 62
4
 10
-2.74961066E+01
 20
1.90506537E+02
  0
VERTEX
  8
0
 62
4
 10
-2.75629140E+01
 20
1.90563700E+02
  0
VERTEX
  8
0
 62
4
 10
-2.76585308E+01
 20
1.90619616E+02
  0
VERTEX
  8
0
 62
4
 10
-2.77822100E+01
 20
1.90673847E+02
  0
VERTEX
  8
0
 62
4
 10
-2.79329851E+01
 20
1.90725969E+02
  0
VERTEX
  8
0
 62
4
 10
-2.81096780E+01
 20
1.90775576E+02
  0
VERTEX
  8
0
 62
4
 10
-2.83109080E+01
 20
1.90822280E+02
  0
VERTEX
  8
0
 62
4
 10
-2.85351030E+01
 20
1.90865715E+02
  0
VERTEX
  8
0
 62
4
 10
-2.87805109E+01
 20
1.90905542E+02
  0
VERTEX
  8
0
 62
4
 10
-2.90452144E+01
 20
1.90941451E+02
  0
VERTEX
  8
0
 62
4
 10
-2.93271450E+01
 20
1.90973160E+02
  0
VERTEX
  8
0
 62
4
 10
-2.96240999E+01
 20
1.91000422E+02
  0
VERTEX
  8
0
 62
4
 10
-2.99337588E+01
 20
1.91023024E+02
  0
VERTEX
  8
0
 62
4
 10
-3.02537020E+01
 20
1.91040789E+02
  0
VERTEX
  8
0
 62
4
 10
-3.05814296E+01
 20
1.91053578E+02
  0
VERTEX
  8
0
 62
4
 10
-3.09143809E+01
 20
1.91061292E+02
  0
VERTEX
  8
0
 62
4
 10
-3.12499542E+01
 20
1.91063870E+02
  0
VERTEX
  8
0
 62
4
 10
-3.15855276E+01
 20
1.91061292E+02
  0
VERTEX
  8
0
 62
4
 10
-3.19184788E+01
 20
1.91053578E+02
  0
VERTEX
  8
0
 62
4
 10
-3.22462065E+01
 20
1.91040789E+02
  0
VERTEX
  8
0
 62
4
 10
-3.25661497E+01
 20
1.91023024E+02
  0
VERTEX
  8
0
 62
4
 10
-3.28758085E+01
 20
1.91000422E+02
  0
VERTEX
  8
0
 62
4
 10
-3.31727634E+01
 20
1.90973160E+02
  0
VERTEX
  8
0
 62
4
 10
-3.34546941E+01
 20
1.90941451E+02
  0
VERTEX
  8
0
 62
4
 10
-3.37193975E+01
 20
1.90905542E+02
  0
VERTEX
  8
0
 62
4
 10
-3.39648055E+01
 20
1.90865715E+02
  0
VERTEX
  8
0
 62
4
 10
-3.41890004E+01
 20
1.90822280E+02
  0
VERTEX
  8
0
 62
4
 10
-3.43902305E+01
 20
1.90775576E+02
  0
VERTEX
  8
0
 62
4
 10
-3.45669234E+01
 20
1.90725969E+02
  0
VERTEX
  8
0
 62
4
 10
-3.47176984E+01
 20
1.90673847E+02
  0
VERTEX
  8
0
 62
4
 10
-3.48413776E+01
 20
1.90619616E+02
  0
VERTEX
  8
0
 62
4
 10
-3.49369944E+01
 20
1.90563701E+02
  0
VERTEX
  8
0
 62
4
 10
-3.50038018E+01
 20
1.90506537E+02
  0
VERTEX
  8
0
 62
4
 10
-3.50412778E+01
 20
1.90448573E+02
  0
VERTEX
  8
0
 62
4
 10
-3.50491295E+01
 20
1.90390260E+02
  0
VERTEX
  8
0
 62
4
 10
-3.50272955E+01
 20
1.90332054E+02
  0
VERTEX
  8
0
 62
4
 10
-3.49759465E+01
 20
1.90274411E+02
  0
VERTEX
  8
0
 62
4
 10
-3.48954837E+01
 20
1.90217781E+02
  0
VERTEX
  8
0
 62
4
 10
-3.47865359E+01
 20
1.90162605E+02
  0
VERTEX
  8
0
 62
4
 10
-3.46499542E+01
 20
1.90109316E+02
  0
SEQEND
  8
0
  0
LINE
  8
0
 62
4
 10
-3.46499542E+01
 20
1.89130255E+02
 11
-3.46499542E+01
 21
1.90404007E+02
  0
LINE
  8
0
 62
4
 10
-2.78499542E+01
 20
1.89130255E+02
 11
-2.78499542E+01
 21
1.90404007E+02
  0
POLYLINE
  8
0
 62
4
 66
1
  0
VERTEX
  8
0
 62
4
 10
-2.78499542E+01
 20
1.90404007E+02
  0
VERTEX
  8
0
 62
4
 10
-2.78636416E+01
 20
1.90456930E+02
  0
VERTEX
  8
0
 62
4
 10
-2.79045936E+01
 20
1.90509428E+02
  0
VERTEX
  8
0
 62
4
 10
-2.79724805E+01
 20
1.90561076E+02
  0
VERTEX
  8
0
 62
4
 10
-2.80667556E+01
 20
1.90611460E+02
  0
VERTEX
  8
0
 62
4
 10
-2.81866600E+01
 20
1.90660174E+02
  0
VERTEX
  8
0
 62
4
 10
-2.83312283E+01
 20
1.90706825E+02
  0
VERTEX
  8
0
 62
4
 10
-2.84992964E+01
 20
1.90751038E+02
  0
VERTEX
  8
0
 62
4
 10
-2.86895112E+01
 20
1.90792457E+02
  0
VERTEX
  8
0
 62
4
 10
-2.89003412E+01
 20
1.90830748E+02
  0
VERTEX
  8
0
 62
4
 10
-2.91300889E+01
 20
1.90865603E+02
  0
VERTEX
  8
0
 62
4
 10
-2.93769044E+01
 20
1.90896742E+02
  0
VERTEX
  8
0
 62
4
 10
-2.96388007E+01
 20
1.90923914E+02
  0
VERTEX
  8
0
 62
4
 10
-2.99136691E+01
 20
1.90946900E+02
  0
VERTEX
  8
0
 62
4
 10
-3.01992964E+01
 20
1.90965514E+02
  0
VERTEX
  8
0
 62
4
 10
-3.04933830E+01
 20
1.90979608E+02
  0
VERTEX
  8
0
 62
4
 10
-3.07935611E+01
 20
1.90989068E+02
  0
VERTEX
  8
0
 62
4
 10
-3.10974138E+01
 20
1.90993816E+02
  0
VERTEX
  8
0
 62
4
 10
-3.14024946E+01
 20
1.90993816E+02
  0
VERTEX
  8
0
 62
4
 10
-3.17063473E+01
 20
1.90989068E+02
  0
VERTEX
  8
0
 62
4
 10
-3.20065254E+01
 20
1.90979608E+02
  0
VERTEX
  8
0
 62
4
 10
-3.23006120E+01
 20
1.90965514E+02
  0
VERTEX
  8
0
 62
4
 10
-3.25862393E+01
 20
1.90946900E+02
  0
VERTEX
  8
0
 62
4
 10
-3.28611076E+01
 20
1.90923914E+02
  0
VERTEX
  8
0
 62
4
 10
-3.31230039E+01
 20
1.90896742E+02
  0
VERTEX
  8
0
 62
4
 10
-3.33698195E+01
 20
1.90865603E+02
  0
VERTEX
  8
0
 62
4
 10
-3.35995672E+01
 20
1.90830748E+02
  0
VERTEX
  8
0
 62
4
 10
-3.38103972E+01
 20
1.90792457E+02
  0
VERTEX
  8
0
 62
4
 10
-3.40006120E+01
 20
1.90751038E+02
  0
VERTEX
  8
0
 62
4
 10
-3.41686801E+01
 20
1.90706825E+02
  0
VERTEX
  8
0
 62
4
 10
-3.43132483E+01
 20
1.90660174E+02
  0
VERTEX
  8
0
 62
4
 10
-3.44331528E+01
 20
1.90611460E+02
  0
VERTEX
  8
0
 62
4
 10
-3.45274279E+01
 20
1.90561076E+02
  0
VERTEX
  8
0
 62
4
 10
-3.45953148E+01
 20
1.90509428E+02
  0
VERTEX
  8
0
 62
4
 10
-3.46362668E+01
 20
1.90456930E+02
  0
VERTEX
  8
0
 62
4
 10
-3.46499542E+01
 20
1.90404007E+02
  0
SEQEND
  8
0
  0
ARC
  8
0
 62
4
 10
-3.12499542E+01
 20
1.99670468E+02
 40
1.18100000E+01
 50
2.57172490E+02
 51
2.82827510E+02
  0
ARC
  8
0
 62
4
 10
-2.88499539E+01
 20
1.89130255E+02
 40
1.00000000E+00
 50
2.82827510E+02
 51
5.08888749E-14
  0
ARC
  8
0
 62
4
 10
-3.36499545E+01
 20
1.89130255E+02
 40
1.00000000E+00
 50
1.80000000E+02
 51
2.57172490E+02
  0
ARC
  8
0
 62
4
 10
-3.33717078E+01
 20
2.00389611E+02
 40
1.25306621E+01
 50
2.74968660E+02
 51
2.88083352E+02
  0
ARC
  8
0
 62
4
 10
-2.91282006E+01
 20
2.00389612E+02
 40
1.25306626E+01
 50
2.51916648E+02
 51
2.65031340E+02
  0
LINE
  8
0
  6
CENTER
 62
6
 10
-4.12499542E+01
 20
1.90781046E+02
 11
-3.62499542E+01
 21
1.90781046E+02
  0
LINE
  8
0
  6
CENTER
 62
6
 10
-3.12499542E+01
 20
1.93888815E+02
 11
-3.12499542E+01
 21
1.88888815E+02
  0
LINE
  8
0
  6
CENTER
 62
6
 10
-3.37499542E+01
 20
1.91388815E+02
 11
-2.87499542E+01
 21
1.91388815E+02
  0
LINE
  8
0
  6
CENTER
 62
6
 10
-4.62499542E+01
 20
1.93888815E+02
 11
-4.62499542E+01
 21
1.88888815E+02
  0
LINE
  8
0
  6
CENTER
 62
6
 10
-4.87499542E+01
 20
1.91388815E+02
 11
-4.37499542E+01
 21
1.91388815E+02
  0
LINE
  8
0
 62
4
 10
-2.74568436E+01
 20
1.90364291E+02
 11
-2.37499542E+01
 21
1.90364291E+02
  0
LINE
  8
0
  6
CENTER
 62
2
 10
-1.47883850E+02
 20
1.88369465E+02
 11
7.86960907E+01
 21
1.88369465E+02
  0
LINE
  8
0
  6
CENTER
 62
2
 10
-7.72500000E+01
 20
1.82353596E+02
 11
-7.72500000E+01
 21
2.02513630E+02
  0
LINE
  8
0
  6
CENTER
 62
2
 10
-8.73667145E+01
 20
1.92369404E+02
 11
-6.73015594E+01
 21
1.92369404E+02
  0
LINE
  8
0
  6
CENTER
 62
2
 10
-6.97499847E+01
 20
1.72449756E+02
 11
-6.97499847E+01
 21
1.83974384E+02
  0
LINE
  8
0
 62
7
 10
-1.09750031E+02
 20
1.73369465E+02
 11
-1.05241058E+02
 21
1.73369465E+02
  0
LINE
  8
0
 62
7
 10
-9.67500000E+01
 20
1.72369495E+02
 11
-9.52500000E+01
 21
1.72369495E+02
  0
LINE
  8
0
 62
7
 10
-1.05008766E+02
 20
1.73111105E+02
 11
-9.72491832E+01
 21
1.72840133E+02
  0
LINE
  8
0
 62
7
 10
-1.10249954E+02
 20
1.73869465E+02
 11
-1.10249954E+02
 21
2.02869465E+02
  0
LINE
  8
0
 62
7
 10
-1.09750031E+02
 20
2.03369526E+02
 11
-1.05241058E+02
 21
2.03369526E+02
  0
LINE
  8
0
 62
7
 10
-9.67500000E+01
 20
2.04369495E+02
 11
-9.52500000E+01
 21
2.04369495E+02
  0
LINE
  8
0
 62
7
 10
-6.42499542E+01
 20
1.63369465E+02
 11
-6.42499542E+01
 21
2.13369465E+02
  0
LINE
  8
0
 62
7
 10
-9.52499542E+01
 20
1.64401935E+02
 11
-9.52499542E+01
 21
2.12336994E+02
  0
LINE
  8
0
 62
7
 10
-1.05008731E+02
 20
2.03628014E+02
 11
-9.72491479E+01
 21
2.03898984E+02
  0
LINE
  8
0
 62
7
 10
-1.05249954E+02
 20
2.03369495E+02
 11
-1.05249954E+02
 21
1.73369434E+02
  0
LINE
  8
0
 62
7
 10
-9.72499542E+01
 20
2.03869465E+02
 11
-9.72499542E+01
 21
1.72840046E+02
  0
LINE
  8
0
 62
7
 10
-6.42500219E+01
 20
2.13369534E+02
 11
-9.47587418E+01
 21
2.12837007E+02
  0
LINE
  8
0
 62
7
 10
-6.42499481E+01
 20
1.63369596E+02
 11
-9.47586984E+01
 21
1.63902133E+02
  0
LINE
  8
0
  6
CENTER
 62
2
 10
-7.54465942E+01
 20
1.78369465E+02
 11
-6.38311005E+01
 21
1.78369465E+02
  0
LINE
  8
0
 62
7
 10
-8.82499542E+01
 20
2.08369465E+02
 11
-6.42499542E+01
 21
2.08369465E+02
  0
LINE
  8
0
 62
7
 10
-8.82499542E+01
 20
1.68369465E+02
 11
-6.42499542E+01
 21
1.68369465E+02
  0
LINE
  8
0
 62
7
 10
-9.02499542E+01
 20
2.06369465E+02
 11
-9.02499542E+01
 21
1.70369465E+02
  0
LINE
  8
0
  6
CENTER
 62
2
 10
5.47500000E+01
 20
1.82353596E+02
 11
5.47500000E+01
 21
2.02513630E+02
  0
LINE
  8
0
  6
CENTER
 62
2
 10
6.48667145E+01
 20
1.92369404E+02
 11
4.48015594E+01
 21
1.92369404E+02
  0
LINE
  8
0
  6
CENTER
 62
2
 10
4.72499847E+01
 20
1.72449756E+02
 11
4.72499847E+01
 21
1.83974384E+02
  0
LINE
  8
0
 62
7
 10
7.42500000E+01
 20
1.72369495E+02
 11
7.27500000E+01
 21
1.72369495E+02
  0
LINE
  8
0
 62
7
 10
7.42500000E+01
 20
2.04369495E+02
 11
7.27500000E+01
 21
2.04369495E+02
  0
LINE
  8
0
 62
7
 10
4.17499542E+01
 20
1.63369465E+02
 11
4.17499542E+01
 21
2.13369465E+02
  0
LINE
  8
0
 62
7
 10
7.27499542E+01
 20
1.64401935E+02
 11
7.27499542E+01
 21
2.12336994E+02
  0
LINE
  8
0
 62
7
 10
7.47499542E+01
 20
2.03869465E+02
 11
7.47499542E+01
 21
1.72840046E+02
  0
LINE
  8
0
 62
7
 10
4.17500189E+01
 20
2.13369538E+02
 11
7.22587234E+01
 21
2.12837011E+02
  0
LINE
  8
0
 62
7
 10
4.17499265E+01
 20
1.63369587E+02
 11
7.22586921E+01
 21
1.63902124E+02
  0
LINE
  8
0
  6
CENTER
 62
2
 10
5.29465942E+01
 20
1.78369465E+02
 11
4.13311005E+01
 21
1.78369465E+02
  0
LINE
  8
0
 62
7
 10
6.57499542E+01
 20
2.08369465E+02
 11
4.17499542E+01
 21
2.08369465E+02
  0
LINE
  8
0
 62
7
 10
6.57499542E+01
 20
1.68369465E+02
 11
4.17499542E+01
 21
1.68369465E+02
  0
LINE
  8
0
 62
7
 10
6.77499542E+01
 20
2.06369465E+02
 11
6.77499542E+01
 21
1.70369465E+02
  0
LINE
  8
0
 62
7
 10
-1.12250031E+02
 20
1.96369434E+02
 11
-1.10249954E+02
 21
1.96369434E+02
  0
LINE
  8
0
 62
7
 10
-1.12249939E+02
 20
1.80369449E+02
 11
-1.10249969E+02
 21
1.80369449E+02
  0
LINE
  8
0
 62
7
 10
-1.20249969E+02
 20
1.95369465E+02
 11
-1.20249969E+02
 21
1.81369434E+02
  0
LINE
  8
0
 62
7
 10
-1.44250000E+02
 20
1.82869434E+02
 11
-1.44250000E+02
 21
1.93869465E+02
  0
LINE
  8
0
 62
7
 10
-1.42749969E+02
 20
1.95369465E+02
 11
-1.37750015E+02
 21
1.95369465E+02
  0
LINE
  8
0
 62
7
 10
-1.23250000E+02
 20
1.81369434E+02
 11
-1.23250000E+02
 21
1.95369465E+02
  0
LINE
  8
0
 62
2
 10
-1.43450012E+02
 20
1.94669452E+02
 11
-1.37750015E+02
 21
1.94669452E+02
  0
LINE
  8
0
 62
7
 10
-1.20249969E+02
 20
1.95369465E+02
 11
-1.13250000E+02
 21
1.95369465E+02
  0
LINE
  8
0
 62
7
 10
-1.42750000E+02
 20
1.81369434E+02
 11
-1.37750015E+02
 21
1.81369434E+02
  0
LINE
  8
0
 62
2
 10
-1.43450012E+02
 20
1.82069431E+02
 11
-1.37750015E+02
 21
1.82069431E+02
  0
LINE
  8
0
 62
7
 10
-1.20249969E+02
 20
1.81369434E+02
 11
-1.13249924E+02
 21
1.81369434E+02
  0
LINE
  8
0
 62
7
 10
-6.83066211E+01
 20
1.78369558E+02
 11
-6.90282938E+01
 21
1.79619548E+02
  0
LINE
  8
0
 62
7
 10
-6.90282898E+01
 20
1.79619526E+02
 11
-7.04716797E+01
 21
1.79619526E+02
  0
LINE
  8
0
 62
7
 10
-7.11932780E+01
 20
1.78369477E+02
 11
-7.04715901E+01
 21
1.79619493E+02
  0
LINE
  8
0
 62
7
 10
-7.04716458E+01
 20
1.77119491E+02
 11
-7.11933490E+01
 21
1.78369534E+02
  0
LINE
  8
0
 62
7
 10
-6.90282898E+01
 20
1.77119495E+02
 11
-7.04716797E+01
 21
1.77119495E+02
  0
LINE
  8
0
 62
7
 10
-6.83064896E+01
 20
1.78369435E+02
 11
-6.90281776E+01
 21
1.77119419E+02
  0
LINE
  8
0
 62
7
 10
4.86933533E+01
 20
1.78369540E+02
 11
4.79716730E+01
 21
1.79619543E+02
  0
LINE
  8
0
 62
7
 10
4.79716721E+01
 20
1.79619526E+02
 11
4.65282974E+01
 21
1.79619526E+02
  0
LINE
  8
0
 62
7
 10
4.58066813E+01
 20
1.78369477E+02
 11
4.65283692E+01
 21
1.79619493E+02
  0
LINE
  8
0
 62
7
 10
4.65283210E+01
 20
1.77119486E+02
 11
4.58066178E+01
 21
1.78369529E+02
  0
LINE
  8
0
 62
7
 10
4.79716721E+01
 20
1.77119495E+02
 11
4.65282974E+01
 21
1.77119495E+02
  0
LINE
  8
0
 62
7
 10
4.86934697E+01
 20
1.78369435E+02
 11
4.79717817E+01
 21
1.77119419E+02
  0
LINE
  8
0
  6
CENTER
 62
2
 10
-9.74769745E+01
 20
1.69869465E+02
 11
7.48534698E+01
 21
1.69869465E+02
  0
LINE
  8
0
 62
7
 10
-6.42499542E+01
 20
1.72519459E+02
 11
5.24995422E+00
 21
1.72519459E+02
  0
LINE
  8
0
 62
7
 10
-6.42499542E+01
 20
1.67219471E+02
 11
5.24995422E+00
 21
1.67219471E+02
  0
LINE
  8
0
 62
7
 10
-6.42499542E+01
 20
1.66369480E+02
 11
5.24995422E+00
 21
1.66369480E+02
  0
LINE
  8
0
  6
CENTER
 62
2
 10
-9.74769745E+01
 20
2.06869465E+02
 11
7.48534698E+01
 21
2.06869465E+02
  0
LINE
  8
0
 62
7
 10
-6.42499542E+01
 20
2.04219471E+02
 11
-3.87499542E+01
 21
2.04219471E+02
  0
LINE
  8
0
 62
7
 10
-6.42499542E+01
 20
2.09519459E+02
 11
-3.87499542E+01
 21
2.09519459E+02
  0
LINE
  8
0
 62
7
 10
-6.42499542E+01
 20
2.10369449E+02
 11
-3.87499542E+01
 21
2.10369449E+02
  0
LINE
  8
0
 62
7
 10
-1.13250012E+02
 20
1.95369506E+02
 11
-1.12250062E+02
 21
1.96369456E+02
  0
LINE
  8
0
 62
7
 10
-1.13249976E+02
 20
1.81369480E+02
 11
-1.12249953E+02
 21
1.80369458E+02
  0
LINE
  8
0
 62
7
 10
-1.17249969E+02
 20
1.95369465E+02
 11
-1.17249969E+02
 21
1.81369434E+02
  0
LINE
  8
0
 62
7
 10
-1.42750000E+02
 20
1.81369434E+02
 11
-1.42750000E+02
 21
1.95369465E+02
  0
LINE
  8
0
 62
7
 10
-1.44250017E+02
 20
1.82869446E+02
 11
-1.42750004E+02
 21
1.81369433E+02
  0
LINE
  8
0
 62
7
 10
-1.44249998E+02
 20
1.93869466E+02
 11
-1.42749968E+02
 21
1.95369466E+02
  0
LINE
  8
0
 62
7
 10
-1.23250000E+02
 20
1.94669452E+02
 11
-1.20249969E+02
 21
1.94669452E+02
  0
LINE
  8
0
 62
7
 10
-1.23250000E+02
 20
1.82069431E+02
 11
-1.20249969E+02
 21
1.82069431E+02
  0
CIRCLE
  8
0
 62
7
 10
-6.97499847E+01
 20
1.78369465E+02
 40
4.00000000E+00
  0
ARC
  8
0
 62
7
 10
-1.09750031E+02
 20
1.73869465E+02
 40
5.00000000E-01
 50
1.80000005E+02
 51
2.70000001E+02
  0
ARC
  8
0
 62
7
 10
-9.67500000E+01
 20
1.72869465E+02
 40
5.00000000E-01
 50
1.80000005E+02
 51
2.70000001E+02
  0
ARC
  8
0
 62
7
 10
-1.05000000E+02
 20
1.73360859E+02
 40
2.50000000E-01
 50
1.80000005E+02
 51
2.67999220E+02
  0
ARC
  8
0
 62
7
 10
-1.09750031E+02
 20
2.02869465E+02
 40
5.00000000E-01
 50
9.00000231E+01
 51
1.80000005E+02
  0
ARC
  8
0
 62
7
 10
-9.67500000E+01
 20
2.03869465E+02
 40
5.00000000E-01
 50
9.00000231E+01
 51
1.80000005E+02
  0
ARC
  8
0
 62
7
 10
-1.05000000E+02
 20
2.03378071E+02
 40
2.50000000E-01
 50
9.20007768E+01
 51
1.79999991E+02
  0
ARC
  8
0
 62
7
 10
-9.47500000E+01
 20
2.12336994E+02
 40
5.00000000E-01
 50
9.10002155E+01
 51
1.80000005E+02
  0
ARC
  8
0
 62
7
 10
-9.47500000E+01
 20
1.64401935E+02
 40
5.00000000E-01
 50
1.80000005E+02
 51
2.68999788E+02
  0
CIRCLE
  8
0
 62
7
 10
-7.72500000E+01
 20
1.92369404E+02
 40
7.00000000E+00
  0
ARC
  8
0
 62
7
 10
-8.82499542E+01
 20
2.06369465E+02
 40
2.00000000E+00
 50
8.99999818E+01
 51
1.79999964E+02
  0
ARC
  8
0
 62
7
 10
-8.82499542E+01
 20
1.70369465E+02
 40
2.00000000E+00
 50
1.79999981E+02
 51
2.70000018E+02
  0
CIRCLE
  8
0
 62
7
 10
-7.72500000E+01
 20
1.92369404E+02
 40
5.65999985E+00
  0
CIRCLE
  8
0
 62
2
 10
-7.72500000E+01
 20
1.92369404E+02
 40
6.57849979E+00
  0
CIRCLE
  8
0
 62
7
 10
4.72499847E+01
 20
1.78369465E+02
 40
4.00000000E+00
  0
ARC
  8
0
 62
7
 10
7.42500000E+01
 20
1.72869465E+02
 40
5.00000000E-01
 50
2.70000018E+02
 51
1.36603783E-05
  0
ARC
  8
0
 62
7
 10
7.42500000E+01
 20
2.03869465E+02
 40
5.00000000E-01
 50
0.00000000E+00
 51
8.99999818E+01
  0
ARC
  8
0
 62
7
 10
7.22500000E+01
 20
2.12336994E+02
 40
5.00000000E-01
 50
0.00000000E+00
 51
8.89997895E+01
  0
ARC
  8
0
 62
7
 10
7.22500000E+01
 20
1.64401935E+02
 40
5.00000000E-01
 50
2.71000231E+02
 51
1.36603783E-05
  0
CIRCLE
  8
0
 62
7
 10
5.47500000E+01
 20
1.92369404E+02
 40
7.00000000E+00
  0
ARC
  8
0
 62
7
 10
6.57499542E+01
 20
2.06369465E+02
 40
2.00000000E+00
 50
5.46415133E-05
 51
9.00000369E+01
  0
ARC
  8
0
 62
7
 10
6.57499542E+01
 20
1.70369465E+02
 40
2.00000000E+00
 50
2.70000018E+02
 51
5.46415133E-05
  0
CIRCLE
  8
0
 62
7
 10
5.47500000E+01
 20
1.92369404E+02
 40
5.65999985E+00
  0
CIRCLE
  8
0
 62
2
 10
5.47500000E+01
 20
1.92369404E+02
 40
6.57849979E+00
  0
CIRCLE
  8
0
 62
7
 10
-6.97499847E+01
 20
1.78369465E+02
 40
2.09999990E+00
  0
CIRCLE
  8
0
 62
7
 10
4.72499847E+01
 20
1.78369465E+02
 40
2.09999990E+00
  0
ARC
  8
0
 62
4
 10
-5.92505313E+01
 20
-1.91753885E+02
 40
1.49950792E+00
 50
8.99812358E+01
 51
1.80018846E+02
  0
ARC
  8
0
 62
4
 10
-6.52495382E+01
 20
-1.76288984E+02
 40
5.00508007E-01
 50
1.80058166E+02
 51
2.69941916E+02
  0
ARC
  8
0
 62
4
 10
-2.32495317E+01
 20
-1.91753844E+02
 40
1.49949266E+00
 50
3.59980652E+02
 51
9.00194298E+01
  0
ARC
  8
0
 62
4
 10
-5.67495379E+01
 20
-1.77288978E+02
 40
4.99492993E-01
 50
3.59941854E+02
 51
9.00582282E+01
  0
ARC
  8
0
 62
4
 10
-6.52505472E+01
 20
-1.63289000E+02
 40
4.99508251E-01
 50
8.99436074E+01
 51
1.80056475E+02
  0
LINE
  8
0
 62
4
 10
-6.92500465E+01
 20
-1.75535780E+02
 11
-6.57500465E+01
 21
-1.75535777E+02
  0
LINE
  8
0
 62
4
 10
-6.92500547E+01
 20
-1.64035780E+02
 11
-6.57500547E+01
 21
-1.64035777E+02
  0
LINE
  8
0
 62
4
 10
-6.92500550E+01
 20
-1.63535780E+02
 11
-6.92500461E+01
 21
-1.76035780E+02
  0
LINE
  8
0
 62
4
 10
-7.07500461E+01
 20
-1.76035781E+02
 11
-6.57500461E+01
 21
-1.76035777E+02
  0
LINE
  8
0
 62
4
 10
-7.07500550E+01
 20
-1.63535781E+02
 11
-6.57500550E+01
 21
-1.63535777E+02
  0
LINE
  8
0
 62
4
 10
-7.07500619E+01
 20
-1.62454545E+02
 11
-7.07500515E+01
 21
-1.77136545E+02
  0
LINE
  8
0
 62
4
 10
-7.57500619E+01
 20
-1.62454549E+02
 11
-7.57500515E+01
 21
-1.77136548E+02
  0
LINE
  8
0
 62
4
 10
-6.57500552E+01
 20
-1.63289492E+02
 11
-6.57500459E+01
 21
-1.76289492E+02
  0
LINE
  8
0
 62
4
 10
-5.62500556E+01
 20
-1.62789485E+02
 11
-6.52500556E+01
 21
-1.62789492E+02
  0
LINE
  8
0
 62
4
 10
-6.52500456E+01
 20
-1.76789492E+02
 11
-5.67500456E+01
 21
-1.76789486E+02
  0
LINE
  8
0
 62
4
 10
-7.57500515E+01
 20
-1.77136548E+02
 11
-7.07500515E+01
 21
-1.77136545E+02
  0
LINE
  8
0
 62
4
 10
-7.57500539E+01
 20
-1.72117065E+02
 11
-7.07500539E+01
 21
-1.72117061E+02
  0
LINE
  8
0
 62
4
 10
-7.57500614E+01
 20
-1.64771177E+02
 11
-7.07500614E+01
 21
-1.64771173E+02
  0
LINE
  8
0
 62
4
 10
-7.57500619E+01
 20
-1.62454549E+02
 11
-7.07500619E+01
 21
-1.62454545E+02
  0
LINE
  8
0
 62
4
 10
-5.92500402E+01
 20
-1.90254377E+02
 11
-2.32500402E+01
 21
-1.90254351E+02
  0
LINE
  8
0
 62
4
 10
-6.07500351E+01
 20
-2.02994395E+02
 11
-2.17500351E+01
 21
-2.02994367E+02
  0
LINE
  8
0
 62
4
 10
-6.07500340E+01
 20
-2.04461617E+02
 11
-2.17500340E+01
 21
-2.04461589E+02
  0
LINE
  8
0
 62
4
 10
-2.17500431E+01
 20
-1.91754350E+02
 11
-2.17500340E+01
 21
-2.04461592E+02
  0
LINE
  8
0
 62
4
 10
-5.62500441E+01
 20
-1.85834267E+02
 11
-4.12500441E+01
 21
-1.85834256E+02
  0
LINE
  8
0
 62
4
 10
-3.92500430E+01
 20
-1.86396591E+02
 11
-3.92500403E+01
 21
-1.90258075E+02
  0
LINE
  8
0
 62
4
 10
-5.62500609E+01
 20
-1.62358725E+02
 11
-5.62500437E+01
 21
-1.86396603E+02
  0
LINE
  8
0
 62
4
 10
-4.12500609E+01
 20
-1.62358725E+02
 11
-4.12500437E+01
 21
-1.86396593E+02
  0
LINE
  8
0
 62
4
 10
-5.82500430E+01
 20
-1.86396591E+02
 11
-5.82500403E+01
 21
-1.90258075E+02
  0
LINE
  8
0
 62
4
 10
-6.07500431E+01
 20
-1.91754378E+02
 11
-6.07500340E+01
 21
-2.04461617E+02
  0
LINE
  8
0
 62
4
 10
-5.82500430E+01
 20
-1.86396605E+02
 11
-3.92500430E+01
 21
-1.86396591E+02
  0
LINE
  8
0
 62
4
 10
-5.62500609E+01
 20
-1.62358725E+02
 11
-4.12500609E+01
 21
-1.62358714E+02
  0
LINE
  8
0
  6
CENTER
 62
6
 10
-5.51500398E+01
 20
-1.96397512E+02
 11
-4.23500398E+01
 21
-1.96397503E+02
  0
LINE
  8
0
  6
CENTER
 62
6
 10
-4.87500352E+01
 20
-2.02801216E+02
 11
-4.87500444E+01
 21
-1.90001216E+02
  0
LINE
  8
0
 62
4
 10
-5.77500266E+01
 20
-2.13557721E+02
 11
-5.77500266E+01
 21
-2.08997942E+02
  0
LINE
  8
0
 62
4
 10
-2.43747484E+01
 20
-2.13557721E+02
 11
-2.43747484E+01
 21
-2.08997942E+02
  0
LINE
  8
0
 62
4
 10
-5.77500266E+01
 20
-2.08997942E+02
 11
-6.07500340E+01
 21
-2.04461617E+02
  0
LINE
  8
0
 62
4
 10
-2.43747484E+01
 20
-2.08997942E+02
 11
-2.17500340E+01
 21
-2.04461589E+02
  0
LINE
  8
0
 62
4
 10
-5.77500266E+01
 20
-2.08997942E+02
 11
-2.43747484E+01
 21
-2.08997918E+02
  0
LINE
  8
0
 62
4
 10
-5.77500266E+01
 20
-2.09933545E+02
 11
-2.43747484E+01
 21
-2.09933521E+02
  0
LINE
  8
0
 62
4
 10
-5.77500266E+01
 20
-2.11804750E+02
 11
-2.43747484E+01
 21
-2.11804726E+02
  0
LINE
  8
0
 62
4
 10
-5.77500266E+01
 20
-2.12740352E+02
 11
-2.43747484E+01
 21
-2.12740329E+02
  0
POLYLINE
  8
0
 62
4
 66
1
  0
VERTEX
  8
0
 62
4
 10
-5.21500396E+01
 20
-1.96662270E+02
  0
VERTEX
  8
0
 62
4
 10
-5.21371082E+01
 20
-1.96954021E+02
  0
VERTEX
  8
0
 62
4
 10
-5.20983991E+01
 20
-1.97243551E+02
  0
VERTEX
  8
0
 62
4
 10
-5.20342070E+01
 20
-1.97528658E+02
  0
VERTEX
  8
0
 62
4
 10
-5.19450204E+01
 20
-1.97807172E+02
  0
VERTEX
  8
0
 62
4
 10
-5.18315180E+01
 20
-1.98076974E+02
  0
VERTEX
  8
0
 62
4
 10
-5.16945638E+01
 20
-1.98336009E+02
  0
VERTEX
  8
0
 62
4
 10
-5.15351999E+01
 20
-1.98582306E+02
  0
VERTEX
  8
0
 62
4
 10
-5.13546393E+01
 20
-1.98813992E+02
  0
VERTEX
  8
0
 62
4
 10
-5.11542561E+01
 20
-1.99029302E+02
  0
VERTEX
  8
0
 62
4
 10
-5.09355754E+01
 20
-1.99226598E+02
  0
VERTEX
  8
0
 62
4
 10
-5.07002614E+01
 20
-1.99404379E+02
  0
VERTEX
  8
0
 62
4
 10
-5.04501050E+01
 20
-1.99561291E+02
  0
VERTEX
  8
0
 62
4
 10
-5.01870102E+01
 20
-1.99696140E+02
  0
VERTEX
  8
0
 62
4
 10
-4.99129791E+01
 20
-1.99807901E+02
  0
VERTEX
  8
0
 62
4
 10
-4.96300973E+01
 20
-1.99895721E+02
  0
VERTEX
  8
0
 62
4
 10
-4.93405178E+01
 20
-1.99958934E+02
  0
VERTEX
  8
0
 62
4
 10
-4.90464444E+01
 20
-1.99997058E+02
  0
VERTEX
  8
0
 62
4
 10
-4.87501152E+01
 20
-2.00009803E+02
  0
VERTEX
  8
0
 62
4
 10
-4.84537853E+01
 20
-1.99997072E+02
  0
VERTEX
  8
0
 62
4
 10
-4.81597102E+01
 20
-1.99958961E+02
  0
VERTEX
  8
0
 62
4
 10
-4.78701278E+01
 20
-1.99895761E+02
  0
VERTEX
  8
0
 62
4
 10
-4.75872421E+01
 20
-1.99807953E+02
  0
VERTEX
  8
0
 62
4
 10
-4.73132060E+01
 20
-1.99696205E+02
  0
VERTEX
  8
0
 62
4
 10
-4.70501050E+01
 20
-1.99561367E+02
  0
VERTEX
  8
0
 62
4
 10
-4.67999416E+01
 20
-1.99404467E+02
  0
VERTEX
  8
0
 62
4
 10
-4.65646196E+01
 20
-1.99226696E+02
  0
VERTEX
  8
0
 62
4
 10
-4.63459300E+01
 20
-1.99029410E+02
  0
VERTEX
  8
0
 62
4
 10
-4.61455371E+01
 20
-1.98814109E+02
  0
VERTEX
  8
0
 62
4
 10
-4.59649660E+01
 20
-1.98582432E+02
  0
VERTEX
  8
0
 62
4
 10
-4.58055910E+01
 20
-1.98336142E+02
  0
VERTEX
  8
0
 62
4
 10
-4.56686251E+01
 20
-1.98077113E+02
  0
VERTEX
  8
0
 62
4
 10
-4.55551105E+01
 20
-1.97807317E+02
  0
VERTEX
  8
0
 62
4
 10
-4.54659113E+01
 20
-1.97528807E+02
  0
VERTEX
  8
0
 62
4
 10
-4.54017064E+01
 20
-1.97243702E+02
  0
VERTEX
  8
0
 62
4
 10
-4.53629842E+01
 20
-1.96954173E+02
  0
VERTEX
  8
0
 62
4
 10
-4.53500396E+01
 20
-1.96662424E+02
  0
VERTEX
  8
0
 62
4
 10
-4.53629710E+01
 20
-1.96370673E+02
  0
VERTEX
  8
0
 62
4
 10
-4.54016801E+01
 20
-1.96081143E+02
  0
VERTEX
  8
0
 62
4
 10
-4.54658722E+01
 20
-1.95796036E+02
  0
VERTEX
  8
0
 62
4
 10
-4.55550588E+01
 20
-1.95517522E+02
  0
VERTEX
  8
0
 62
4
 10
-4.56685612E+01
 20
-1.95247720E+02
  0
VERTEX
  8
0
 62
4
 10
-4.58055154E+01
 20
-1.94988685E+02
  0
VERTEX
  8
0
 62
4
 10
-4.59648793E+01
 20
-1.94742388E+02
  0
VERTEX
  8
0
 62
4
 10
-4.61454399E+01
 20
-1.94510702E+02
  0
VERTEX
  8
0
 62
4
 10
-4.63458231E+01
 20
-1.94295392E+02
  0
VERTEX
  8
0
 62
4
 10
-4.65645038E+01
 20
-1.94098096E+02
  0
VERTEX
  8
0
 62
4
 10
-4.67998178E+01
 20
-1.93920315E+02
  0
VERTEX
  8
0
 62
4
 10
-4.70499742E+01
 20
-1.93763403E+02
  0
VERTEX
  8
0
 62
4
 10
-4.73130690E+01
 20
-1.93628554E+02
  0
VERTEX
  8
0
 62
4
 10
-4.75871001E+01
 20
-1.93516793E+02
  0
VERTEX
  8
0
 62
4
 10
-4.78699819E+01
 20
-1.93428973E+02
  0
VERTEX
  8
0
 62
4
 10
-4.81595614E+01
 20
-1.93365760E+02
  0
VERTEX
  8
0
 62
4
 10
-4.84536348E+01
 20
-1.93327636E+02
  0
VERTEX
  8
0
 62
4
 10
-4.87499640E+01
 20
-1.93314891E+02
  0
VERTEX
  8
0
 62
4
 10
-4.90462939E+01
 20
-1.93327622E+02
  0
VERTEX
  8
0
 62
4
 10
-4.93403690E+01
 20
-1.93365733E+02
  0
VERTEX
  8
0
 62
4
 10
-4.96299514E+01
 20
-1.93428933E+02
  0
VERTEX
  8
0
 62
4
 10
-4.99128371E+01
 20
-1.93516741E+02
  0
VERTEX
  8
0
 62
4
 10
-5.01868732E+01
 20
-1.93628489E+02
  0
VERTEX
  8
0
 62
4
 10
-5.04499742E+01
 20
-1.93763327E+02
  0
VERTEX
  8
0
 62
4
 10
-5.07001376E+01
 20
-1.93920227E+02
  0
VERTEX
  8
0
 62
4
 10
-5.09354596E+01
 20
-1.94097998E+02
  0
VERTEX
  8
0
 62
4
 10
-5.11541492E+01
 20
-1.94295284E+02
  0
VERTEX
  8
0
 62
4
 10
-5.13545421E+01
 20
-1.94510585E+02
  0
VERTEX
  8
0
 62
4
 10
-5.15351132E+01
 20
-1.94742262E+02
  0
VERTEX
  8
0
 62
4
 10
-5.16944882E+01
 20
-1.94988552E+02
  0
VERTEX
  8
0
 62
4
 10
-5.18314541E+01
 20
-1.95247581E+02
  0
VERTEX
  8
0
 62
4
 10
-5.19449687E+01
 20
-1.95517377E+02
  0
VERTEX
  8
0
 62
4
 10
-5.20341679E+01
 20
-1.95795887E+02
  0
VERTEX
  8
0
 62
4
 10
-5.20983728E+01
 20
-1.96080992E+02
  0
VERTEX
  8
0
 62
4
 10
-5.21370950E+01
 20
-1.96370521E+02
  0
VERTEX
  8
0
 62
4
 10
-5.21500396E+01
 20
-1.96662270E+02
  0
SEQEND
  8
0
  0
POLYLINE
  8
0
 62
4
 66
1
  0
VERTEX
  8
0
 62
4
 10
-5.21490121E+01
 20
-1.96744636E+02
  0
VERTEX
  8
0
 62
4
 10
-5.21430682E+01
 20
-1.97056121E+02
  0
VERTEX
  8
0
 62
4
 10
-5.21104873E+01
 20
-1.97365839E+02
  0
VERTEX
  8
0
 62
4
 10
-5.20515250E+01
 20
-1.97671358E+02
  0
VERTEX
  8
0
 62
4
 10
-5.19666442E+01
 20
-1.97970281E+02
  0
VERTEX
  8
0
 62
4
 10
-5.18565114E+01
 20
-1.98260261E+02
  0
VERTEX
  8
0
 62
4
 10
-5.17219910E+01
 20
-1.98539021E+02
  0
VERTEX
  8
0
 62
4
 10
-5.15641393E+01
 20
-1.98804372E+02
  0
VERTEX
  8
0
 62
4
 10
-5.13841953E+01
 20
-1.99054232E+02
  0
VERTEX
  8
0
 62
4
 10
-5.11835717E+01
 20
-1.99286639E+02
  0
VERTEX
  8
0
 62
4
 10
-5.09638436E+01
 20
-1.99499769E+02
  0
VERTEX
  8
0
 62
4
 10
-5.07267360E+01
 20
-1.99691947E+02
  0
VERTEX
  8
0
 62
4
 10
-5.04741101E+01
 20
-1.99861667E+02
  0
VERTEX
  8
0
 62
4
 10
-5.02079494E+01
 20
-2.00007594E+02
  0
VERTEX
  8
0
 62
4
 10
-4.99303434E+01
 20
-2.00128584E+02
  0
VERTEX
  8
0
 62
4
 10
-4.96434713E+01
 20
-2.00223687E+02
  0
VERTEX
  8
0
 62
4
 10
-4.93495852E+01
 20
-2.00292156E+02
  0
VERTEX
  8
0
 62
4
 10
-4.90509924E+01
 20
-2.00333453E+02
  0
VERTEX
  8
0
 62
4
 10
-4.87500370E+01
 20
-2.00347255E+02
  0
VERTEX
  8
0
 62
4
 10
-4.84490816E+01
 20
-2.00333453E+02
  0
VERTEX
  8
0
 62
4
 10
-4.81504888E+01
 20
-2.00292156E+02
  0
VERTEX
  8
0
 62
4
 10
-4.78566029E+01
 20
-2.00223687E+02
  0
VERTEX
  8
0
 62
4
 10
-4.75697309E+01
 20
-2.00128584E+02
  0
VERTEX
  8
0
 62
4
 10
-4.72921250E+01
 20
-2.00007594E+02
  0
VERTEX
  8
0
 62
4
 10
-4.70259645E+01
 20
-1.99861667E+02
  0
VERTEX
  8
0
 62
4
 10
-4.67733389E+01
 20
-1.99691947E+02
  0
VERTEX
  8
0
 62
4
 10
-4.65362316E+01
 20
-1.99499769E+02
  0
VERTEX
  8
0
 62
4
 10
-4.63165038E+01
 20
-1.99286639E+02
  0
VERTEX
  8
0
 62
4
 10
-4.61158806E+01
 20
-1.99054232E+02
  0
VERTEX
  8
0
 62
4
 10
-4.59359369E+01
 20
-1.98804372E+02
  0
VERTEX
  8
0
 62
4
 10
-4.57780855E+01
 20
-1.98539021E+02
  0
VERTEX
  8
0
 62
4
 10
-4.56435656E+01
 20
-1.98260261E+02
  0
VERTEX
  8
0
 62
4
 10
-4.55334331E+01
 20
-1.97970281E+02
  0
VERTEX
  8
0
 62
4
 10
-4.54485528E+01
 20
-1.97671358E+02
  0
VERTEX
  8
0
 62
4
 10
-4.53895909E+01
 20
-1.97365839E+02
  0
VERTEX
  8
0
 62
4
 10
-4.53570104E+01
 20
-1.97056121E+02
  0
VERTEX
  8
0
 62
4
 10
-4.53510670E+01
 20
-1.96744636E+02
  0
SEQEND
  8
0
  0
POLYLINE
  8
0
 62
4
 66
1
  0
VERTEX
  8
0
 62
4
 10
-5.27500394E+01
 20
-1.97021491E+02
  0
VERTEX
  8
0
 62
4
 10
-5.27348236E+01
 20
-1.97362496E+02
  0
VERTEX
  8
0
 62
4
 10
-5.26892812E+01
 20
-1.97700906E+02
  0
VERTEX
  8
0
 62
4
 10
-5.26137587E+01
 20
-1.98034146E+02
  0
VERTEX
  8
0
 62
4
 10
-5.25088310E+01
 20
-1.98359679E+02
  0
VERTEX
  8
0
 62
4
 10
-5.23752967E+01
 20
-1.98675029E+02
  0
VERTEX
  8
0
 62
4
 10
-5.22141720E+01
 20
-1.98977794E+02
  0
VERTEX
  8
0
 62
4
 10
-5.20266831E+01
 20
-1.99265672E+02
  0
VERTEX
  8
0
 62
4
 10
-5.18142569E+01
 20
-1.99536470E+02
  0
VERTEX
  8
0
 62
4
 10
-5.15785103E+01
 20
-1.99788128E+02
  0
VERTEX
  8
0
 62
4
 10
-5.13212372E+01
 20
-2.00018731E+02
  0
VERTEX
  8
0
 62
4
 10
-5.10443958E+01
 20
-2.00226524E+02
  0
VERTEX
  8
0
 62
4
 10
-5.07500930E+01
 20
-2.00409925E+02
  0
VERTEX
  8
0
 62
4
 10
-5.04405685E+01
 20
-2.00567538E+02
  0
VERTEX
  8
0
 62
4
 10
-5.01181781E+01
 20
-2.00698165E+02
  0
VERTEX
  8
0
 62
4
 10
-4.97853753E+01
 20
-2.00800810E+02
  0
VERTEX
  8
0
 62
4
 10
-4.94446930E+01
 20
-2.00874692E+02
  0
VERTEX
  8
0
 62
4
 10
-4.90987240E+01
 20
-2.00919250E+02
  0
VERTEX
  8
0
 62
4
 10
-4.87501013E+01
 20
-2.00934144E+02
  0
VERTEX
  8
0
 62
4
 10
-4.84014781E+01
 20
-2.00919261E+02
  0
VERTEX
  8
0
 62
4
 10
-4.80555076E+01
 20
-2.00874714E+02
  0
VERTEX
  8
0
 62
4
 10
-4.77148230E+01
 20
-2.00800842E+02
  0
VERTEX
  8
0
 62
4
 10
-4.73820170E+01
 20
-2.00698208E+02
  0
VERTEX
  8
0
 62
4
 10
-4.70596224E+01
 20
-2.00567592E+02
  0
VERTEX
  8
0
 62
4
 10
-4.67500930E+01
 20
-2.00409988E+02
  0
VERTEX
  8
0
 62
4
 10
-4.64557843E+01
 20
-2.00226597E+02
  0
VERTEX
  8
0
 62
4
 10
-4.61789364E+01
 20
-2.00018813E+02
  0
VERTEX
  8
0
 62
4
 10
-4.59216560E+01
 20
-1.99788218E+02
  0
VERTEX
  8
0
 62
4
 10
-4.56859014E+01
 20
-1.99536567E+02
  0
VERTEX
  8
0
 62
4
 10
-4.54734667E+01
 20
-1.99265775E+02
  0
VERTEX
  8
0
 62
4
 10
-4.52859687E+01
 20
-1.98977904E+02
  0
VERTEX
  8
0
 62
4
 10
-4.51248344E+01
 20
-1.98675143E+02
  0
VERTEX
  8
0
 62
4
 10
-4.49912901E+01
 20
-1.98359798E+02
  0
VERTEX
  8
0
 62
4
 10
-4.48863521E+01
 20
-1.98034268E+02
  0
VERTEX
  8
0
 62
4
 10
-4.48108191E+01
 20
-1.97701030E+02
  0
VERTEX
  8
0
 62
4
 10
-4.47652660E+01
 20
-1.97362622E+02
  0
VERTEX
  8
0
 62
4
 10
-4.47500394E+01
 20
-1.97021617E+02
  0
VERTEX
  8
0
 62
4
 10
-4.47652552E+01
 20
-1.96680612E+02
  0
VERTEX
  8
0
 62
4
 10
-4.48107976E+01
 20
-1.96342202E+02
  0
VERTEX
  8
0
 62
4
 10
-4.48863201E+01
 20
-1.96008962E+02
  0
VERTEX
  8
0
 62
4
 10
-4.49912478E+01
 20
-1.95683429E+02
  0
VERTEX
  8
0
 62
4
 10
-4.51247821E+01
 20
-1.95368079E+02
  0
VERTEX
  8
0
 62
4
 10
-4.52859069E+01
 20
-1.95065314E+02
  0
VERTEX
  8
0
 62
4
 10
-4.54733957E+01
 20
-1.94777436E+02
  0
VERTEX
  8
0
 62
4
 10
-4.56858219E+01
 20
-1.94506638E+02
  0
VERTEX
  8
0
 62
4
 10
-4.59215685E+01
 20
-1.94254980E+02
  0
VERTEX
  8
0
 62
4
 10
-4.61788416E+01
 20
-1.94024377E+02
  0
VERTEX
  8
0
 62
4
 10
-4.64556830E+01
 20
-1.93816584E+02
  0
VERTEX
  8
0
 62
4
 10
-4.67499858E+01
 20
-1.93633183E+02
  0
VERTEX
  8
0
 62
4
 10
-4.70595103E+01
 20
-1.93475570E+02
  0
VERTEX
  8
0
 62
4
 10
-4.73819007E+01
 20
-1.93344943E+02
  0
VERTEX
  8
0
 62
4
 10
-4.77147035E+01
 20
-1.93242298E+02
  0
VERTEX
  8
0
 62
4
 10
-4.80553858E+01
 20
-1.93168416E+02
  0
VERTEX
  8
0
 62
4
 10
-4.84013548E+01
 20
-1.93123858E+02
  0
VERTEX
  8
0
 62
4
 10
-4.87499775E+01
 20
-1.93108964E+02
  0
VERTEX
  8
0
 62
4
 10
-4.90986007E+01
 20
-1.93123847E+02
  0
VERTEX
  8
0
 62
4
 10
-4.94445712E+01
 20
-1.93168394E+02
  0
VERTEX
  8
0
 62
4
 10
-4.97852558E+01
 20
-1.93242266E+02
  0
VERTEX
  8
0
 62
4
 10
-5.01180618E+01
 20
-1.93344900E+02
  0
VERTEX
  8
0
 62
4
 10
-5.04404564E+01
 20
-1.93475516E+02
  0
VERTEX
  8
0
 62
4
 10
-5.07499858E+01
 20
-1.93633120E+02
  0
VERTEX
  8
0
 62
4
 10
-5.10442945E+01
 20
-1.93816511E+02
  0
VERTEX
  8
0
 62
4
 10
-5.13211424E+01
 20
-1.94024295E+02
  0
VERTEX
  8
0
 62
4
 10
-5.15784228E+01
 20
-1.94254890E+02
  0
VERTEX
  8
0
 62
4
 10
-5.18141774E+01
 20
-1.94506541E+02
  0
VERTEX
  8
0
 62
4
 10
-5.20266121E+01
 20
-1.94777333E+02
  0
VERTEX
  8
0
 62
4
 10
-5.22141101E+01
 20
-1.95065204E+02
  0
VERTEX
  8
0
 62
4
 10
-5.23752444E+01
 20
-1.95367965E+02
  0
VERTEX
  8
0
 62
4
 10
-5.25087887E+01
 20
-1.95683310E+02
  0
VERTEX
  8
0
 62
4
 10
-5.26137267E+01
 20
-1.96008840E+02
  0
VERTEX
  8
0
 62
4
 10
-5.26892597E+01
 20
-1.96342078E+02
  0
VERTEX
  8
0
 62
4
 10
-5.27348128E+01
 20
-1.96680486E+02
  0
VERTEX
  8
0
 62
4
 10
-5.27500394E+01
 20
-1.97021491E+02
  0
SEQEND
  8
0
  0
LINE
  8
0
 62
6
 10
-4.70351025E+01
 20
-1.98112443E+02
 11
-5.04649771E+01
 21
-1.94682573E+02
  0
LINE
  8
0
 62
6
 10
-5.04649747E+01
 20
-1.98112445E+02
 11
-4.70351050E+01
 21
-1.94682571E+02
  0
ARC
  8
0
 62
4
 10
-2.62207928E+02
 20
-1.69785777E+02
 40
7.00000000E+00
 50
7.09816396E+01
 51
9.39142840E+01
  0
ARC
  8
0
 62
4
 10
-2.42450486E+02
 20
-1.94311003E+02
 40
9.96112687E-01
 50
2.45301420E+01
 51
1.01862685E+02
  0
ARC
  8
0
 62
4
 10
-2.41450995E+02
 20
-1.99011322E+02
 40
9.98481423E-01
 50
2.82114125E+02
 51
3.58771982E+02
  0
CIRCLE
  8
0
 62
4
 10
-2.62207928E+02
 20
-1.69785777E+02
 40
3.75000000E+00
  0
ARC
  8
0
 62
4
 10
-2.51475464E+02
 20
-2.20282857E+02
 40
1.06241099E+01
 50
7.69401406E+01
 51
1.13739125E+02
  0
ARC
  8
0
 62
4
 10
-2.47613792E+02
 20
-1.92753383E+02
 40
2.49901570E+00
 50
1.19774281E+01
 51
1.02022572E+02
  0
ARC
  8
0
 62
4
 10
-2.66199333E+02
 20
-1.96704887E+02
 40
2.50001831E+00
 50
1.02000420E+02
 51
1.91999580E+02
  0
ARC
  8
0
 62
4
 10
-2.52258795E+02
 20
-1.98831622E+02
 40
1.18077645E+01
 50
3.59024145E+02
 51
2.47266957E+01
  0
ARC
  8
0
 62
4
 10
-2.67158636E+02
 20
-2.06621011E+02
 40
5.00000533E-01
 50
1.02000061E+02
 51
1.91999939E+02
  0
LINE
  8
0
 62
4
 10
-2.44472196E+02
 20
-1.93108963E+02
 11
-2.42808902E+02
 21
-2.00934144E+02
  0
LINE
  8
0
  6
CENTER
 62
6
 10
-2.74872802E+02
 20
-2.03660174E+02
 11
-2.37771664E+02
 21
-1.95774084E+02
  0
LINE
  8
0
 62
4
 10
-2.41241454E+02
 20
-1.99987568E+02
 11
-2.42933649E+02
 21
-2.00347255E+02
  0
LINE
  8
0
 62
4
 10
-2.44347449E+02
 20
-1.93695852E+02
 11
-2.42655254E+02
 21
-1.93336165E+02
  0
LINE
  8
0
 62
4
 10
-2.43297976E+02
 20
-2.01038100E+02
 11
-2.42808902E+02
 21
-2.00934144E+02
  0
LINE
  8
0
 62
4
 10
-2.44961270E+02
 20
-1.93212919E+02
 11
-2.44472196E+02
 21
-1.93108963E+02
  0
LINE
  8
0
 62
4
 10
-2.60912987E+02
 20
-1.63377492E+02
 11
-2.56120064E+02
 21
-1.62358725E+02
  0
LINE
  8
0
 62
4
 10
-2.63768038E+02
 20
-1.62450841E+02
 11
-2.56630410E+02
 21
-1.64767468E+02
  0
LINE
  8
0
 62
4
 10
-2.67784912E+02
 20
-1.74816209E+02
 11
-2.60647284E+02
 21
-1.77132836E+02
  0
LINE
  8
0
 62
4
 10
-2.56630410E+02
 20
-1.64767468E+02
 11
-2.55068993E+02
 21
-1.72113357E+02
  0
LINE
  8
0
 62
4
 10
-2.69346329E+02
 20
-1.67470320E+02
 11
-2.67784912E+02
 21
-1.74816209E+02
  0
LINE
  8
0
 62
4
 10
-2.69346329E+02
 20
-1.67470320E+02
 11
-2.63768038E+02
 21
-1.62450841E+02
  0
LINE
  8
0
 62
4
 10
-2.60647284E+02
 20
-1.77132836E+02
 11
-2.55068993E+02
 21
-1.72113357E+02
  0
LINE
  8
0
 62
4
 10
-2.53807143E+02
 20
-1.99693700E+02
 11
-2.53287364E+02
 21
-2.02139069E+02
  0
LINE
  8
0
 62
4
 10
-2.57719734E+02
 20
-2.00525347E+02
 11
-2.57199954E+02
 21
-2.02970716E+02
  0
LINE
  8
0
 62
4
 10
-2.57199954E+02
 20
-2.02970716E+02
 11
-2.53287364E+02
 21
-2.02139069E+02
  0
LINE
  8
0
 62
4
 10
-2.57719734E+02
 20
-2.00525347E+02
 11
-2.53807143E+02
 21
-1.99693700E+02
  0
LINE
  8
0
 62
4
 10
-2.66357695E+02
 20
-2.07984276E+02
 11
-2.42882153E+02
 21
-2.02994395E+02
  0
LINE
  8
0
 62
4
 10
-2.49074746E+02
 20
-2.09933545E+02
 11
-2.44673081E+02
 21
-2.08997942E+02
  0
LINE
  8
0
 62
4
 10
-2.42570285E+02
 20
-2.04461617E+02
 11
-2.44673081E+02
 21
-2.08997942E+02
  0
LINE
  8
0
 62
4
 10
-2.66045828E+02
 20
-2.09451497E+02
 11
-2.64779136E+02
 21
-2.10557675E+02
  0
LINE
  8
0
 62
4
 10
-2.68644724E+02
 20
-1.97224652E+02
 11
-2.66045828E+02
 21
-2.09451497E+02
  0
LINE
  8
0
 62
4
 10
-2.45169181E+02
 20
-1.92234771E+02
 11
-2.42570285E+02
 21
-2.04461617E+02
  0
LINE
  8
0
 62
4
 10
-2.66045828E+02
 20
-2.09451497E+02
 11
-2.42570285E+02
 21
-2.04461617E+02
  0
LINE
  8
0
 62
4
 10
-2.66719134E+02
 20
-1.94259504E+02
 11
-2.48134330E+02
 21
-1.90309182E+02
  0
LINE
  8
0
 62
4
 10
-2.67550781E+02
 20
-1.90346913E+02
 11
-2.66719134E+02
 21
-1.94259504E+02
  0
LINE
  8
0
 62
4
 10
-2.48965976E+02
 20
-1.86396591E+02
 11
-2.48134330E+02
 21
-1.90309182E+02
  0
LINE
  8
0
 62
4
 10
-2.65802397E+02
 20
-1.88952942E+02
 11
-2.51130183E+02
 21
-1.85834267E+02
  0
LINE
  8
0
 62
4
 10
-2.67550781E+02
 20
-1.90346913E+02
 11
-2.48965976E+02
 21
-1.86396591E+02
  0
LINE
  8
0
 62
4
 10
-2.70792278E+02
 20
-1.65477400E+02
 11
-2.65594486E+02
 21
-1.89931090E+02
  0
LINE
  8
0
 62
4
 10
-2.56120064E+02
 20
-1.62358725E+02
 11
-2.50922272E+02
 21
-1.86812415E+02
  0
LINE
  8
0
 62
4
 10
-2.70792278E+02
 20
-1.65477400E+02
 11
-2.66009136E+02
 21
-1.64460712E+02
  0
LINE
  8
0
 62
6
 10
-2.81958198E+02
 20
-2.19468766E+02
 11
-2.79847987E+02
 21
-2.19020227E+02
  0
LINE
  8
0
 62
4
 10
-2.80252360E+02
 20
-2.22684371E+02
 11
-2.81284564E+02
 21
-2.22637965E+02
  0
LINE
  8
0
 62
4
 10
-2.81081927E+02
 20
-2.18781562E+02
 11
-2.82006018E+02
 21
-2.19243792E+02
  0
LINE
  8
0
 62
4
 10
-2.82006018E+02
 20
-2.19243792E+02
 11
-2.81284564E+02
 21
-2.22637965E+02
  0
LINE
  8
0
 62
4
 10
-2.80252360E+02
 20
-2.22684371E+02
 11
-2.79120296E+02
 21
-2.22443744E+02
  0
LINE
  8
0
 62
4
 10
-2.81081927E+02
 20
-2.18781562E+02
 11
-2.79949864E+02
 21
-2.18540935E+02
  0
LINE
  8
0
 62
6
 10
-2.81334463E+02
 20
-2.22403209E+02
 11
-2.79224252E+02
 21
-2.21954670E+02
  0
LINE
  8
0
  6
CENTER
 62
6
 10
-2.82852040E+02
 20
-2.21192269E+02
 11
-2.78750061E+02
 21
-2.20320367E+02
  0
LINE
  8
0
 62
4
 10
-2.75389251E+02
 20
-1.99169416E+02
 11
-2.80633773E+02
 21
-2.15323396E+02
  0
LINE
  8
0
 62
4
 10
-2.80633773E+02
 20
-2.15323396E+02
 11
-2.78750061E+02
 21
-2.24185564E+02
  0
LINE
  8
0
 62
4
 10
-2.67647710E+02
 20
-2.06724966E+02
 11
-2.66833043E+02
 21
-2.10557675E+02
  0
LINE
  8
0
 62
4
 10
-2.67262592E+02
 20
-2.06131936E+02
 11
-2.66773519E+02
 21
-2.06027980E+02
  0
LINE
  8
0
 62
4
 10
-2.75389251E+02
 20
-1.99169416E+02
 11
-2.68540768E+02
 21
-1.97713726E+02
  0
ARC
  8
0
 62
4
 10
-2.62207928E+02
 20
-1.69785777E+02
 40
7.00000000E+00
 50
1.10107658E+02
 51
1.33018360E+02
  0
LINE
  8
0
 62
4
 10
9.22336118E+01
 20
-1.99169416E+02
 11
9.74781333E+01
 21
-2.15323396E+02
  0
ARC
  8
0
 62
4
 10
7.90532338E+01
 20
-1.69785832E+02
 40
7.00000000E+00
 50
4.69793705E+01
 51
1.09020630E+02
  0
LINE
  8
0
 62
4
 10
9.22336118E+01
 20
-1.99169416E+02
 11
8.53851284E+01
 21
-1.97713726E+02
  0
LINE
  8
0
 62
4
 10
8.41069528E+01
 20
-2.06131936E+02
 11
8.36178790E+01
 21
-2.06027980E+02
  0
LINE
  8
0
 62
4
 10
8.44920708E+01
 20
-2.06724966E+02
 11
8.36774033E+01
 21
-2.10557675E+02
  0
LINE
  8
0
 62
4
 10
7.29644243E+01
 20
-1.62358725E+02
 11
8.76366383E+01
 21
-1.65477400E+02
  0
LINE
  8
0
 62
4
 10
7.29644243E+01
 20
-1.62358725E+02
 11
6.77666320E+01
 21
-1.86812415E+02
  0
LINE
  8
0
 62
4
 10
8.76366383E+01
 20
-1.65477400E+02
 11
8.24388460E+01
 21
-1.89931090E+02
  0
LINE
  8
0
 62
4
 10
8.43951412E+01
 20
-1.90346913E+02
 11
6.58103368E+01
 21
-1.86396591E+02
  0
LINE
  8
0
 62
4
 10
8.26467577E+01
 20
-1.88952942E+02
 11
6.79745437E+01
 21
-1.85834267E+02
  0
LINE
  8
0
 62
4
 10
6.58103368E+01
 20
-1.86396591E+02
 11
6.49786901E+01
 21
-1.90309182E+02
  0
LINE
  8
0
 62
4
 10
8.43951412E+01
 20
-1.90346913E+02
 11
8.35634945E+01
 21
-1.94259504E+02
  0
LINE
  8
0
 62
4
 10
8.35634945E+01
 20
-1.94259504E+02
 11
6.49786901E+01
 21
-1.90309182E+02
  0
LINE
  8
0
 62
4
 10
8.28901881E+01
 20
-2.09451497E+02
 11
5.94146457E+01
 21
-2.04461617E+02
  0
LINE
  8
0
 62
4
 10
6.20135418E+01
 20
-1.92234771E+02
 11
5.94146457E+01
 21
-2.04461617E+02
  0
LINE
  8
0
 62
4
 10
8.54890842E+01
 20
-1.97224652E+02
 11
8.28901881E+01
 21
-2.09451497E+02
  0
LINE
  8
0
 62
4
 10
8.28901881E+01
 20
-2.09451497E+02
 11
8.16234966E+01
 21
-2.10557675E+02
  0
LINE
  8
0
 62
4
 10
5.94146457E+01
 20
-2.04461617E+02
 11
6.15174417E+01
 21
-2.08997942E+02
  0
LINE
  8
0
 62
4
 10
6.59191059E+01
 20
-2.09933545E+02
 11
6.15174417E+01
 21
-2.08997942E+02
  0
LINE
  8
0
 62
4
 10
8.32020556E+01
 20
-2.07984276E+02
 11
5.97265132E+01
 21
-2.02994395E+02
  0
LINE
  8
0
 62
4
 10
7.45640939E+01
 20
-2.00525347E+02
 11
7.06515035E+01
 21
-1.99693700E+02
  0
LINE
  8
0
 62
4
 10
7.40443147E+01
 20
-2.02970716E+02
 11
7.01317243E+01
 21
-2.02139069E+02
  0
LINE
  8
0
 62
4
 10
7.45640939E+01
 20
-2.00525347E+02
 11
7.40443147E+01
 21
-2.02970716E+02
  0
LINE
  8
0
 62
4
 10
7.06515035E+01
 20
-1.99693700E+02
 11
7.01317243E+01
 21
-2.02139069E+02
  0
LINE
  8
0
 62
4
 10
8.14582389E+01
 20
-1.63211948E+02
 11
8.06123988E+01
 21
-1.62450841E+02
  0
LINE
  8
0
 62
4
 10
8.06123988E+01
 20
-1.62450841E+02
 11
7.95301606E+01
 21
-1.62802098E+02
  0
LINE
  8
0
 62
4
 10
6.18056301E+01
 20
-1.93212919E+02
 11
6.13165563E+01
 21
-1.93108963E+02
  0
LINE
  8
0
 62
4
 10
6.01423366E+01
 20
-2.01038100E+02
 11
5.96532628E+01
 21
-2.00934144E+02
  0
LINE
  8
0
 62
4
 10
6.11918093E+01
 20
-1.93695852E+02
 11
5.94996140E+01
 21
-1.93336165E+02
  0
LINE
  8
0
 62
4
 10
5.80858145E+01
 20
-1.99987568E+02
 11
5.97780098E+01
 21
-2.00347255E+02
  0
LINE
  8
0
  6
CENTER
 62
6
 10
9.17171625E+01
 20
-2.03660174E+02
 11
5.46160240E+01
 21
-1.95774084E+02
  0
LINE
  8
0
 62
4
 10
6.13165563E+01
 20
-1.93108963E+02
 11
5.96532628E+01
 21
-2.00934144E+02
  0
ARC
  8
0
 62
4
 10
8.40029963E+01
 20
-2.06621011E+02
 40
5.00000533E-01
 50
3.48000061E+02
 51
7.79999389E+01
  0
ARC
  8
0
 62
4
 10
6.91031552E+01
 20
-1.98831622E+02
 40
1.18077645E+01
 50
1.55273304E+02
 51
1.80975855E+02
  0
ARC
  8
0
 62
4
 10
8.30436935E+01
 20
-1.96704887E+02
 40
2.50001831E+00
 50
3.48000420E+02
 51
7.79995802E+01
  0
ARC
  8
0
 62
4
 10
6.44581525E+01
 20
-1.92753383E+02
 40
2.49901570E+00
 50
7.79774280E+01
 51
1.68022572E+02
  0
ARC
  8
0
 62
4
 10
6.83198244E+01
 20
-2.20282857E+02
 40
1.06241099E+01
 50
6.62608748E+01
 51
1.03059860E+02
  0
ARC
  8
0
 62
4
 10
5.82953554E+01
 20
-1.99011322E+02
 40
9.98481423E-01
 50
1.81228019E+02
 51
2.57885875E+02
  0
ARC
  8
0
 62
4
 10
5.92948462E+01
 20
-1.94311003E+02
 40
9.96112687E-01
 50
7.81373153E+01
 51
1.55469858E+02
  0
LINE
  8
0
 62
4
 10
7.75503878E+01
 20
-1.91959038E+02
 11
7.76946092E+01
 21
-1.93012034E+02
  0
LINE
  8
0
 62
4
 10
7.08475760E+01
 20
-1.91556652E+02
 11
7.14076208E+01
 21
-1.90653353E+02
  0
LINE
  8
0
  6
CENTER
 62
6
 10
7.48298049E+01
 20
-1.89655808E+02
 11
7.39613042E+01
 21
-1.93741783E+02
  0
LINE
  8
0
 62
4
 10
7.14076208E+01
 20
-1.90653353E+02
 11
7.75503878E+01
 21
-1.91959038E+02
  0
LINE
  8
0
 62
4
 10
9.74781333E+01
 20
-2.15323396E+02
 11
9.55488333E+01
 21
-2.24400039E+02
  0
LINE
  8
0
  6
CENTER
 62
6
 10
9.96964004E+01
 20
-2.21192269E+02
 11
9.55944214E+01
 21
-2.20320367E+02
  0
LINE
  8
0
 62
6
 10
9.81788236E+01
 20
-2.22403209E+02
 11
9.60686125E+01
 21
-2.21954670E+02
  0
LINE
  8
0
 62
4
 10
9.79262878E+01
 20
-2.18781562E+02
 11
9.67942243E+01
 21
-2.18540935E+02
  0
LINE
  8
0
 62
4
 10
9.70967202E+01
 20
-2.22684371E+02
 11
9.59646566E+01
 21
-2.22443744E+02
  0
LINE
  8
0
 62
4
 10
9.88503784E+01
 20
-2.19243792E+02
 11
9.81289248E+01
 21
-2.22637965E+02
  0
LINE
  8
0
 62
4
 10
9.79262878E+01
 20
-2.18781562E+02
 11
9.88503784E+01
 21
-2.19243792E+02
  0
LINE
  8
0
 62
4
 10
9.70967202E+01
 20
-2.22684371E+02
 11
9.81289248E+01
 21
-2.22637965E+02
  0
LINE
  8
0
 62
6
 10
9.88025587E+01
 20
-2.19468766E+02
 11
9.66923476E+01
 21
-2.19020227E+02
  0
LINE
  8
0
  6
CENTER
 62
6
 10
-4.87499487E+01
 20
-6.14742264E+01
 11
-4.87499487E+01
 21
-1.15191746E+02
  0
ARC
  8
0
 62
4
 10
-5.92504523E+01
 20
-1.02119248E+02
 40
1.49949647E+00
 50
1.79980757E+02
 51
2.70019243E+02
  0
ARC
  8
0
 62
4
 10
-2.32494489E+01
 20
-1.02119245E+02
 40
1.49950029E+00
 50
2.69980903E+02
 51
1.90971113E-02
  0
ARC
  8
0
 62
4
 10
-6.52504484E+01
 20
-9.36002776E+01
 40
4.99500622E-01
 50
1.79942690E+02
 51
2.70057311E+02
  0
ARC
  8
0
 62
4
 10
-2.32504525E+01
 20
-8.21088579E+01
 40
1.50050386E+00
 50
1.92364101E-02
 51
8.99807637E+01
  0
LINE
  8
0
 62
4
 10
-3.92499487E+01
 20
-8.17569247E+01
 11
-4.12499487E+01
 21
-8.17569247E+01
  0
LINE
  8
0
 62
4
 10
-5.92499487E+01
 20
-1.03618745E+02
 11
-2.32499487E+01
 21
-1.03618745E+02
  0
LINE
  8
0
 62
4
 10
-5.82499487E+01
 20
-1.00341729E+02
 11
-3.92499487E+01
 21
-1.00341729E+02
  0
LINE
  8
0
 62
4
 10
-5.62499487E+01
 20
-6.86739326E+01
 11
-5.62499487E+01
 21
-9.83854339E+01
  0
LINE
  8
0
 62
4
 10
-5.82499487E+01
 20
-9.40997780E+01
 11
-5.82499487E+01
 21
-1.01173376E+02
  0
LINE
  8
0
 62
4
 10
-6.07499487E+01
 20
-1.05237420E+02
 11
-6.07499487E+01
 21
-9.40997780E+01
  0
LINE
  8
0
 62
4
 10
-3.92499487E+01
 20
-8.17569247E+01
 11
-3.92499487E+01
 21
-1.01173376E+02
  0
LINE
  8
0
 62
4
 10
-2.17499487E+01
 20
-8.21088579E+01
 11
-2.17499487E+01
 21
-1.05237420E+02
  0
LINE
  8
0
 62
4
 10
-7.57499487E+01
 20
-7.99613765E+01
 11
-7.07499487E+01
 21
-7.99613765E+01
  0
LINE
  8
0
 62
4
 10
-5.62499487E+01
 20
-9.31876416E+01
 11
-4.12499487E+01
 21
-9.31876416E+01
  0
LINE
  8
0
 62
4
 10
-5.62499487E+01
 20
-7.85154276E+01
 11
-4.12499487E+01
 21
-7.85154276E+01
  0
LINE
  8
0
 62
4
 10
-4.12499487E+01
 20
-9.83854339E+01
 11
-4.12499487E+01
 21
-6.86739326E+01
  0
LINE
  8
0
 62
4
 10
-6.92499487E+01
 20
-9.28497780E+01
 11
-6.57499487E+01
 21
-9.28497780E+01
  0
LINE
  8
0
 62
4
 10
-6.92499487E+01
 20
-8.13497780E+01
 11
-6.57499487E+01
 21
-8.13497780E+01
  0
LINE
  8
0
 62
4
 10
-6.92499487E+01
 20
-8.08497780E+01
 11
-6.92499487E+01
 21
-9.33497780E+01
  0
LINE
  8
0
 62
4
 10
-7.07499487E+01
 20
-9.33497780E+01
 11
-6.57499487E+01
 21
-9.33497780E+01
  0
LINE
  8
0
 62
4
 10
-7.07499487E+01
 20
-8.08497780E+01
 11
-6.57499487E+01
 21
-8.08497780E+01
  0
LINE
  8
0
 62
4
 10
-7.07499487E+01
 20
-7.99613765E+01
 11
-7.07499487E+01
 21
-9.42387121E+01
  0
LINE
  8
0
 62
4
 10
-7.57499487E+01
 20
-7.99613765E+01
 11
-7.57499487E+01
 21
-9.42387121E+01
  0
LINE
  8
0
 62
4
 10
-6.52499487E+01
 20
-9.40997780E+01
 11
-5.62499487E+01
 21
-9.40997780E+01
  0
LINE
  8
0
 62
4
 10
-5.21499487E+01
 20
-1.07591113E+02
 11
-5.21499487E+01
 21
-1.05667156E+02
  0
LINE
  8
0
 62
4
 10
-4.53499487E+01
 20
-1.05667156E+02
 11
-4.53499487E+01
 21
-1.07591113E+02
  0
LINE
  8
0
 62
4
 10
-5.27499487E+01
 20
-1.05667156E+02
 11
-5.27499487E+01
 21
-1.05178083E+02
  0
LINE
  8
0
 62
4
 10
-4.47499487E+01
 20
-1.05178083E+02
 11
-4.47499487E+01
 21
-1.05667156E+02
  0
LINE
  8
0
 62
6
 10
-5.12499487E+01
 20
-6.73016875E+01
 11
-5.12499487E+01
 21
-6.86739326E+01
  0
LINE
  8
0
 62
4
 10
-5.47499487E+01
 20
-6.83016875E+01
 11
-5.44899487E+01
 21
-6.73016875E+01
  0
LINE
  8
0
 62
4
 10
-5.07499487E+01
 20
-6.83016875E+01
 11
-5.10199487E+01
 21
-6.73016875E+01
  0
LINE
  8
0
 62
4
 10
-5.10199487E+01
 20
-6.73016875E+01
 11
-5.44899487E+01
 21
-6.73016875E+01
  0
LINE
  8
0
 62
4
 10
-5.47499487E+01
 20
-6.83016875E+01
 11
-5.47499487E+01
 21
-6.86739326E+01
  0
LINE
  8
0
 62
4
 10
-5.07499487E+01
 20
-6.83016875E+01
 11
-5.07499487E+01
 21
-6.86739326E+01
  0
LINE
  8
0
 62
6
 10
-5.42499487E+01
 20
-6.73016875E+01
 11
-5.42499487E+01
 21
-6.86739326E+01
  0
LINE
  8
0
  6
CENTER
 62
6
 10
-5.27499487E+01
 20
-6.60416875E+01
 11
-5.27499487E+01
 21
-7.65416875E+01
  0
LINE
  8
0
 62
4
 10
-4.12499487E+01
 20
-6.86739326E+01
 11
-5.62499487E+01
 21
-6.86739326E+01
  0
LINE
  8
0
 62
4
 10
-4.22499487E+01
 20
-7.39184541E+01
 11
-5.52499487E+01
 21
-7.39184541E+01
  0
LINE
  8
0
 62
6
 10
-4.62499487E+01
 20
-6.73016875E+01
 11
-4.62499487E+01
 21
-6.86739326E+01
  0
LINE
  8
0
 62
6
 10
-4.32499487E+01
 20
-6.73016875E+01
 11
-4.32499487E+01
 21
-6.86739326E+01
  0
LINE
  8
0
 62
4
 10
-4.67499487E+01
 20
-6.83016875E+01
 11
-4.64899487E+01
 21
-6.73016875E+01
  0
LINE
  8
0
 62
4
 10
-4.27499487E+01
 20
-6.83016875E+01
 11
-4.30199487E+01
 21
-6.73016875E+01
  0
LINE
  8
0
 62
4
 10
-4.30199487E+01
 20
-6.73016875E+01
 11
-4.64899487E+01
 21
-6.73016875E+01
  0
LINE
  8
0
 62
4
 10
-4.67499487E+01
 20
-6.83016875E+01
 11
-4.67499487E+01
 21
-6.86739326E+01
  0
LINE
  8
0
 62
4
 10
-4.27499487E+01
 20
-6.83016875E+01
 11
-4.27499487E+01
 21
-6.86739326E+01
  0
LINE
  8
0
  6
CENTER
 62
6
 10
-4.47499487E+01
 20
-6.60416875E+01
 11
-4.47499487E+01
 21
-7.65416875E+01
  0
LINE
  8
0
 62
4
 10
-4.12499487E+01
 20
-8.06083541E+01
 11
-2.32499487E+01
 21
-8.06083541E+01
  0
LINE
  8
0
 62
4
 10
-7.57499487E+01
 20
-8.55396671E+01
 11
-7.07499487E+01
 21
-8.55396671E+01
  0
LINE
  8
0
 62
4
 10
-7.57499487E+01
 20
-9.26772953E+01
 11
-7.07499487E+01
 21
-9.26772953E+01
  0
LINE
  8
0
 62
4
 10
-5.62499487E+01
 20
-8.00997780E+01
 11
-6.52499487E+01
 21
-8.00997780E+01
  0
ARC
  8
0
 62
4
 10
-6.52494486E+01
 20
-8.06002781E+01
 40
5.00500378E-01
 50
9.00572530E+01
 51
1.79942747E+02
  0
LINE
  8
0
 62
4
 10
-6.57499487E+01
 20
-8.05997780E+01
 11
-6.57499487E+01
 21
-9.35997780E+01
  0
LINE
  8
0
 62
4
 10
-7.57499488E+01
 20
-9.42387121E+01
 11
-7.07499488E+01
 21
-9.42387121E+01
  0
LINE
  8
0
 62
4
 10
-5.62499488E+01
 20
-9.83854339E+01
 11
-4.12499488E+01
 21
-9.83854339E+01
  0
LINE
  8
0
  6
CENTER
 62
6
 10
-3.76992973E+01
 20
-9.16730616E+01
 11
-2.78006002E+01
 21
-9.16730616E+01
  0
POLYLINE
  8
0
 62
4
 66
1
  0
VERTEX
  8
0
 62
4
 10
-4.57499487E+01
 20
-8.58515346E+01
  0
VERTEX
  8
0
 62
4
 10
-4.57613646E+01
 20
-8.55957811E+01
  0
VERTEX
  8
0
 62
4
 10
-4.57955254E+01
 20
-8.53419740E+01
  0
VERTEX
  8
0
 62
4
 10
-4.58521712E+01
 20
-8.50920449E+01
  0
VERTEX
  8
0
 62
4
 10
-4.59308708E+01
 20
-8.48478961E+01
  0
VERTEX
  8
0
 62
4
 10
-4.60310253E+01
 20
-8.46113855E+01
  0
VERTEX
  8
0
 62
4
 10
-4.61518725E+01
 20
-8.43843132E+01
  0
VERTEX
  8
0
 62
4
 10
-4.62924926E+01
 20
-8.41684074E+01
  0
VERTEX
  8
0
 62
4
 10
-4.64518154E+01
 20
-8.39653111E+01
  0
VERTEX
  8
0
 62
4
 10
-4.66286284E+01
 20
-8.37765702E+01
  0
VERTEX
  8
0
 62
4
 10
-4.68215859E+01
 20
-8.36036210E+01
  0
VERTEX
  8
0
 62
4
 10
-4.70292194E+01
 20
-8.34477798E+01
  0
VERTEX
  8
0
 62
4
 10
-4.72499487E+01
 20
-8.33102326E+01
  0
VERTEX
  8
0
 62
4
 10
-4.74820939E+01
 20
-8.31920262E+01
  0
VERTEX
  8
0
 62
4
 10
-4.77238883E+01
 20
-8.30940604E+01
  0
VERTEX
  8
0
 62
4
 10
-4.79734916E+01
 20
-8.30170805E+01
  0
VERTEX
  8
0
 62
4
 10
-4.82290042E+01
 20
-8.29616726E+01
  0
VERTEX
  8
0
 62
4
 10
-4.84884815E+01
 20
-8.29282582E+01
  0
VERTEX
  8
0
 62
4
 10
-4.87499487E+01
 20
-8.29170918E+01
  0
VERTEX
  8
0
 62
4
 10
-4.90114159E+01
 20
-8.29282582E+01
  0
VERTEX
  8
0
 62
4
 10
-4.92708932E+01
 20
-8.29616726E+01
  0
VERTEX
  8
0
 62
4
 10
-4.95264058E+01
 20
-8.30170805E+01
  0
VERTEX
  8
0
 62
4
 10
-4.97760091E+01
 20
-8.30940604E+01
  0
VERTEX
  8
0
 62
4
 10
-5.00178035E+01
 20
-8.31920262E+01
  0
VERTEX
  8
0
 62
4
 10
-5.02499487E+01
 20
-8.33102326E+01
  0
VERTEX
  8
0
 62
4
 10
-5.04706780E+01
 20
-8.34477798E+01
  0
VERTEX
  8
0
 62
4
 10
-5.06783115E+01
 20
-8.36036210E+01
  0
VERTEX
  8
0
 62
4
 10
-5.08712690E+01
 20
-8.37765702E+01
  0
VERTEX
  8
0
 62
4
 10
-5.10480820E+01
 20
-8.39653111E+01
  0
VERTEX
  8
0
 62
4
 10
-5.12074048E+01
 20
-8.41684074E+01
  0
VERTEX
  8
0
 62
4
 10
-5.13480249E+01
 20
-8.43843132E+01
  0
VERTEX
  8
0
 62
4
 10
-5.14688721E+01
 20
-8.46113855E+01
  0
VERTEX
  8
0
 62
4
 10
-5.15690266E+01
 20
-8.48478961E+01
  0
VERTEX
  8
0
 62
4
 10
-5.16477262E+01
 20
-8.50920449E+01
  0
VERTEX
  8
0
 62
4
 10
-5.17043720E+01
 20
-8.53419740E+01
  0
VERTEX
  8
0
 62
4
 10
-5.17385328E+01
 20
-8.55957811E+01
  0
VERTEX
  8
0
 62
4
 10
-5.17499487E+01
 20
-8.58515346E+01
  0
VERTEX
  8
0
 62
4
 10
-5.17385328E+01
 20
-8.61072881E+01
  0
VERTEX
  8
0
 62
4
 10
-5.17043720E+01
 20
-8.63610952E+01
  0
VERTEX
  8
0
 62
4
 10
-5.16477262E+01
 20
-8.66110243E+01
  0
VERTEX
  8
0
 62
4
 10
-5.15690266E+01
 20
-8.68551732E+01
  0
VERTEX
  8
0
 62
4
 10
-5.14688721E+01
 20
-8.70916837E+01
  0
VERTEX
  8
0
 62
4
 10
-5.13480249E+01
 20
-8.73187560E+01
  0
VERTEX
  8
0
 62
4
 10
-5.12074048E+01
 20
-8.75346618E+01
  0
VERTEX
  8
0
 62
4
 10
-5.10480820E+01
 20
-8.77377581E+01
  0
VERTEX
  8
0
 62
4
 10
-5.08712690E+01
 20
-8.79264990E+01
  0
VERTEX
  8
0
 62
4
 10
-5.06783115E+01
 20
-8.80994482E+01
  0
VERTEX
  8
0
 62
4
 10
-5.04706780E+01
 20
-8.82552894E+01
  0
VERTEX
  8
0
 62
4
 10
-5.02499487E+01
 20
-8.83928366E+01
  0
VERTEX
  8
0
 62
4
 10
-5.00178035E+01
 20
-8.85110430E+01
  0
VERTEX
  8
0
 62
4
 10
-4.97760091E+01
 20
-8.86090088E+01
  0
VERTEX
  8
0
 62
4
 10
-4.95264058E+01
 20
-8.86859887E+01
  0
VERTEX
  8
0
 62
4
 10
-4.92708932E+01
 20
-8.87413966E+01
  0
VERTEX
  8
0
 62
4
 10
-4.90114159E+01
 20
-8.87748110E+01
  0
VERTEX
  8
0
 62
4
 10
-4.87499487E+01
 20
-8.87859774E+01
  0
VERTEX
  8
0
 62
4
 10
-4.84884815E+01
 20
-8.87748110E+01
  0
VERTEX
  8
0
 62
4
 10
-4.82290042E+01
 20
-8.87413966E+01
  0
VERTEX
  8
0
 62
4
 10
-4.79734916E+01
 20
-8.86859887E+01
  0
VERTEX
  8
0
 62
4
 10
-4.77238883E+01
 20
-8.86090088E+01
  0
VERTEX
  8
0
 62
4
 10
-4.74820939E+01
 20
-8.85110430E+01
  0
VERTEX
  8
0
 62
4
 10
-4.72499487E+01
 20
-8.83928366E+01
  0
VERTEX
  8
0
 62
4
 10
-4.70292194E+01
 20
-8.82552894E+01
  0
VERTEX
  8
0
 62
4
 10
-4.68215859E+01
 20
-8.80994482E+01
  0
VERTEX
  8
0
 62
4
 10
-4.66286284E+01
 20
-8.79264990E+01
  0
VERTEX
  8
0
 62
4
 10
-4.64518154E+01
 20
-8.77377581E+01
  0
VERTEX
  8
0
 62
4
 10
-4.62924926E+01
 20
-8.75346618E+01
  0
VERTEX
  8
0
 62
4
 10
-4.61518725E+01
 20
-8.73187560E+01
  0
VERTEX
  8
0
 62
4
 10
-4.60310253E+01
 20
-8.70916837E+01
  0
VERTEX
  8
0
 62
4
 10
-4.59308708E+01
 20
-8.68551731E+01
  0
VERTEX
  8
0
 62
4
 10
-4.58521712E+01
 20
-8.66110243E+01
  0
VERTEX
  8
0
 62
4
 10
-4.57955254E+01
 20
-8.63610952E+01
  0
VERTEX
  8
0
 62
4
 10
-4.57613646E+01
 20
-8.61072881E+01
  0
VERTEX
  8
0
 62
4
 10
-4.57499487E+01
 20
-8.58515346E+01
  0
SEQEND
  8
0
  0
LINE
  8
0
  6
CENTER
 62
6
 10
-3.27499487E+01
 20
-8.67237131E+01
 11
-3.27499487E+01
 21
-9.66224102E+01
  0
LINE
  8
0
  6
CENTER
 62
6
 10
-5.37990337E+01
 20
-8.58515346E+01
 11
-4.37008639E+01
 21
-8.58515346E+01
  0
POLYLINE
  8
0
 62
4
 66
1
  0
VERTEX
  8
0
 62
4
 10
-4.53499487E+01
 20
-1.06105253E+02
  0
VERTEX
  8
0
 62
4
 10
-4.51768967E+01
 20
-1.06041010E+02
  0
VERTEX
  8
0
 62
4
 10
-4.50318537E+01
 20
-1.05973836E+02
  0
VERTEX
  8
0
 62
4
 10
-4.49159569E+01
 20
-1.05904258E+02
  0
VERTEX
  8
0
 62
4
 10
-4.48301146E+01
 20
-1.05832821E+02
  0
VERTEX
  8
0
 62
4
 10
-4.47749998E+01
 20
-1.05760086E+02
  0
VERTEX
  8
0
 62
4
 10
-4.47510446E+01
 20
-1.05686622E+02
  0
VERTEX
  8
0
 62
4
 10
-4.47584368E+01
 20
-1.05613006E+02
  0
VERTEX
  8
0
 62
4
 10
-4.47971183E+01
 20
-1.05539814E+02
  0
VERTEX
  8
0
 62
4
 10
-4.48667860E+01
 20
-1.05467621E+02
  0
VERTEX
  8
0
 62
4
 10
-4.49668937E+01
 20
-1.05396991E+02
  0
VERTEX
  8
0
 62
4
 10
-4.50966568E+01
 20
-1.05328480E+02
  0
VERTEX
  8
0
 62
4
 10
-4.52550579E+01
 20
-1.05262623E+02
  0
VERTEX
  8
0
 62
4
 10
-4.54408554E+01
 20
-1.05199937E+02
  0
VERTEX
  8
0
 62
4
 10
-4.56525929E+01
 20
-1.05140914E+02
  0
VERTEX
  8
0
 62
4
 10
-4.58886105E+01
 20
-1.05086016E+02
  0
VERTEX
  8
0
 62
4
 10
-4.61470580E+01
 20
-1.05035674E+02
  0
VERTEX
  8
0
 62
4
 10
-4.64259096E+01
 20
-1.04990282E+02
  0
VERTEX
  8
0
 62
4
 10
-4.67229792E+01
 20
-1.04950195E+02
  0
VERTEX
  8
0
 62
4
 10
-4.70359383E+01
 20
-1.04915729E+02
  0
VERTEX
  8
0
 62
4
 10
-4.73623334E+01
 20
-1.04887154E+02
  0
VERTEX
  8
0
 62
4
 10
-4.76996061E+01
 20
-1.04864693E+02
  0
VERTEX
  8
0
 62
4
 10
-4.80451123E+01
 20
-1.04848522E+02
  0
VERTEX
  8
0
 62
4
 10
-4.83961438E+01
 20
-1.04838769E+02
  0
VERTEX
  8
0
 62
4
 10
-4.87499487E+01
 20
-1.04835509E+02
  0
VERTEX
  8
0
 62
4
 10
-4.91037536E+01
 20
-1.04838769E+02
  0
VERTEX
  8
0
 62
4
 10
-4.94547851E+01
 20
-1.04848522E+02
  0
VERTEX
  8
0
 62
4
 10
-4.98002913E+01
 20
-1.04864693E+02
  0
VERTEX
  8
0
 62
4
 10
-5.01375639E+01
 20
-1.04887154E+02
  0
VERTEX
  8
0
 62
4
 10
-5.04639591E+01
 20
-1.04915729E+02
  0
VERTEX
  8
0
 62
4
 10
-5.07769181E+01
 20
-1.04950195E+02
  0
VERTEX
  8
0
 62
4
 10
-5.10739878E+01
 20
-1.04990282E+02
  0
VERTEX
  8
0
 62
4
 10
-5.13528394E+01
 20
-1.05035674E+02
  0
VERTEX
  8
0
 62
4
 10
-5.16112869E+01
 20
-1.05086016E+02
  0
VERTEX
  8
0
 62
4
 10
-5.18473045E+01
 20
-1.05140914E+02
  0
VERTEX
  8
0
 62
4
 10
-5.20590419E+01
 20
-1.05199937E+02
  0
VERTEX
  8
0
 62
4
 10
-5.22448395E+01
 20
-1.05262623E+02
  0
VERTEX
  8
0
 62
4
 10
-5.24032406E+01
 20
-1.05328480E+02
  0
VERTEX
  8
0
 62
4
 10
-5.25330037E+01
 20
-1.05396991E+02
  0
VERTEX
  8
0
 62
4
 10
-5.26331114E+01
 20
-1.05467621E+02
  0
VERTEX
  8
0
 62
4
 10
-5.27027791E+01
 20
-1.05539814E+02
  0
VERTEX
  8
0
 62
4
 10
-5.27414606E+01
 20
-1.05613006E+02
  0
VERTEX
  8
0
 62
4
 10
-5.27488528E+01
 20
-1.05686622E+02
  0
VERTEX
  8
0
 62
4
 10
-5.27248976E+01
 20
-1.05760086E+02
  0
VERTEX
  8
0
 62
4
 10
-5.26697828E+01
 20
-1.05832821E+02
  0
VERTEX
  8
0
 62
4
 10
-5.25839405E+01
 20
-1.05904258E+02
  0
VERTEX
  8
0
 62
4
 10
-5.24680437E+01
 20
-1.05973836E+02
  0
VERTEX
  8
0
 62
4
 10
-5.23230007E+01
 20
-1.06041010E+02
  0
VERTEX
  8
0
 62
4
 10
-5.21499487E+01
 20
-1.06105253E+02
  0
SEQEND
  8
0
  0
POLYLINE
  8
0
 62
4
 66
1
  0
VERTEX
  8
0
 62
4
 10
-4.53499487E+01
 20
-1.05667148E+02
  0
VERTEX
  8
0
 62
4
 10
-4.53636396E+01
 20
-1.05603782E+02
  0
VERTEX
  8
0
 62
4
 10
-4.54045950E+01
 20
-1.05540926E+02
  0
VERTEX
  8
0
 62
4
 10
-4.54724849E+01
 20
-1.05479087E+02
  0
VERTEX
  8
0
 62
4
 10
-4.55667628E+01
 20
-1.05418762E+02
  0
VERTEX
  8
0
 62
4
 10
-4.56866697E+01
 20
-1.05360437E+02
  0
VERTEX
  8
0
 62
4
 10
-4.58312401E+01
 20
-1.05304582E+02
  0
VERTEX
  8
0
 62
4
 10
-4.59993101E+01
 20
-1.05251645E+02
  0
VERTEX
  8
0
 62
4
 10
-4.61895264E+01
 20
-1.05202054E+02
  0
VERTEX
  8
0
 62
4
 10
-4.64003576E+01
 20
-1.05156208E+02
  0
VERTEX
  8
0
 62
4
 10
-4.66301061E+01
 20
-1.05114476E+02
  0
VERTEX
  8
0
 62
4
 10
-4.68769223E+01
 20
-1.05077193E+02
  0
VERTEX
  8
0
 62
4
 10
-4.71388188E+01
 20
-1.05044661E+02
  0
VERTEX
  8
0
 62
4
 10
-4.74136871E+01
 20
-1.05017140E+02
  0
VERTEX
  8
0
 62
4
 10
-4.76993142E+01
 20
-1.04994853E+02
  0
VERTEX
  8
0
 62
4
 10
-4.79934002E+01
 20
-1.04977979E+02
  0
VERTEX
  8
0
 62
4
 10
-4.82935775E+01
 20
-1.04966653E+02
  0
VERTEX
  8
0
 62
4
 10
-4.85974292E+01
 20
-1.04960968E+02
  0
VERTEX
  8
0
 62
4
 10
-4.89025089E+01
 20
-1.04960968E+02
  0
VERTEX
  8
0
 62
4
 10
-4.92063603E+01
 20
-1.04966654E+02
  0
VERTEX
  8
0
 62
4
 10
-4.95065369E+01
 20
-1.04977981E+02
  0
VERTEX
  8
0
 62
4
 10
-4.98006220E+01
 20
-1.04994855E+02
  0
VERTEX
  8
0
 62
4
 10
-5.00862477E+01
 20
-1.05017143E+02
  0
VERTEX
  8
0
 62
4
 10
-5.03611145E+01
 20
-1.05044665E+02
  0
VERTEX
  8
0
 62
4
 10
-5.06230091E+01
 20
-1.05077198E+02
  0
VERTEX
  8
0
 62
4
 10
-5.08698231E+01
 20
-1.05114481E+02
  0
VERTEX
  8
0
 62
4
 10
-5.10995693E+01
 20
-1.05156214E+02
  0
VERTEX
  8
0
 62
4
 10
-5.13103978E+01
 20
-1.05202061E+02
  0
VERTEX
  8
0
 62
4
 10
-5.15006113E+01
 20
-1.05251652E+02
  0
VERTEX
  8
0
 62
4
 10
-5.16686782E+01
 20
-1.05304589E+02
  0
VERTEX
  8
0
 62
4
 10
-5.18132454E+01
 20
-1.05360445E+02
  0
VERTEX
  8
0
 62
4
 10
-5.19331489E+01
 20
-1.05418770E+02
  0
VERTEX
  8
0
 62
4
 10
-5.20274234E+01
 20
-1.05479095E+02
  0
VERTEX
  8
0
 62
4
 10
-5.20953097E+01
 20
-1.05540935E+02
  0
VERTEX
  8
0
 62
4
 10
-5.21362614E+01
 20
-1.05603790E+02
  0
VERTEX
  8
0
 62
4
 10
-5.21499487E+01
 20
-1.05667156E+02
  0
SEQEND
  8
0
  0
LINE
  8
0
 62
4
 10
-5.92499487E+01
 20
-1.06737420E+02
 11
-5.21499487E+01
 21
-1.06737420E+02
  0
ARC
  8
0
 62
4
 10
-2.32494489E+01
 20
-1.05237920E+02
 40
1.49950029E+00
 50
2.69980903E+02
 51
1.90971113E-02
  0
ARC
  8
0
 62
4
 10
-5.92504523E+01
 20
-1.05237924E+02
 40
1.49949647E+00
 50
1.79980757E+02
 51
2.70019243E+02
  0
LINE
  8
0
 62
4
 10
-4.53499487E+01
 20
-1.06737420E+02
 11
-2.32499487E+01
 21
-1.06737420E+02
  0
POLYLINE
  8
0
 62
4
 66
1
  0
VERTEX
  8
0
 62
4
 10
-4.47499487E+01
 20
-1.05178083E+02
  0
VERTEX
  8
0
 62
4
 10
-4.47660515E+01
 20
-1.05103535E+02
  0
VERTEX
  8
0
 62
4
 10
-4.48142303E+01
 20
-1.05029587E+02
  0
VERTEX
  8
0
 62
4
 10
-4.48940973E+01
 20
-1.04956834E+02
  0
VERTEX
  8
0
 62
4
 10
-4.50050092E+01
 20
-1.04885863E+02
  0
VERTEX
  8
0
 62
4
 10
-4.51460732E+01
 20
-1.04817245E+02
  0
VERTEX
  8
0
 62
4
 10
-4.53161535E+01
 20
-1.04751532E+02
  0
VERTEX
  8
0
 62
4
 10
-4.55138807E+01
 20
-1.04689253E+02
  0
VERTEX
  8
0
 62
4
 10
-4.57376628E+01
 20
-1.04630910E+02
  0
VERTEX
  8
0
 62
4
 10
-4.59856981E+01
 20
-1.04576973E+02
  0
VERTEX
  8
0
 62
4
 10
-4.62559895E+01
 20
-1.04527875E+02
  0
VERTEX
  8
0
 62
4
 10
-4.65463608E+01
 20
-1.04484013E+02
  0
VERTEX
  8
0
 62
4
 10
-4.68544740E+01
 20
-1.04445739E+02
  0
VERTEX
  8
0
 62
4
 10
-4.71778486E+01
 20
-1.04413361E+02
  0
VERTEX
  8
0
 62
4
 10
-4.75138807E+01
 20
-1.04387140E+02
  0
VERTEX
  8
0
 62
4
 10
-4.78598650E+01
 20
-1.04367287E+02
  0
VERTEX
  8
0
 62
4
 10
-4.82130156E+01
 20
-1.04353963E+02
  0
VERTEX
  8
0
 62
4
 10
-4.85704894E+01
 20
-1.04347274E+02
  0
VERTEX
  8
0
 62
4
 10
-4.89294080E+01
 20
-1.04347274E+02
  0
VERTEX
  8
0
 62
4
 10
-4.92868818E+01
 20
-1.04353963E+02
  0
VERTEX
  8
0
 62
4
 10
-4.96400324E+01
 20
-1.04367287E+02
  0
VERTEX
  8
0
 62
4
 10
-4.99860167E+01
 20
-1.04387140E+02
  0
VERTEX
  8
0
 62
4
 10
-5.03220488E+01
 20
-1.04413361E+02
  0
VERTEX
  8
0
 62
4
 10
-5.06454233E+01
 20
-1.04445739E+02
  0
VERTEX
  8
0
 62
4
 10
-5.09535366E+01
 20
-1.04484013E+02
  0
VERTEX
  8
0
 62
4
 10
-5.12439079E+01
 20
-1.04527875E+02
  0
VERTEX
  8
0
 62
4
 10
-5.15141993E+01
 20
-1.04576973E+02
  0
VERTEX
  8
0
 62
4
 10
-5.17622346E+01
 20
-1.04630910E+02
  0
VERTEX
  8
0
 62
4
 10
-5.19860167E+01
 20
-1.04689253E+02
  0
VERTEX
  8
0
 62
4
 10
-5.21837439E+01
 20
-1.04751532E+02
  0
VERTEX
  8
0
 62
4
 10
-5.23538242E+01
 20
-1.04817245E+02
  0
VERTEX
  8
0
 62
4
 10
-5.24948882E+01
 20
-1.04885863E+02
  0
VERTEX
  8
0
 62
4
 10
-5.26058001E+01
 20
-1.04956834E+02
  0
VERTEX
  8
0
 62
4
 10
-5.26856671E+01
 20
-1.05029587E+02
  0
VERTEX
  8
0
 62
4
 10
-5.27338459E+01
 20
-1.05103535E+02
  0
VERTEX
  8
0
 62
4
 10
-5.27499487E+01
 20
-1.05178083E+02
  0
SEQEND
  8
0
  0
POLYLINE
  8
0
 62
4
 66
1
  0
VERTEX
  8
0
 62
4
 10
-4.53499487E+01
 20
-1.07753707E+02
  0
VERTEX
  8
0
 62
4
 10
-4.53628867E+01
 20
-1.07657726E+02
  0
VERTEX
  8
0
 62
4
 10
-4.54016023E+01
 20
-1.07562476E+02
  0
VERTEX
  8
0
 62
4
 10
-4.54658009E+01
 20
-1.07468681E+02
  0
VERTEX
  8
0
 62
4
 10
-4.55549938E+01
 20
-1.07377055E+02
  0
VERTEX
  8
0
 62
4
 10
-4.56685022E+01
 20
-1.07288296E+02
  0
VERTEX
  8
0
 62
4
 10
-4.58054623E+01
 20
-1.07203079E+02
  0
VERTEX
  8
0
 62
4
 10
-4.59648317E+01
 20
-1.07122053E+02
  0
VERTEX
  8
0
 62
4
 10
-4.61453976E+01
 20
-1.07045834E+02
  0
VERTEX
  8
0
 62
4
 10
-4.63457856E+01
 20
-1.06975002E+02
  0
VERTEX
  8
0
 62
4
 10
-4.65644708E+01
 20
-1.06910096E+02
  0
VERTEX
  8
0
 62
4
 10
-4.67997888E+01
 20
-1.06851611E+02
  0
VERTEX
  8
0
 62
4
 10
-4.70499487E+01
 20
-1.06799992E+02
  0
VERTEX
  8
0
 62
4
 10
-4.73130466E+01
 20
-1.06755631E+02
  0
VERTEX
  8
0
 62
4
 10
-4.75870802E+01
 20
-1.06718865E+02
  0
VERTEX
  8
0
 62
4
 10
-4.78699639E+01
 20
-1.06689976E+02
  0
VERTEX
  8
0
 62
4
 10
-4.81595449E+01
 20
-1.06669182E+02
  0
VERTEX
  8
0
 62
4
 10
-4.84536192E+01
 20
-1.06656642E+02
  0
VERTEX
  8
0
 62
4
 10
-4.87499487E+01
 20
-1.06652452E+02
  0
VERTEX
  8
0
 62
4
 10
-4.90462782E+01
 20
-1.06656642E+02
  0
VERTEX
  8
0
 62
4
 10
-4.93403525E+01
 20
-1.06669182E+02
  0
VERTEX
  8
0
 62
4
 10
-4.96299335E+01
 20
-1.06689976E+02
  0
VERTEX
  8
0
 62
4
 10
-4.99128172E+01
 20
-1.06718865E+02
  0
VERTEX
  8
0
 62
4
 10
-5.01868508E+01
 20
-1.06755631E+02
  0
VERTEX
  8
0
 62
4
 10
-5.04499487E+01
 20
-1.06799992E+02
  0
VERTEX
  8
0
 62
4
 10
-5.07001086E+01
 20
-1.06851611E+02
  0
VERTEX
  8
0
 62
4
 10
-5.09354266E+01
 20
-1.06910096E+02
  0
VERTEX
  8
0
 62
4
 10
-5.11541118E+01
 20
-1.06975002E+02
  0
VERTEX
  8
0
 62
4
 10
-5.13544998E+01
 20
-1.07045834E+02
  0
VERTEX
  8
0
 62
4
 10
-5.15350657E+01
 20
-1.07122053E+02
  0
VERTEX
  8
0
 62
4
 10
-5.16944351E+01
 20
-1.07203079E+02
  0
VERTEX
  8
0
 62
4
 10
-5.18313952E+01
 20
-1.07288296E+02
  0
VERTEX
  8
0
 62
4
 10
-5.19449036E+01
 20
-1.07377055E+02
  0
VERTEX
  8
0
 62
4
 10
-5.20340965E+01
 20
-1.07468681E+02
  0
VERTEX
  8
0
 62
4
 10
-5.20982951E+01
 20
-1.07562476E+02
  0
VERTEX
  8
0
 62
4
 10
-5.21370107E+01
 20
-1.07657726E+02
  0
VERTEX
  8
0
 62
4
 10
-5.21499487E+01
 20
-1.07753707E+02
  0
VERTEX
  8
0
 62
4
 10
-5.21370107E+01
 20
-1.07849688E+02
  0
VERTEX
  8
0
 62
4
 10
-5.20982951E+01
 20
-1.07944938E+02
  0
VERTEX
  8
0
 62
4
 10
-5.20340965E+01
 20
-1.08038733E+02
  0
VERTEX
  8
0
 62
4
 10
-5.19449036E+01
 20
-1.08130359E+02
  0
VERTEX
  8
0
 62
4
 10
-5.18313952E+01
 20
-1.08219118E+02
  0
VERTEX
  8
0
 62
4
 10
-5.16944351E+01
 20
-1.08304335E+02
  0
VERTEX
  8
0
 62
4
 10
-5.15350656E+01
 20
-1.08385361E+02
  0
VERTEX
  8
0
 62
4
 10
-5.13544998E+01
 20
-1.08461580E+02
  0
VERTEX
  8
0
 62
4
 10
-5.11541118E+01
 20
-1.08532412E+02
  0
VERTEX
  8
0
 62
4
 10
-5.09354266E+01
 20
-1.08597318E+02
  0
VERTEX
  8
0
 62
4
 10
-5.07001086E+01
 20
-1.08655803E+02
  0
VERTEX
  8
0
 62
4
 10
-5.04499487E+01
 20
-1.08707422E+02
  0
VERTEX
  8
0
 62
4
 10
-5.01868508E+01
 20
-1.08751783E+02
  0
VERTEX
  8
0
 62
4
 10
-4.99128172E+01
 20
-1.08788549E+02
  0
VERTEX
  8
0
 62
4
 10
-4.96299334E+01
 20
-1.08817438E+02
  0
VERTEX
  8
0
 62
4
 10
-4.93403525E+01
 20
-1.08838232E+02
  0
VERTEX
  8
0
 62
4
 10
-4.90462782E+01
 20
-1.08850772E+02
  0
VERTEX
  8
0
 62
4
 10
-4.87499487E+01
 20
-1.08854962E+02
  0
VERTEX
  8
0
 62
4
 10
-4.84536192E+01
 20
-1.08850772E+02
  0
VERTEX
  8
0
 62
4
 10
-4.81595449E+01
 20
-1.08838232E+02
  0
VERTEX
  8
0
 62
4
 10
-4.78699639E+01
 20
-1.08817438E+02
  0
VERTEX
  8
0
 62
4
 10
-4.75870802E+01
 20
-1.08788549E+02
  0
VERTEX
  8
0
 62
4
 10
-4.73130466E+01
 20
-1.08751783E+02
  0
VERTEX
  8
0
 62
4
 10
-4.70499487E+01
 20
-1.08707422E+02
  0
VERTEX
  8
0
 62
4
 10
-4.67997888E+01
 20
-1.08655803E+02
  0
VERTEX
  8
0
 62
4
 10
-4.65644708E+01
 20
-1.08597318E+02
  0
VERTEX
  8
0
 62
4
 10
-4.63457856E+01
 20
-1.08532412E+02
  0
VERTEX
  8
0
 62
4
 10
-4.61453976E+01
 20
-1.08461580E+02
  0
VERTEX
  8
0
 62
4
 10
-4.59648317E+01
 20
-1.08385361E+02
  0
VERTEX
  8
0
 62
4
 10
-4.58054623E+01
 20
-1.08304335E+02
  0
VERTEX
  8
0
 62
4
 10
-4.56685022E+01
 20
-1.08219118E+02
  0
VERTEX
  8
0
 62
4
 10
-4.55549938E+01
 20
-1.08130359E+02
  0
VERTEX
  8
0
 62
4
 10
-4.54658009E+01
 20
-1.08038733E+02
  0
VERTEX
  8
0
 62
4
 10
-4.54016023E+01
 20
-1.07944938E+02
  0
VERTEX
  8
0
 62
4
 10
-4.53628867E+01
 20
-1.07849688E+02
  0
VERTEX
  8
0
 62
4
 10
-4.53499487E+01
 20
-1.07753707E+02
  0
SEQEND
  8
0
  0
ARC
  8
0
 62
4
 10
-5.29855437E+01
 20
-9.71864754E+01
 40
1.21769740E+01
 50
2.86978238E+02
 51
2.99537899E+02
  0
ARC
  8
0
 62
4
 10
-4.45143537E+01
 20
-9.71864754E+01
 40
1.21769740E+01
 50
2.40462101E+02
 51
2.53021762E+02
  0
POLYLINE
  8
0
 62
4
 66
1
  0
VERTEX
  8
0
 62
4
 10
-2.92499487E+01
 20
-9.18809733E+01
  0
VERTEX
  8
0
 62
4
 10
-2.92632673E+01
 20
-9.15825942E+01
  0
VERTEX
  8
0
 62
4
 10
-2.93031216E+01
 20
-9.12864859E+01
  0
VERTEX
  8
0
 62
4
 10
-2.93692083E+01
 20
-9.09949020E+01
  0
VERTEX
  8
0
 62
4
 10
-2.94610245E+01
 20
-9.07100617E+01
  0
VERTEX
  8
0
 62
4
 10
-2.95778714E+01
 20
-9.04341327E+01
  0
VERTEX
  8
0
 62
4
 10
-2.97188598E+01
 20
-9.01692150E+01
  0
VERTEX
  8
0
 62
4
 10
-2.98829165E+01
 20
-8.99173248E+01
  0
VERTEX
  8
0
 62
4
 10
-3.00687931E+01
 20
-8.96803792E+01
  0
VERTEX
  8
0
 62
4
 10
-3.02750750E+01
 20
-8.94601815E+01
  0
VERTEX
  8
0
 62
4
 10
-3.05001921E+01
 20
-8.92584074E+01
  0
VERTEX
  8
0
 62
4
 10
-3.07424312E+01
 20
-8.90765927E+01
  0
VERTEX
  8
0
 62
4
 10
-3.09999487E+01
 20
-8.89161210E+01
  0
VERTEX
  8
0
 62
4
 10
-3.12707848E+01
 20
-8.87782135E+01
  0
VERTEX
  8
0
 62
4
 10
-3.15528782E+01
 20
-8.86639200E+01
  0
VERTEX
  8
0
 62
4
 10
-3.18440820E+01
 20
-8.85741102E+01
  0
VERTEX
  8
0
 62
4
 10
-3.21421801E+01
 20
-8.85094676E+01
  0
VERTEX
  8
0
 62
4
 10
-3.24449036E+01
 20
-8.84704842E+01
  0
VERTEX
  8
0
 62
4
 10
-3.27499487E+01
 20
-8.84574567E+01
  0
VERTEX
  8
0
 62
4
 10
-3.30549938E+01
 20
-8.84704842E+01
  0
VERTEX
  8
0
 62
4
 10
-3.33577173E+01
 20
-8.85094676E+01
  0
VERTEX
  8
0
 62
4
 10
-3.36558154E+01
 20
-8.85741102E+01
  0
VERTEX
  8
0
 62
4
 10
-3.39470192E+01
 20
-8.86639200E+01
  0
VERTEX
  8
0
 62
4
 10
-3.42291126E+01
 20
-8.87782135E+01
  0
VERTEX
  8
0
 62
4
 10
-3.44999487E+01
 20
-8.89161210E+01
  0
VERTEX
  8
0
 62
4
 10
-3.47574662E+01
 20
-8.90765927E+01
  0
VERTEX
  8
0
 62
4
 10
-3.49997053E+01
 20
-8.92584074E+01
  0
VERTEX
  8
0
 62
4
 10
-3.52248224E+01
 20
-8.94601815E+01
  0
VERTEX
  8
0
 62
4
 10
-3.54311043E+01
 20
-8.96803793E+01
  0
VERTEX
  8
0
 62
4
 10
-3.56169809E+01
 20
-8.99173249E+01
  0
VERTEX
  8
0
 62
4
 10
-3.57810376E+01
 20
-9.01692150E+01
  0
VERTEX
  8
0
 62
4
 10
-3.59220260E+01
 20
-9.04341327E+01
  0
VERTEX
  8
0
 62
4
 10
-3.60388729E+01
 20
-9.07100617E+01
  0
VERTEX
  8
0
 62
4
 10
-3.61306891E+01
 20
-9.09949020E+01
  0
VERTEX
  8
0
 62
4
 10
-3.61967758E+01
 20
-9.12864859E+01
  0
VERTEX
  8
0
 62
4
 10
-3.62366301E+01
 20
-9.15825942E+01
  0
VERTEX
  8
0
 62
4
 10
-3.62499487E+01
 20
-9.18809733E+01
  0
VERTEX
  8
0
 62
4
 10
-3.62366301E+01
 20
-9.21793524E+01
  0
VERTEX
  8
0
 62
4
 10
-3.61967758E+01
 20
-9.24754607E+01
  0
VERTEX
  8
0
 62
4
 10
-3.61306891E+01
 20
-9.27670446E+01
  0
VERTEX
  8
0
 62
4
 10
-3.60388729E+01
 20
-9.30518849E+01
  0
VERTEX
  8
0
 62
4
 10
-3.59220260E+01
 20
-9.33278139E+01
  0
VERTEX
  8
0
 62
4
 10
-3.57810376E+01
 20
-9.35927316E+01
  0
VERTEX
  8
0
 62
4
 10
-3.56169809E+01
 20
-9.38446218E+01
  0
VERTEX
  8
0
 62
4
 10
-3.54311042E+01
 20
-9.40815674E+01
  0
VERTEX
  8
0
 62
4
 10
-3.52248224E+01
 20
-9.43017651E+01
  0
VERTEX
  8
0
 62
4
 10
-3.49997053E+01
 20
-9.45035392E+01
  0
VERTEX
  8
0
 62
4
 10
-3.47574662E+01
 20
-9.46853539E+01
  0
VERTEX
  8
0
 62
4
 10
-3.44999487E+01
 20
-9.48458256E+01
  0
VERTEX
  8
0
 62
4
 10
-3.42291126E+01
 20
-9.49837331E+01
  0
VERTEX
  8
0
 62
4
 10
-3.39470192E+01
 20
-9.50980266E+01
  0
VERTEX
  8
0
 62
4
 10
-3.36558154E+01
 20
-9.51878364E+01
  0
VERTEX
  8
0
 62
4
 10
-3.33577173E+01
 20
-9.52524790E+01
  0
VERTEX
  8
0
 62
4
 10
-3.30549938E+01
 20
-9.52914624E+01
  0
VERTEX
  8
0
 62
4
 10
-3.27499487E+01
 20
-9.53044899E+01
  0
VERTEX
  8
0
 62
4
 10
-3.24449036E+01
 20
-9.52914624E+01
  0
VERTEX
  8
0
 62
4
 10
-3.21421801E+01
 20
-9.52524790E+01
  0
VERTEX
  8
0
 62
4
 10
-3.18440820E+01
 20
-9.51878364E+01
  0
VERTEX
  8
0
 62
4
 10
-3.15528782E+01
 20
-9.50980266E+01
  0
VERTEX
  8
0
 62
4
 10
-3.12707848E+01
 20
-9.49837331E+01
  0
VERTEX
  8
0
 62
4
 10
-3.09999487E+01
 20
-9.48458256E+01
  0
VERTEX
  8
0
 62
4
 10
-3.07424312E+01
 20
-9.46853539E+01
  0
VERTEX
  8
0
 62
4
 10
-3.05001921E+01
 20
-9.45035392E+01
  0
VERTEX
  8
0
 62
4
 10
-3.02750750E+01
 20
-9.43017651E+01
  0
VERTEX
  8
0
 62
4
 10
-3.00687931E+01
 20
-9.40815673E+01
  0
VERTEX
  8
0
 62
4
 10
-2.98829165E+01
 20
-9.38446217E+01
  0
VERTEX
  8
0
 62
4
 10
-2.97188598E+01
 20
-9.35927316E+01
  0
VERTEX
  8
0
 62
4
 10
-2.95778714E+01
 20
-9.33278139E+01
  0
VERTEX
  8
0
 62
4
 10
-2.94610245E+01
 20
-9.30518849E+01
  0
VERTEX
  8
0
 62
4
 10
-2.93692083E+01
 20
-9.27670446E+01
  0
VERTEX
  8
0
 62
4
 10
-2.93031216E+01
 20
-9.24754607E+01
  0
VERTEX
  8
0
 62
4
 10
-2.92632673E+01
 20
-9.21793524E+01
  0
VERTEX
  8
0
 62
4
 10
-2.92499487E+01
 20
-9.18809733E+01
  0
SEQEND
  8
0
  0
POLYLINE
  8
0
 62
4
 66
1
  0
VERTEX
  8
0
 62
4
 10
-2.96099487E+01
 20
-9.16730616E+01
  0
VERTEX
  8
0
 62
4
 10
-2.96218973E+01
 20
-9.14053729E+01
  0
VERTEX
  8
0
 62
4
 10
-2.96576524E+01
 20
-9.11397215E+01
  0
VERTEX
  8
0
 62
4
 10
-2.97169416E+01
 20
-9.08781291E+01
  0
VERTEX
  8
0
 62
4
 10
-2.97993139E+01
 20
-9.06225866E+01
  0
VERTEX
  8
0
 62
4
 10
-2.99041422E+01
 20
-9.03750389E+01
  0
VERTEX
  8
0
 62
4
 10
-3.00306289E+01
 20
-9.01373699E+01
  0
VERTEX
  8
0
 62
4
 10
-3.01778113E+01
 20
-8.99113884E+01
  0
VERTEX
  8
0
 62
4
 10
-3.03445691E+01
 20
-8.96988144E+01
  0
VERTEX
  8
0
 62
4
 10
-3.05296334E+01
 20
-8.95012655E+01
  0
VERTEX
  8
0
 62
4
 10
-3.07315956E+01
 20
-8.93202454E+01
  0
VERTEX
  8
0
 62
4
 10
-3.09489187E+01
 20
-8.91571316E+01
  0
VERTEX
  8
0
 62
4
 10
-3.11799487E+01
 20
-8.90131655E+01
  0
VERTEX
  8
0
 62
4
 10
-3.14229274E+01
 20
-8.88894428E+01
  0
VERTEX
  8
0
 62
4
 10
-3.16760055E+01
 20
-8.87869052E+01
  0
VERTEX
  8
0
 62
4
 10
-3.19372569E+01
 20
-8.87063330E+01
  0
VERTEX
  8
0
 62
4
 10
-3.22046934E+01
 20
-8.86483393E+01
  0
VERTEX
  8
0
 62
4
 10
-3.24762797E+01
 20
-8.86133657E+01
  0
VERTEX
  8
0
 62
4
 10
-3.27499487E+01
 20
-8.86016781E+01
  0
VERTEX
  8
0
 62
4
 10
-3.30236177E+01
 20
-8.86133657E+01
  0
VERTEX
  8
0
 62
4
 10
-3.32952040E+01
 20
-8.86483393E+01
  0
VERTEX
  8
0
 62
4
 10
-3.35626405E+01
 20
-8.87063330E+01
  0
VERTEX
  8
0
 62
4
 10
-3.38238920E+01
 20
-8.87869052E+01
  0
VERTEX
  8
0
 62
4
 10
-3.40769700E+01
 20
-8.88894428E+01
  0
VERTEX
  8
0
 62
4
 10
-3.43199487E+01
 20
-8.90131655E+01
  0
VERTEX
  8
0
 62
4
 10
-3.45509787E+01
 20
-8.91571316E+01
  0
VERTEX
  8
0
 62
4
 10
-3.47683018E+01
 20
-8.93202454E+01
  0
VERTEX
  8
0
 62
4
 10
-3.49702640E+01
 20
-8.95012655E+01
  0
VERTEX
  8
0
 62
4
 10
-3.51553283E+01
 20
-8.96988144E+01
  0
VERTEX
  8
0
 62
4
 10
-3.53220861E+01
 20
-8.99113884E+01
  0
VERTEX
  8
0
 62
4
 10
-3.54692685E+01
 20
-9.01373699E+01
  0
VERTEX
  8
0
 62
4
 10
-3.55957552E+01
 20
-9.03750389E+01
  0
VERTEX
  8
0
 62
4
 10
-3.57005835E+01
 20
-9.06225866E+01
  0
VERTEX
  8
0
 62
4
 10
-3.57829558E+01
 20
-9.08781291E+01
  0
VERTEX
  8
0
 62
4
 10
-3.58422450E+01
 20
-9.11397215E+01
  0
VERTEX
  8
0
 62
4
 10
-3.58780001E+01
 20
-9.14053729E+01
  0
VERTEX
  8
0
 62
4
 10
-3.58899487E+01
 20
-9.16730616E+01
  0
VERTEX
  8
0
 62
4
 10
-3.58780001E+01
 20
-9.19407503E+01
  0
VERTEX
  8
0
 62
4
 10
-3.58422450E+01
 20
-9.22064017E+01
  0
VERTEX
  8
0
 62
4
 10
-3.57829558E+01
 20
-9.24679941E+01
  0
VERTEX
  8
0
 62
4
 10
-3.57005835E+01
 20
-9.27235366E+01
  0
VERTEX
  8
0
 62
4
 10
-3.55957551E+01
 20
-9.29710843E+01
  0
VERTEX
  8
0
 62
4
 10
-3.54692685E+01
 20
-9.32087533E+01
  0
VERTEX
  8
0
 62
4
 10
-3.53220861E+01
 20
-9.34347348E+01
  0
VERTEX
  8
0
 62
4
 10
-3.51553282E+01
 20
-9.36473088E+01
  0
VERTEX
  8
0
 62
4
 10
-3.49702640E+01
 20
-9.38448577E+01
  0
VERTEX
  8
0
 62
4
 10
-3.47683018E+01
 20
-9.40258778E+01
  0
VERTEX
  8
0
 62
4
 10
-3.45509787E+01
 20
-9.41889917E+01
  0
VERTEX
  8
0
 62
4
 10
-3.43199487E+01
 20
-9.43329577E+01
  0
VERTEX
  8
0
 62
4
 10
-3.40769700E+01
 20
-9.44566804E+01
  0
VERTEX
  8
0
 62
4
 10
-3.38238919E+01
 20
-9.45592180E+01
  0
VERTEX
  8
0
 62
4
 10
-3.35626405E+01
 20
-9.46397902E+01
  0
VERTEX
  8
0
 62
4
 10
-3.32952040E+01
 20
-9.46977839E+01
  0
VERTEX
  8
0
 62
4
 10
-3.30236177E+01
 20
-9.47327575E+01
  0
VERTEX
  8
0
 62
4
 10
-3.27499487E+01
 20
-9.47444451E+01
  0
VERTEX
  8
0
 62
4
 10
-3.24762797E+01
 20
-9.47327575E+01
  0
VERTEX
  8
0
 62
4
 10
-3.22046934E+01
 20
-9.46977839E+01
  0
VERTEX
  8
0
 62
4
 10
-3.19372569E+01
 20
-9.46397902E+01
  0
VERTEX
  8
0
 62
4
 10
-3.16760054E+01
 20
-9.45592180E+01
  0
VERTEX
  8
0
 62
4
 10
-3.14229274E+01
 20
-9.44566804E+01
  0
VERTEX
  8
0
 62
4
 10
-3.11799487E+01
 20
-9.43329577E+01
  0
VERTEX
  8
0
 62
4
 10
-3.09489187E+01
 20
-9.41889916E+01
  0
VERTEX
  8
0
 62
4
 10
-3.07315956E+01
 20
-9.40258778E+01
  0
VERTEX
  8
0
 62
4
 10
-3.05296334E+01
 20
-9.38448577E+01
  0
VERTEX
  8
0
 62
4
 10
-3.03445691E+01
 20
-9.36473088E+01
  0
VERTEX
  8
0
 62
4
 10
-3.01778113E+01
 20
-9.34347348E+01
  0
VERTEX
  8
0
 62
4
 10
-3.00306289E+01
 20
-9.32087533E+01
  0
VERTEX
  8
0
 62
4
 10
-2.99041422E+01
 20
-9.29710843E+01
  0
VERTEX
  8
0
 62
4
 10
-2.97993139E+01
 20
-9.27235366E+01
  0
VERTEX
  8
0
 62
4
 10
-2.97169416E+01
 20
-9.24679941E+01
  0
VERTEX
  8
0
 62
4
 10
-2.96576524E+01
 20
-9.22064017E+01
  0
VERTEX
  8
0
 62
4
 10
-2.96218973E+01
 20
-9.19407503E+01
  0
VERTEX
  8
0
 62
4
 10
-2.96099487E+01
 20
-9.16730616E+01
  0
SEQEND
  8
0
  0
LINE
  8
0
 62
4
 10
-5.82499487E+01
 20
-1.01173376E+02
 11
-3.92499487E+01
 21
-1.01173376E+02
  0
LINE
  8
0
 62
4
 10
2.33475599E+02
 20
-2.15323396E+02
 11
2.46475599E+02
 21
-2.15323396E+02
  0
ARC
  8
0
 62
4
 10
2.50476099E+02
 20
-1.91753868E+02
 40
1.49950029E+00
 50
3.59980903E+02
 51
9.00190969E+01
  0
ARC
  8
0
 62
4
 10
2.56475099E+02
 20
-1.76285332E+02
 40
5.00500378E-01
 50
2.70057253E+02
 51
3.59942747E+02
  0
ARC
  8
0
 62
4
 10
2.14475099E+02
 20
-1.91753868E+02
 40
1.49950029E+00
 50
8.99809029E+01
 51
1.80019097E+02
  0
ARC
  8
0
 62
4
 10
2.47975099E+02
 20
-1.77285332E+02
 40
4.99500622E-01
 50
8.99426895E+01
 51
1.80057310E+02
  0
ARC
  8
0
 62
4
 10
2.56476099E+02
 20
-1.63285332E+02
 40
4.99500622E-01
 50
3.59942689E+02
 51
9.00573103E+01
  0
LINE
  8
0
 62
4
 10
2.12975599E+02
 20
-1.91754367E+02
 11
2.12975599E+02
 21
-2.09451497E+02
  0
LINE
  8
0
 62
4
 10
2.47475599E+02
 20
-1.88952942E+02
 11
2.32475599E+02
 21
-1.88952942E+02
  0
LINE
  8
0
 62
4
 10
2.30475599E+02
 20
-1.90346913E+02
 11
2.30475599E+02
 21
-1.94259504E+02
  0
LINE
  8
0
 62
4
 10
2.47475599E+02
 20
-1.62358725E+02
 11
2.47475599E+02
 21
-1.90346913E+02
  0
LINE
  8
0
 62
4
 10
2.32475599E+02
 20
-1.62358725E+02
 11
2.32475599E+02
 21
-1.90346913E+02
  0
LINE
  8
0
 62
4
 10
2.49475599E+02
 20
-1.90346913E+02
 11
2.49475599E+02
 21
-1.94259504E+02
  0
LINE
  8
0
 62
4
 10
2.51975599E+02
 20
-2.07984276E+02
 11
2.47475599E+02
 21
-2.07984276E+02
  0
LINE
  8
0
 62
4
 10
2.51975599E+02
 20
-2.09451497E+02
 11
2.47475599E+02
 21
-2.09451497E+02
  0
LINE
  8
0
 62
4
 10
2.51975599E+02
 20
-1.91754367E+02
 11
2.51975599E+02
 21
-2.09451497E+02
  0
LINE
  8
0
 62
4
 10
2.49475599E+02
 20
-1.90346913E+02
 11
2.30475599E+02
 21
-1.90346913E+02
  0
LINE
  8
0
 62
4
 10
2.47475599E+02
 20
-1.62358725E+02
 11
2.32475599E+02
 21
-1.62358725E+02
  0
LINE
  8
0
 62
4
 10
2.32475599E+02
 20
-2.07984276E+02
 11
2.12975599E+02
 21
-2.07984276E+02
  0
LINE
  8
0
 62
4
 10
2.32475599E+02
 20
-2.09451497E+02
 11
2.12975599E+02
 21
-2.09451497E+02
  0
LINE
  8
0
 62
4
 10
2.66975599E+02
 20
-1.77132836E+02
 11
2.61975599E+02
 21
-1.77132836E+02
  0
LINE
  8
0
 62
4
 10
2.56475599E+02
 20
-1.76785832E+02
 11
2.47975599E+02
 21
-1.76785832E+02
  0
LINE
  8
0
 62
4
 10
2.60475599E+02
 20
-1.75535832E+02
 11
2.56975599E+02
 21
-1.75535832E+02
  0
LINE
  8
0
 62
4
 10
2.60475599E+02
 20
-1.63535832E+02
 11
2.60475599E+02
 21
-1.76035832E+02
  0
LINE
  8
0
 62
4
 10
2.61975599E+02
 20
-1.76035832E+02
 11
2.56975599E+02
 21
-1.76035832E+02
  0
LINE
  8
0
 62
4
 10
2.61975599E+02
 20
-1.63535832E+02
 11
2.56975599E+02
 21
-1.63535832E+02
  0
LINE
  8
0
 62
4
 10
2.61975599E+02
 20
-1.62450841E+02
 11
2.61975599E+02
 21
-1.77132836E+02
  0
LINE
  8
0
 62
4
 10
2.66975599E+02
 20
-1.62450841E+02
 11
2.66975599E+02
 21
-1.77132836E+02
  0
LINE
  8
0
 62
4
 10
2.56975599E+02
 20
-1.63285832E+02
 11
2.56975599E+02
 21
-1.76285832E+02
  0
LINE
  8
0
 62
4
 10
2.47475599E+02
 20
-1.62785832E+02
 11
2.56475599E+02
 21
-1.62785832E+02
  0
LINE
  8
0
 62
4
 10
2.66975599E+02
 20
-1.74816209E+02
 11
2.61975599E+02
 21
-1.74816209E+02
  0
LINE
  8
0
 62
4
 10
2.66975599E+02
 20
-1.67474029E+02
 11
2.61975599E+02
 21
-1.67474029E+02
  0
LINE
  8
0
 62
4
 10
2.66975599E+02
 20
-1.67470320E+02
 11
2.61975599E+02
 21
-1.67470320E+02
  0
LINE
  8
0
 62
4
 10
2.50475599E+02
 20
-1.90254367E+02
 11
2.47475599E+02
 21
-1.90254367E+02
  0
LINE
  8
0
 62
4
 10
2.60475599E+02
 20
-1.64035832E+02
 11
2.56975599E+02
 21
-1.64035832E+02
  0
LINE
  8
0
  6
CENTER
 62
6
 10
2.35975599E+02
 20
-2.18013720E+02
 11
2.35975599E+02
 21
-2.23858255E+02
  0
LINE
  8
0
 62
4
 10
2.32475599E+02
 20
-1.99169416E+02
 11
2.32475599E+02
 21
-2.25589872E+02
  0
LINE
  8
0
 62
4
 10
2.47475599E+02
 20
-1.99169416E+02
 11
2.47475599E+02
 21
-2.25589872E+02
  0
LINE
  8
0
 62
4
 10
2.32475599E+02
 20
-2.25589872E+02
 11
2.47475599E+02
 21
-2.25589872E+02
  0
LINE
  8
0
 62
4
 10
2.32475599E+02
 20
-1.99169416E+02
 11
2.47475599E+02
 21
-1.99169416E+02
  0
LINE
  8
0
 62
4
 10
2.47475599E+02
 20
-1.65477400E+02
 11
2.32475599E+02
 21
-1.65477400E+02
  0
LINE
  8
0
 62
4
 10
2.66975599E+02
 20
-1.62450841E+02
 11
2.61975599E+02
 21
-1.62450841E+02
  0
LINE
  8
0
 62
4
 10
2.15975599E+02
 20
-2.14407712E+02
 11
2.15975599E+02
 21
-2.12740352E+02
  0
LINE
  8
0
 62
4
 10
2.48975599E+02
 20
-2.14407712E+02
 11
2.48975599E+02
 21
-2.12740352E+02
  0
POLYLINE
  8
0
 62
4
 66
1
  0
VERTEX
  8
0
 62
4
 10
2.35975599E+02
 20
-2.22684371E+02
  0
VERTEX
  8
0
 62
4
 10
2.36149910E+02
 20
-2.22676488E+02
  0
VERTEX
  8
0
 62
4
 10
2.36322895E+02
 20
-2.22652897E+02
  0
VERTEX
  8
0
 62
4
 10
2.36493237E+02
 20
-2.22613779E+02
  0
VERTEX
  8
0
 62
4
 10
2.36659639E+02
 20
-2.22559431E+02
  0
VERTEX
  8
0
 62
4
 10
2.36820836E+02
 20
-2.22490267E+02
  0
VERTEX
  8
0
 62
4
 10
2.36975599E+02
 20
-2.22406814E+02
  0
VERTEX
  8
0
 62
4
 10
2.37122752E+02
 20
-2.22309705E+02
  0
VERTEX
  8
0
 62
4
 10
2.37261174E+02
 20
-2.22199681E+02
  0
VERTEX
  8
0
 62
4
 10
2.37389813E+02
 20
-2.22077579E+02
  0
VERTEX
  8
0
 62
4
 10
2.37507688E+02
 20
-2.21944328E+02
  0
VERTEX
  8
0
 62
4
 10
2.37613903E+02
 20
-2.21800942E+02
  0
VERTEX
  8
0
 62
4
 10
2.37707650E+02
 20
-2.21648512E+02
  0
VERTEX
  8
0
 62
4
 10
2.37788215E+02
 20
-2.21488199E+02
  0
VERTEX
  8
0
 62
4
 10
2.37854984E+02
 20
-2.21321222E+02
  0
VERTEX
  8
0
 62
4
 10
2.37907451E+02
 20
-2.21148853E+02
  0
VERTEX
  8
0
 62
4
 10
2.37945215E+02
 20
-2.20972403E+02
  0
VERTEX
  8
0
 62
4
 10
2.37967988E+02
 20
-2.20793215E+02
  0
VERTEX
  8
0
 62
4
 10
2.37975599E+02
 20
-2.20612653E+02
  0
VERTEX
  8
0
 62
4
 10
2.37967988E+02
 20
-2.20432091E+02
  0
VERTEX
  8
0
 62
4
 10
2.37945215E+02
 20
-2.20252903E+02
  0
VERTEX
  8
0
 62
4
 10
2.37907451E+02
 20
-2.20076453E+02
  0
VERTEX
  8
0
 62
4
 10
2.37854984E+02
 20
-2.19904084E+02
  0
VERTEX
  8
0
 62
4
 10
2.37788215E+02
 20
-2.19737107E+02
  0
VERTEX
  8
0
 62
4
 10
2.37707650E+02
 20
-2.19576794E+02
  0
VERTEX
  8
0
 62
4
 10
2.37613903E+02
 20
-2.19424364E+02
  0
VERTEX
  8
0
 62
4
 10
2.37507688E+02
 20
-2.19280978E+02
  0
VERTEX
  8
0
 62
4
 10
2.37389813E+02
 20
-2.19147727E+02
  0
VERTEX
  8
0
 62
4
 10
2.37261174E+02
 20
-2.19025625E+02
  0
VERTEX
  8
0
 62
4
 10
2.37122752E+02
 20
-2.18915601E+02
  0
VERTEX
  8
0
 62
4
 10
2.36975599E+02
 20
-2.18818492E+02
  0
VERTEX
  8
0
 62
4
 10
2.36820836E+02
 20
-2.18735039E+02
  0
VERTEX
  8
0
 62
4
 10
2.36659639E+02
 20
-2.18665875E+02
  0
VERTEX
  8
0
 62
4
 10
2.36493237E+02
 20
-2.18611527E+02
  0
VERTEX
  8
0
 62
4
 10
2.36322895E+02
 20
-2.18572409E+02
  0
VERTEX
  8
0
 62
4
 10
2.36149910E+02
 20
-2.18548818E+02
  0
VERTEX
  8
0
 62
4
 10
2.35975599E+02
 20
-2.18540935E+02
  0
VERTEX
  8
0
 62
4
 10
2.35801288E+02
 20
-2.18548818E+02
  0
VERTEX
  8
0
 62
4
 10
2.35628303E+02
 20
-2.18572409E+02
  0
VERTEX
  8
0
 62
4
 10
2.35457961E+02
 20
-2.18611527E+02
  0
VERTEX
  8
0
 62
4
 10
2.35291559E+02
 20
-2.18665875E+02
  0
VERTEX
  8
0
 62
4
 10
2.35130362E+02
 20
-2.18735039E+02
  0
VERTEX
  8
0
 62
4
 10
2.34975599E+02
 20
-2.18818492E+02
  0
VERTEX
  8
0
 62
4
 10
2.34828446E+02
 20
-2.18915601E+02
  0
VERTEX
  8
0
 62
4
 10
2.34690024E+02
 20
-2.19025625E+02
  0
VERTEX
  8
0
 62
4
 10
2.34561385E+02
 20
-2.19147727E+02
  0
VERTEX
  8
0
 62
4
 10
2.34443510E+02
 20
-2.19280978E+02
  0
VERTEX
  8
0
 62
4
 10
2.34337295E+02
 20
-2.19424364E+02
  0
VERTEX
  8
0
 62
4
 10
2.34243548E+02
 20
-2.19576794E+02
  0
VERTEX
  8
0
 62
4
 10
2.34162983E+02
 20
-2.19737107E+02
  0
VERTEX
  8
0
 62
4
 10
2.34096214E+02
 20
-2.19904084E+02
  0
VERTEX
  8
0
 62
4
 10
2.34043747E+02
 20
-2.20076453E+02
  0
VERTEX
  8
0
 62
4
 10
2.34005983E+02
 20
-2.20252903E+02
  0
VERTEX
  8
0
 62
4
 10
2.33983210E+02
 20
-2.20432091E+02
  0
VERTEX
  8
0
 62
4
 10
2.33975599E+02
 20
-2.20612653E+02
  0
VERTEX
  8
0
 62
4
 10
2.33983210E+02
 20
-2.20793215E+02
  0
VERTEX
  8
0
 62
4
 10
2.34005983E+02
 20
-2.20972403E+02
  0
VERTEX
  8
0
 62
4
 10
2.34043747E+02
 20
-2.21148853E+02
  0
VERTEX
  8
0
 62
4
 10
2.34096214E+02
 20
-2.21321222E+02
  0
VERTEX
  8
0
 62
4
 10
2.34162983E+02
 20
-2.21488199E+02
  0
VERTEX
  8
0
 62
4
 10
2.34243548E+02
 20
-2.21648512E+02
  0
VERTEX
  8
0
 62
4
 10
2.34337295E+02
 20
-2.21800942E+02
  0
VERTEX
  8
0
 62
4
 10
2.34443510E+02
 20
-2.21944328E+02
  0
VERTEX
  8
0
 62
4
 10
2.34561385E+02
 20
-2.22077579E+02
  0
VERTEX
  8
0
 62
4
 10
2.34690024E+02
 20
-2.22199681E+02
  0
VERTEX
  8
0
 62
4
 10
2.34828446E+02
 20
-2.22309705E+02
  0
VERTEX
  8
0
 62
4
 10
2.34975599E+02
 20
-2.22406814E+02
  0
VERTEX
  8
0
 62
4
 10
2.35130362E+02
 20
-2.22490267E+02
  0
VERTEX
  8
0
 62
4
 10
2.35291559E+02
 20
-2.22559431E+02
  0
VERTEX
  8
0
 62
4
 10
2.35457961E+02
 20
-2.22613779E+02
  0
VERTEX
  8
0
 62
4
 10
2.35628303E+02
 20
-2.22652897E+02
  0
VERTEX
  8
0
 62
4
 10
2.35801288E+02
 20
-2.22676488E+02
  0
VERTEX
  8
0
 62
4
 10
2.35975599E+02
 20
-2.22684371E+02
  0
SEQEND
  8
0
  0
POLYLINE
  8
0
 62
4
 66
1
  0
VERTEX
  8
0
 62
4
 10
2.37710599E+02
 20
-2.20940878E+02
  0
VERTEX
  8
0
 62
4
 10
2.37703997E+02
 20
-2.20792967E+02
  0
VERTEX
  8
0
 62
4
 10
2.37684240E+02
 20
-2.20646182E+02
  0
VERTEX
  8
0
 62
4
 10
2.37651480E+02
 20
-2.20501640E+02
  0
VERTEX
  8
0
 62
4
 10
2.37605966E+02
 20
-2.20360440E+02
  0
VERTEX
  8
0
 62
4
 10
2.37548043E+02
 20
-2.20223658E+02
  0
VERTEX
  8
0
 62
4
 10
2.37478153E+02
 20
-2.20092335E+02
  0
VERTEX
  8
0
 62
4
 10
2.37396828E+02
 20
-2.19967469E+02
  0
VERTEX
  8
0
 62
4
 10
2.37304686E+02
 20
-2.19850012E+02
  0
VERTEX
  8
0
 62
4
 10
2.37202429E+02
 20
-2.19740857E+02
  0
VERTEX
  8
0
 62
4
 10
2.37090836E+02
 20
-2.19640835E+02
  0
VERTEX
  8
0
 62
4
 10
2.36970754E+02
 20
-2.19550706E+02
  0
VERTEX
  8
0
 62
4
 10
2.36843099E+02
 20
-2.19471158E+02
  0
VERTEX
  8
0
 62
4
 10
2.36708842E+02
 20
-2.19402796E+02
  0
VERTEX
  8
0
 62
4
 10
2.36569004E+02
 20
-2.19346139E+02
  0
VERTEX
  8
0
 62
4
 10
2.36424650E+02
 20
-2.19301619E+02
  0
VERTEX
  8
0
 62
4
 10
2.36276879E+02
 20
-2.19269574E+02
  0
VERTEX
  8
0
 62
4
 10
2.36126814E+02
 20
-2.19250250E+02
  0
VERTEX
  8
0
 62
4
 10
2.35975599E+02
 20
-2.19243792E+02
  0
VERTEX
  8
0
 62
4
 10
2.35824384E+02
 20
-2.19250250E+02
  0
VERTEX
  8
0
 62
4
 10
2.35674319E+02
 20
-2.19269574E+02
  0
VERTEX
  8
0
 62
4
 10
2.35526548E+02
 20
-2.19301619E+02
  0
VERTEX
  8
0
 62
4
 10
2.35382194E+02
 20
-2.19346139E+02
  0
VERTEX
  8
0
 62
4
 10
2.35242356E+02
 20
-2.19402796E+02
  0
VERTEX
  8
0
 62
4
 10
2.35108099E+02
 20
-2.19471158E+02
  0
VERTEX
  8
0
 62
4
 10
2.34980444E+02
 20
-2.19550706E+02
  0
VERTEX
  8
0
 62
4
 10
2.34860362E+02
 20
-2.19640835E+02
  0
VERTEX
  8
0
 62
4
 10
2.34748769E+02
 20
-2.19740857E+02
  0
VERTEX
  8
0
 62
4
 10
2.34646512E+02
 20
-2.19850012E+02
  0
VERTEX
  8
0
 62
4
 10
2.34554370E+02
 20
-2.19967469E+02
  0
VERTEX
  8
0
 62
4
 10
2.34473045E+02
 20
-2.20092335E+02
  0
VERTEX
  8
0
 62
4
 10
2.34403155E+02
 20
-2.20223658E+02
  0
VERTEX
  8
0
 62
4
 10
2.34345232E+02
 20
-2.20360440E+02
  0
VERTEX
  8
0
 62
4
 10
2.34299718E+02
 20
-2.20501640E+02
  0
VERTEX
  8
0
 62
4
 10
2.34266958E+02
 20
-2.20646182E+02
  0
VERTEX
  8
0
 62
4
 10
2.34247201E+02
 20
-2.20792967E+02
  0
VERTEX
  8
0
 62
4
 10
2.34240599E+02
 20
-2.20940878E+02
  0
VERTEX
  8
0
 62
4
 10
2.34247201E+02
 20
-2.21088789E+02
  0
VERTEX
  8
0
 62
4
 10
2.34266958E+02
 20
-2.21235574E+02
  0
VERTEX
  8
0
 62
4
 10
2.34299718E+02
 20
-2.21380116E+02
  0
VERTEX
  8
0
 62
4
 10
2.34345232E+02
 20
-2.21521316E+02
  0
VERTEX
  8
0
 62
4
 10
2.34403155E+02
 20
-2.21658098E+02
  0
VERTEX
  8
0
 62
4
 10
2.34473045E+02
 20
-2.21789421E+02
  0
VERTEX
  8
0
 62
4
 10
2.34554370E+02
 20
-2.21914287E+02
  0
VERTEX
  8
0
 62
4
 10
2.34646512E+02
 20
-2.22031744E+02
  0
VERTEX
  8
0
 62
4
 10
2.34748769E+02
 20
-2.22140899E+02
  0
VERTEX
  8
0
 62
4
 10
2.34860362E+02
 20
-2.22240921E+02
  0
VERTEX
  8
0
 62
4
 10
2.34980444E+02
 20
-2.22331050E+02
  0
VERTEX
  8
0
 62
4
 10
2.35108099E+02
 20
-2.22410598E+02
  0
VERTEX
  8
0
 62
4
 10
2.35242356E+02
 20
-2.22478960E+02
  0
VERTEX
  8
0
 62
4
 10
2.35382194E+02
 20
-2.22535617E+02
  0
VERTEX
  8
0
 62
4
 10
2.35526548E+02
 20
-2.22580137E+02
  0
VERTEX
  8
0
 62
4
 10
2.35674319E+02
 20
-2.22612182E+02
  0
VERTEX
  8
0
 62
4
 10
2.35824384E+02
 20
-2.22631506E+02
  0
VERTEX
  8
0
 62
4
 10
2.35975599E+02
 20
-2.22637964E+02
  0
VERTEX
  8
0
 62
4
 10
2.36126814E+02
 20
-2.22631506E+02
  0
VERTEX
  8
0
 62
4
 10
2.36276879E+02
 20
-2.22612182E+02
  0
VERTEX
  8
0
 62
4
 10
2.36424650E+02
 20
-2.22580137E+02
  0
VERTEX
  8
0
 62
4
 10
2.36569004E+02
 20
-2.22535617E+02
  0
VERTEX
  8
0
 62
4
 10
2.36708842E+02
 20
-2.22478960E+02
  0
VERTEX
  8
0
 62
4
 10
2.36843099E+02
 20
-2.22410598E+02
  0
VERTEX
  8
0
 62
4
 10
2.36970754E+02
 20
-2.22331050E+02
  0
VERTEX
  8
0
 62
4
 10
2.37090836E+02
 20
-2.22240921E+02
  0
VERTEX
  8
0
 62
4
 10
2.37202429E+02
 20
-2.22140899E+02
  0
VERTEX
  8
0
 62
4
 10
2.37304686E+02
 20
-2.22031744E+02
  0
VERTEX
  8
0
 62
4
 10
2.37396828E+02
 20
-2.21914287E+02
  0
VERTEX
  8
0
 62
4
 10
2.37478153E+02
 20
-2.21789421E+02
  0
VERTEX
  8
0
 62
4
 10
2.37548043E+02
 20
-2.21658098E+02
  0
VERTEX
  8
0
 62
4
 10
2.37605966E+02
 20
-2.21521316E+02
  0
VERTEX
  8
0
 62
4
 10
2.37651480E+02
 20
-2.21380116E+02
  0
VERTEX
  8
0
 62
4
 10
2.37684240E+02
 20
-2.21235574E+02
  0
VERTEX
  8
0
 62
4
 10
2.37703997E+02
 20
-2.21088789E+02
  0
VERTEX
  8
0
 62
4
 10
2.37710599E+02
 20
-2.20940878E+02
  0
SEQEND
  8
0
  0
POLYLINE
  8
0
 62
6
 66
1
  0
VERTEX
  8
0
 62
6
 10
2.37475599E+02
 20
-2.20935988E+02
  0
VERTEX
  8
0
 62
6
 10
2.37469891E+02
 20
-2.20808111E+02
  0
VERTEX
  8
0
 62
6
 10
2.37452811E+02
 20
-2.20681208E+02
  0
VERTEX
  8
0
 62
6
 10
2.37424488E+02
 20
-2.20556243E+02
  0
VERTEX
  8
0
 62
6
 10
2.37385138E+02
 20
-2.20434169E+02
  0
VERTEX
  8
0
 62
6
 10
2.37335061E+02
 20
-2.20315913E+02
  0
VERTEX
  8
0
 62
6
 10
2.37274637E+02
 20
-2.20202377E+02
  0
VERTEX
  8
0
 62
6
 10
2.37204327E+02
 20
-2.20094424E+02
  0
VERTEX
  8
0
 62
6
 10
2.37124666E+02
 20
-2.19992876E+02
  0
VERTEX
  8
0
 62
6
 10
2.37036259E+02
 20
-2.19898506E+02
  0
VERTEX
  8
0
 62
6
 10
2.36939780E+02
 20
-2.19812031E+02
  0
VERTEX
  8
0
 62
6
 10
2.36835964E+02
 20
-2.19734111E+02
  0
VERTEX
  8
0
 62
6
 10
2.36725599E+02
 20
-2.19665337E+02
  0
VERTEX
  8
0
 62
6
 10
2.36609526E+02
 20
-2.19606234E+02
  0
VERTEX
  8
0
 62
6
 10
2.36488629E+02
 20
-2.19557251E+02
  0
VERTEX
  8
0
 62
6
 10
2.36363828E+02
 20
-2.19518761E+02
  0
VERTEX
  8
0
 62
6
 10
2.36236071E+02
 20
-2.19491057E+02
  0
VERTEX
  8
0
 62
6
 10
2.36106333E+02
 20
-2.19474350E+02
  0
VERTEX
  8
0
 62
6
 10
2.35975599E+02
 20
-2.19468767E+02
  0
VERTEX
  8
0
 62
6
 10
2.35844865E+02
 20
-2.19474350E+02
  0
VERTEX
  8
0
 62
6
 10
2.35715127E+02
 20
-2.19491057E+02
  0
VERTEX
  8
0
 62
6
 10
2.35587370E+02
 20
-2.19518761E+02
  0
VERTEX
  8
0
 62
6
 10
2.35462569E+02
 20
-2.19557251E+02
  0
VERTEX
  8
0
 62
6
 10
2.35341672E+02
 20
-2.19606234E+02
  0
VERTEX
  8
0
 62
6
 10
2.35225599E+02
 20
-2.19665337E+02
  0
VERTEX
  8
0
 62
6
 10
2.35115234E+02
 20
-2.19734111E+02
  0
VERTEX
  8
0
 62
6
 10
2.35011418E+02
 20
-2.19812031E+02
  0
VERTEX
  8
0
 62
6
 10
2.34914939E+02
 20
-2.19898506E+02
  0
VERTEX
  8
0
 62
6
 10
2.34826532E+02
 20
-2.19992876E+02
  0
VERTEX
  8
0
 62
6
 10
2.34746871E+02
 20
-2.20094424E+02
  0
VERTEX
  8
0
 62
6
 10
2.34676561E+02
 20
-2.20202377E+02
  0
VERTEX
  8
0
 62
6
 10
2.34616137E+02
 20
-2.20315913E+02
  0
VERTEX
  8
0
 62
6
 10
2.34566060E+02
 20
-2.20434169E+02
  0
VERTEX
  8
0
 62
6
 10
2.34526710E+02
 20
-2.20556243E+02
  0
VERTEX
  8
0
 62
6
 10
2.34498387E+02
 20
-2.20681208E+02
  0
VERTEX
  8
0
 62
6
 10
2.34481307E+02
 20
-2.20808111E+02
  0
VERTEX
  8
0
 62
6
 10
2.34475599E+02
 20
-2.20935988E+02
  0
VERTEX
  8
0
 62
6
 10
2.34481307E+02
 20
-2.21063865E+02
  0
VERTEX
  8
0
 62
6
 10
2.34498387E+02
 20
-2.21190768E+02
  0
VERTEX
  8
0
 62
6
 10
2.34526710E+02
 20
-2.21315733E+02
  0
VERTEX
  8
0
 62
6
 10
2.34566060E+02
 20
-2.21437807E+02
  0
VERTEX
  8
0
 62
6
 10
2.34616137E+02
 20
-2.21556063E+02
  0
VERTEX
  8
0
 62
6
 10
2.34676561E+02
 20
-2.21669599E+02
  0
VERTEX
  8
0
 62
6
 10
2.34746871E+02
 20
-2.21777552E+02
  0
VERTEX
  8
0
 62
6
 10
2.34826532E+02
 20
-2.21879100E+02
  0
VERTEX
  8
0
 62
6
 10
2.34914939E+02
 20
-2.21973470E+02
  0
VERTEX
  8
0
 62
6
 10
2.35011418E+02
 20
-2.22059945E+02
  0
VERTEX
  8
0
 62
6
 10
2.35115234E+02
 20
-2.22137865E+02
  0
VERTEX
  8
0
 62
6
 10
2.35225599E+02
 20
-2.22206639E+02
  0
VERTEX
  8
0
 62
6
 10
2.35341672E+02
 20
-2.22265742E+02
  0
VERTEX
  8
0
 62
6
 10
2.35462569E+02
 20
-2.22314725E+02
  0
VERTEX
  8
0
 62
6
 10
2.35587370E+02
 20
-2.22353215E+02
  0
VERTEX
  8
0
 62
6
 10
2.35715127E+02
 20
-2.22380919E+02
  0
VERTEX
  8
0
 62
6
 10
2.35844865E+02
 20
-2.22397626E+02
  0
VERTEX
  8
0
 62
6
 10
2.35975599E+02
 20
-2.22403209E+02
  0
VERTEX
  8
0
 62
6
 10
2.36106333E+02
 20
-2.22397626E+02
  0
VERTEX
  8
0
 62
6
 10
2.36236071E+02
 20
-2.22380919E+02
  0
VERTEX
  8
0
 62
6
 10
2.36363828E+02
 20
-2.22353215E+02
  0
VERTEX
  8
0
 62
6
 10
2.36488629E+02
 20
-2.22314725E+02
  0
VERTEX
  8
0
 62
6
 10
2.36609526E+02
 20
-2.22265742E+02
  0
VERTEX
  8
0
 62
6
 10
2.36725599E+02
 20
-2.22206639E+02
  0
VERTEX
  8
0
 62
6
 10
2.36835964E+02
 20
-2.22137865E+02
  0
VERTEX
  8
0
 62
6
 10
2.36939780E+02
 20
-2.22059945E+02
  0
VERTEX
  8
0
 62
6
 10
2.37036259E+02
 20
-2.21973470E+02
  0
VERTEX
  8
0
 62
6
 10
2.37124666E+02
 20
-2.21879100E+02
  0
VERTEX
  8
0
 62
6
 10
2.37204327E+02
 20
-2.21777552E+02
  0
VERTEX
  8
0
 62
6
 10
2.37274637E+02
 20
-2.21669599E+02
  0
VERTEX
  8
0
 62
6
 10
2.37335061E+02
 20
-2.21556063E+02
  0
VERTEX
  8
0
 62
6
 10
2.37385138E+02
 20
-2.21437807E+02
  0
VERTEX
  8
0
 62
6
 10
2.37424488E+02
 20
-2.21315733E+02
  0
VERTEX
  8
0
 62
6
 10
2.37452811E+02
 20
-2.21190768E+02
  0
VERTEX
  8
0
 62
6
 10
2.37469891E+02
 20
-2.21063865E+02
  0
VERTEX
  8
0
 62
6
 10
2.37475599E+02
 20
-2.20935988E+02
  0
SEQEND
  8
0
  0
LINE
  8
0
  6
CENTER
 62
6
 10
2.33053331E+02
 20
-2.20935988E+02
 11
2.46897867E+02
 21
-2.20935988E+02
  0
LINE
  8
0
  6
CENTER
 62
6
 10
2.43975599E+02
 20
-2.18013720E+02
 11
2.43975599E+02
 21
-2.23858255E+02
  0
POLYLINE
  8
0
 62
4
 66
1
  0
VERTEX
  8
0
 62
4
 10
2.43975599E+02
 20
-2.22684371E+02
  0
VERTEX
  8
0
 62
4
 10
2.44149910E+02
 20
-2.22676488E+02
  0
VERTEX
  8
0
 62
4
 10
2.44322895E+02
 20
-2.22652897E+02
  0
VERTEX
  8
0
 62
4
 10
2.44493237E+02
 20
-2.22613779E+02
  0
VERTEX
  8
0
 62
4
 10
2.44659639E+02
 20
-2.22559431E+02
  0
VERTEX
  8
0
 62
4
 10
2.44820836E+02
 20
-2.22490267E+02
  0
VERTEX
  8
0
 62
4
 10
2.44975599E+02
 20
-2.22406814E+02
  0
VERTEX
  8
0
 62
4
 10
2.45122752E+02
 20
-2.22309705E+02
  0
VERTEX
  8
0
 62
4
 10
2.45261174E+02
 20
-2.22199681E+02
  0
VERTEX
  8
0
 62
4
 10
2.45389813E+02
 20
-2.22077579E+02
  0
VERTEX
  8
0
 62
4
 10
2.45507688E+02
 20
-2.21944328E+02
  0
VERTEX
  8
0
 62
4
 10
2.45613903E+02
 20
-2.21800942E+02
  0
VERTEX
  8
0
 62
4
 10
2.45707650E+02
 20
-2.21648512E+02
  0
VERTEX
  8
0
 62
4
 10
2.45788215E+02
 20
-2.21488199E+02
  0
VERTEX
  8
0
 62
4
 10
2.45854984E+02
 20
-2.21321222E+02
  0
VERTEX
  8
0
 62
4
 10
2.45907451E+02
 20
-2.21148853E+02
  0
VERTEX
  8
0
 62
4
 10
2.45945215E+02
 20
-2.20972403E+02
  0
VERTEX
  8
0
 62
4
 10
2.45967988E+02
 20
-2.20793215E+02
  0
VERTEX
  8
0
 62
4
 10
2.45975599E+02
 20
-2.20612653E+02
  0
VERTEX
  8
0
 62
4
 10
2.45967988E+02
 20
-2.20432091E+02
  0
VERTEX
  8
0
 62
4
 10
2.45945215E+02
 20
-2.20252903E+02
  0
VERTEX
  8
0
 62
4
 10
2.45907451E+02
 20
-2.20076453E+02
  0
VERTEX
  8
0
 62
4
 10
2.45854984E+02
 20
-2.19904084E+02
  0
VERTEX
  8
0
 62
4
 10
2.45788215E+02
 20
-2.19737107E+02
  0
VERTEX
  8
0
 62
4
 10
2.45707650E+02
 20
-2.19576794E+02
  0
VERTEX
  8
0
 62
4
 10
2.45613903E+02
 20
-2.19424364E+02
  0
VERTEX
  8
0
 62
4
 10
2.45507688E+02
 20
-2.19280978E+02
  0
VERTEX
  8
0
 62
4
 10
2.45389813E+02
 20
-2.19147727E+02
  0
VERTEX
  8
0
 62
4
 10
2.45261174E+02
 20
-2.19025625E+02
  0
VERTEX
  8
0
 62
4
 10
2.45122752E+02
 20
-2.18915601E+02
  0
VERTEX
  8
0
 62
4
 10
2.44975599E+02
 20
-2.18818492E+02
  0
VERTEX
  8
0
 62
4
 10
2.44820836E+02
 20
-2.18735039E+02
  0
VERTEX
  8
0
 62
4
 10
2.44659639E+02
 20
-2.18665875E+02
  0
VERTEX
  8
0
 62
4
 10
2.44493237E+02
 20
-2.18611527E+02
  0
VERTEX
  8
0
 62
4
 10
2.44322895E+02
 20
-2.18572409E+02
  0
VERTEX
  8
0
 62
4
 10
2.44149910E+02
 20
-2.18548818E+02
  0
VERTEX
  8
0
 62
4
 10
2.43975599E+02
 20
-2.18540935E+02
  0
VERTEX
  8
0
 62
4
 10
2.43801288E+02
 20
-2.18548818E+02
  0
VERTEX
  8
0
 62
4
 10
2.43628303E+02
 20
-2.18572409E+02
  0
VERTEX
  8
0
 62
4
 10
2.43457961E+02
 20
-2.18611527E+02
  0
VERTEX
  8
0
 62
4
 10
2.43291559E+02
 20
-2.18665875E+02
  0
VERTEX
  8
0
 62
4
 10
2.43130362E+02
 20
-2.18735039E+02
  0
VERTEX
  8
0
 62
4
 10
2.42975599E+02
 20
-2.18818492E+02
  0
VERTEX
  8
0
 62
4
 10
2.42828446E+02
 20
-2.18915601E+02
  0
VERTEX
  8
0
 62
4
 10
2.42690024E+02
 20
-2.19025625E+02
  0
VERTEX
  8
0
 62
4
 10
2.42561385E+02
 20
-2.19147727E+02
  0
VERTEX
  8
0
 62
4
 10
2.42443510E+02
 20
-2.19280978E+02
  0
VERTEX
  8
0
 62
4
 10
2.42337295E+02
 20
-2.19424364E+02
  0
VERTEX
  8
0
 62
4
 10
2.42243548E+02
 20
-2.19576794E+02
  0
VERTEX
  8
0
 62
4
 10
2.42162983E+02
 20
-2.19737107E+02
  0
VERTEX
  8
0
 62
4
 10
2.42096214E+02
 20
-2.19904084E+02
  0
VERTEX
  8
0
 62
4
 10
2.42043747E+02
 20
-2.20076453E+02
  0
VERTEX
  8
0
 62
4
 10
2.42005983E+02
 20
-2.20252903E+02
  0
VERTEX
  8
0
 62
4
 10
2.41983210E+02
 20
-2.20432091E+02
  0
VERTEX
  8
0
 62
4
 10
2.41975599E+02
 20
-2.20612653E+02
  0
VERTEX
  8
0
 62
4
 10
2.41983210E+02
 20
-2.20793215E+02
  0
VERTEX
  8
0
 62
4
 10
2.42005983E+02
 20
-2.20972403E+02
  0
VERTEX
  8
0
 62
4
 10
2.42043747E+02
 20
-2.21148853E+02
  0
VERTEX
  8
0
 62
4
 10
2.42096214E+02
 20
-2.21321222E+02
  0
VERTEX
  8
0
 62
4
 10
2.42162983E+02
 20
-2.21488199E+02
  0
VERTEX
  8
0
 62
4
 10
2.42243548E+02
 20
-2.21648512E+02
  0
VERTEX
  8
0
 62
4
 10
2.42337295E+02
 20
-2.21800942E+02
  0
VERTEX
  8
0
 62
4
 10
2.42443510E+02
 20
-2.21944328E+02
  0
VERTEX
  8
0
 62
4
 10
2.42561385E+02
 20
-2.22077579E+02
  0
VERTEX
  8
0
 62
4
 10
2.42690024E+02
 20
-2.22199681E+02
  0
VERTEX
  8
0
 62
4
 10
2.42828446E+02
 20
-2.22309705E+02
  0
VERTEX
  8
0
 62
4
 10
2.42975599E+02
 20
-2.22406814E+02
  0
VERTEX
  8
0
 62
4
 10
2.43130362E+02
 20
-2.22490267E+02
  0
VERTEX
  8
0
 62
4
 10
2.43291559E+02
 20
-2.22559431E+02
  0
VERTEX
  8
0
 62
4
 10
2.43457961E+02
 20
-2.22613779E+02
  0
VERTEX
  8
0
 62
4
 10
2.43628303E+02
 20
-2.22652897E+02
  0
VERTEX
  8
0
 62
4
 10
2.43801288E+02
 20
-2.22676488E+02
  0
VERTEX
  8
0
 62
4
 10
2.43975599E+02
 20
-2.22684371E+02
  0
SEQEND
  8
0
  0
POLYLINE
  8
0
 62
4
 66
1
  0
VERTEX
  8
0
 62
4
 10
2.45710599E+02
 20
-2.20940878E+02
  0
VERTEX
  8
0
 62
4
 10
2.45703997E+02
 20
-2.20792967E+02
  0
VERTEX
  8
0
 62
4
 10
2.45684240E+02
 20
-2.20646182E+02
  0
VERTEX
  8
0
 62
4
 10
2.45651480E+02
 20
-2.20501640E+02
  0
VERTEX
  8
0
 62
4
 10
2.45605966E+02
 20
-2.20360440E+02
  0
VERTEX
  8
0
 62
4
 10
2.45548043E+02
 20
-2.20223658E+02
  0
VERTEX
  8
0
 62
4
 10
2.45478153E+02
 20
-2.20092335E+02
  0
VERTEX
  8
0
 62
4
 10
2.45396828E+02
 20
-2.19967469E+02
  0
VERTEX
  8
0
 62
4
 10
2.45304686E+02
 20
-2.19850012E+02
  0
VERTEX
  8
0
 62
4
 10
2.45202429E+02
 20
-2.19740857E+02
  0
VERTEX
  8
0
 62
4
 10
2.45090836E+02
 20
-2.19640835E+02
  0
VERTEX
  8
0
 62
4
 10
2.44970754E+02
 20
-2.19550706E+02
  0
VERTEX
  8
0
 62
4
 10
2.44843099E+02
 20
-2.19471158E+02
  0
VERTEX
  8
0
 62
4
 10
2.44708842E+02
 20
-2.19402796E+02
  0
VERTEX
  8
0
 62
4
 10
2.44569004E+02
 20
-2.19346139E+02
  0
VERTEX
  8
0
 62
4
 10
2.44424650E+02
 20
-2.19301619E+02
  0
VERTEX
  8
0
 62
4
 10
2.44276879E+02
 20
-2.19269574E+02
  0
VERTEX
  8
0
 62
4
 10
2.44126814E+02
 20
-2.19250250E+02
  0
VERTEX
  8
0
 62
4
 10
2.43975599E+02
 20
-2.19243792E+02
  0
VERTEX
  8
0
 62
4
 10
2.43824384E+02
 20
-2.19250250E+02
  0
VERTEX
  8
0
 62
4
 10
2.43674319E+02
 20
-2.19269574E+02
  0
VERTEX
  8
0
 62
4
 10
2.43526548E+02
 20
-2.19301619E+02
  0
VERTEX
  8
0
 62
4
 10
2.43382194E+02
 20
-2.19346139E+02
  0
VERTEX
  8
0
 62
4
 10
2.43242356E+02
 20
-2.19402796E+02
  0
VERTEX
  8
0
 62
4
 10
2.43108099E+02
 20
-2.19471158E+02
  0
VERTEX
  8
0
 62
4
 10
2.42980444E+02
 20
-2.19550706E+02
  0
VERTEX
  8
0
 62
4
 10
2.42860362E+02
 20
-2.19640835E+02
  0
VERTEX
  8
0
 62
4
 10
2.42748769E+02
 20
-2.19740857E+02
  0
VERTEX
  8
0
 62
4
 10
2.42646512E+02
 20
-2.19850012E+02
  0
VERTEX
  8
0
 62
4
 10
2.42554370E+02
 20
-2.19967469E+02
  0
VERTEX
  8
0
 62
4
 10
2.42473045E+02
 20
-2.20092335E+02
  0
VERTEX
  8
0
 62
4
 10
2.42403155E+02
 20
-2.20223658E+02
  0
VERTEX
  8
0
 62
4
 10
2.42345232E+02
 20
-2.20360440E+02
  0
VERTEX
  8
0
 62
4
 10
2.42299718E+02
 20
-2.20501640E+02
  0
VERTEX
  8
0
 62
4
 10
2.42266958E+02
 20
-2.20646182E+02
  0
VERTEX
  8
0
 62
4
 10
2.42247201E+02
 20
-2.20792967E+02
  0
VERTEX
  8
0
 62
4
 10
2.42240599E+02
 20
-2.20940878E+02
  0
VERTEX
  8
0
 62
4
 10
2.42247201E+02
 20
-2.21088789E+02
  0
VERTEX
  8
0
 62
4
 10
2.42266958E+02
 20
-2.21235574E+02
  0
VERTEX
  8
0
 62
4
 10
2.42299718E+02
 20
-2.21380116E+02
  0
VERTEX
  8
0
 62
4
 10
2.42345232E+02
 20
-2.21521316E+02
  0
VERTEX
  8
0
 62
4
 10
2.42403155E+02
 20
-2.21658098E+02
  0
VERTEX
  8
0
 62
4
 10
2.42473045E+02
 20
-2.21789421E+02
  0
VERTEX
  8
0
 62
4
 10
2.42554370E+02
 20
-2.21914287E+02
  0
VERTEX
  8
0
 62
4
 10
2.42646512E+02
 20
-2.22031744E+02
  0
VERTEX
  8
0
 62
4
 10
2.42748769E+02
 20
-2.22140899E+02
  0
VERTEX
  8
0
 62
4
 10
2.42860362E+02
 20
-2.22240921E+02
  0
VERTEX
  8
0
 62
4
 10
2.42980444E+02
 20
-2.22331050E+02
  0
VERTEX
  8
0
 62
4
 10
2.43108099E+02
 20
-2.22410598E+02
  0
VERTEX
  8
0
 62
4
 10
2.43242356E+02
 20
-2.22478960E+02
  0
VERTEX
  8
0
 62
4
 10
2.43382194E+02
 20
-2.22535617E+02
  0
VERTEX
  8
0
 62
4
 10
2.43526548E+02
 20
-2.22580137E+02
  0
VERTEX
  8
0
 62
4
 10
2.43674319E+02
 20
-2.22612182E+02
  0
VERTEX
  8
0
 62
4
 10
2.43824384E+02
 20
-2.22631506E+02
  0
VERTEX
  8
0
 62
4
 10
2.43975599E+02
 20
-2.22637964E+02
  0
VERTEX
  8
0
 62
4
 10
2.44126814E+02
 20
-2.22631506E+02
  0
VERTEX
  8
0
 62
4
 10
2.44276879E+02
 20
-2.22612182E+02
  0
VERTEX
  8
0
 62
4
 10
2.44424650E+02
 20
-2.22580137E+02
  0
VERTEX
  8
0
 62
4
 10
2.44569004E+02
 20
-2.22535617E+02
  0
VERTEX
  8
0
 62
4
 10
2.44708842E+02
 20
-2.22478960E+02
  0
VERTEX
  8
0
 62
4
 10
2.44843099E+02
 20
-2.22410598E+02
  0
VERTEX
  8
0
 62
4
 10
2.44970754E+02
 20
-2.22331050E+02
  0
VERTEX
  8
0
 62
4
 10
2.45090836E+02
 20
-2.22240921E+02
  0
VERTEX
  8
0
 62
4
 10
2.45202429E+02
 20
-2.22140899E+02
  0
VERTEX
  8
0
 62
4
 10
2.45304686E+02
 20
-2.22031744E+02
  0
VERTEX
  8
0
 62
4
 10
2.45396828E+02
 20
-2.21914287E+02
  0
VERTEX
  8
0
 62
4
 10
2.45478153E+02
 20
-2.21789421E+02
  0
VERTEX
  8
0
 62
4
 10
2.45548043E+02
 20
-2.21658098E+02
  0
VERTEX
  8
0
 62
4
 10
2.45605966E+02
 20
-2.21521316E+02
  0
VERTEX
  8
0
 62
4
 10
2.45651480E+02
 20
-2.21380116E+02
  0
VERTEX
  8
0
 62
4
 10
2.45684240E+02
 20
-2.21235574E+02
  0
VERTEX
  8
0
 62
4
 10
2.45703997E+02
 20
-2.21088789E+02
  0
VERTEX
  8
0
 62
4
 10
2.45710599E+02
 20
-2.20940878E+02
  0
SEQEND
  8
0
  0
POLYLINE
  8
0
 62
6
 66
1
  0
VERTEX
  8
0
 62
6
 10
2.45475599E+02
 20
-2.20935988E+02
  0
VERTEX
  8
0
 62
6
 10
2.45469891E+02
 20
-2.20808111E+02
  0
VERTEX
  8
0
 62
6
 10
2.45452811E+02
 20
-2.20681208E+02
  0
VERTEX
  8
0
 62
6
 10
2.45424488E+02
 20
-2.20556243E+02
  0
VERTEX
  8
0
 62
6
 10
2.45385138E+02
 20
-2.20434169E+02
  0
VERTEX
  8
0
 62
6
 10
2.45335061E+02
 20
-2.20315913E+02
  0
VERTEX
  8
0
 62
6
 10
2.45274637E+02
 20
-2.20202377E+02
  0
VERTEX
  8
0
 62
6
 10
2.45204327E+02
 20
-2.20094424E+02
  0
VERTEX
  8
0
 62
6
 10
2.45124666E+02
 20
-2.19992876E+02
  0
VERTEX
  8
0
 62
6
 10
2.45036259E+02
 20
-2.19898506E+02
  0
VERTEX
  8
0
 62
6
 10
2.44939780E+02
 20
-2.19812031E+02
  0
VERTEX
  8
0
 62
6
 10
2.44835964E+02
 20
-2.19734111E+02
  0
VERTEX
  8
0
 62
6
 10
2.44725599E+02
 20
-2.19665337E+02
  0
VERTEX
  8
0
 62
6
 10
2.44609526E+02
 20
-2.19606234E+02
  0
VERTEX
  8
0
 62
6
 10
2.44488629E+02
 20
-2.19557251E+02
  0
VERTEX
  8
0
 62
6
 10
2.44363828E+02
 20
-2.19518761E+02
  0
VERTEX
  8
0
 62
6
 10
2.44236071E+02
 20
-2.19491057E+02
  0
VERTEX
  8
0
 62
6
 10
2.44106333E+02
 20
-2.19474350E+02
  0
VERTEX
  8
0
 62
6
 10
2.43975599E+02
 20
-2.19468767E+02
  0
VERTEX
  8
0
 62
6
 10
2.43844865E+02
 20
-2.19474350E+02
  0
VERTEX
  8
0
 62
6
 10
2.43715127E+02
 20
-2.19491057E+02
  0
VERTEX
  8
0
 62
6
 10
2.43587370E+02
 20
-2.19518761E+02
  0
VERTEX
  8
0
 62
6
 10
2.43462569E+02
 20
-2.19557251E+02
  0
VERTEX
  8
0
 62
6
 10
2.43341672E+02
 20
-2.19606234E+02
  0
VERTEX
  8
0
 62
6
 10
2.43225599E+02
 20
-2.19665337E+02
  0
VERTEX
  8
0
 62
6
 10
2.43115234E+02
 20
-2.19734111E+02
  0
VERTEX
  8
0
 62
6
 10
2.43011418E+02
 20
-2.19812031E+02
  0
VERTEX
  8
0
 62
6
 10
2.42914939E+02
 20
-2.19898506E+02
  0
VERTEX
  8
0
 62
6
 10
2.42826532E+02
 20
-2.19992876E+02
  0
VERTEX
  8
0
 62
6
 10
2.42746871E+02
 20
-2.20094424E+02
  0
VERTEX
  8
0
 62
6
 10
2.42676561E+02
 20
-2.20202377E+02
  0
VERTEX
  8
0
 62
6
 10
2.42616137E+02
 20
-2.20315913E+02
  0
VERTEX
  8
0
 62
6
 10
2.42566060E+02
 20
-2.20434169E+02
  0
VERTEX
  8
0
 62
6
 10
2.42526710E+02
 20
-2.20556243E+02
  0
VERTEX
  8
0
 62
6
 10
2.42498387E+02
 20
-2.20681208E+02
  0
VERTEX
  8
0
 62
6
 10
2.42481307E+02
 20
-2.20808111E+02
  0
VERTEX
  8
0
 62
6
 10
2.42475599E+02
 20
-2.20935988E+02
  0
VERTEX
  8
0
 62
6
 10
2.42481307E+02
 20
-2.21063865E+02
  0
VERTEX
  8
0
 62
6
 10
2.42498387E+02
 20
-2.21190768E+02
  0
VERTEX
  8
0
 62
6
 10
2.42526710E+02
 20
-2.21315733E+02
  0
VERTEX
  8
0
 62
6
 10
2.42566060E+02
 20
-2.21437807E+02
  0
VERTEX
  8
0
 62
6
 10
2.42616137E+02
 20
-2.21556063E+02
  0
VERTEX
  8
0
 62
6
 10
2.42676561E+02
 20
-2.21669599E+02
  0
VERTEX
  8
0
 62
6
 10
2.42746871E+02
 20
-2.21777552E+02
  0
VERTEX
  8
0
 62
6
 10
2.42826532E+02
 20
-2.21879100E+02
  0
VERTEX
  8
0
 62
6
 10
2.42914939E+02
 20
-2.21973470E+02
  0
VERTEX
  8
0
 62
6
 10
2.43011418E+02
 20
-2.22059945E+02
  0
VERTEX
  8
0
 62
6
 10
2.43115234E+02
 20
-2.22137865E+02
  0
VERTEX
  8
0
 62
6
 10
2.43225599E+02
 20
-2.22206639E+02
  0
VERTEX
  8
0
 62
6
 10
2.43341672E+02
 20
-2.22265742E+02
  0
VERTEX
  8
0
 62
6
 10
2.43462569E+02
 20
-2.22314725E+02
  0
VERTEX
  8
0
 62
6
 10
2.43587370E+02
 20
-2.22353215E+02
  0
VERTEX
  8
0
 62
6
 10
2.43715127E+02
 20
-2.22380919E+02
  0
VERTEX
  8
0
 62
6
 10
2.43844865E+02
 20
-2.22397626E+02
  0
VERTEX
  8
0
 62
6
 10
2.43975599E+02
 20
-2.22403209E+02
  0
VERTEX
  8
0
 62
6
 10
2.44106333E+02
 20
-2.22397626E+02
  0
VERTEX
  8
0
 62
6
 10
2.44236071E+02
 20
-2.22380919E+02
  0
VERTEX
  8
0
 62
6
 10
2.44363828E+02
 20
-2.22353215E+02
  0
VERTEX
  8
0
 62
6
 10
2.44488629E+02
 20
-2.22314725E+02
  0
VERTEX
  8
0
 62
6
 10
2.44609526E+02
 20
-2.22265742E+02
  0
VERTEX
  8
0
 62
6
 10
2.44725599E+02
 20
-2.22206639E+02
  0
VERTEX
  8
0
 62
6
 10
2.44835964E+02
 20
-2.22137865E+02
  0
VERTEX
  8
0
 62
6
 10
2.44939780E+02
 20
-2.22059945E+02
  0
VERTEX
  8
0
 62
6
 10
2.45036259E+02
 20
-2.21973470E+02
  0
VERTEX
  8
0
 62
6
 10
2.45124666E+02
 20
-2.21879100E+02
  0
VERTEX
  8
0
 62
6
 10
2.45204327E+02
 20
-2.21777552E+02
  0
VERTEX
  8
0
 62
6
 10
2.45274637E+02
 20
-2.21669599E+02
  0
VERTEX
  8
0
 62
6
 10
2.45335061E+02
 20
-2.21556063E+02
  0
VERTEX
  8
0
 62
6
 10
2.45385138E+02
 20
-2.21437807E+02
  0
VERTEX
  8
0
 62
6
 10
2.45424488E+02
 20
-2.21315733E+02
  0
VERTEX
  8
0
 62
6
 10
2.45452811E+02
 20
-2.21190768E+02
  0
VERTEX
  8
0
 62
6
 10
2.45469891E+02
 20
-2.21063865E+02
  0
VERTEX
  8
0
 62
6
 10
2.45475599E+02
 20
-2.20935988E+02
  0
SEQEND
  8
0
  0
LINE
  8
0
 62
4
 10
2.48975599E+02
 20
-2.12740352E+02
 11
2.47475599E+02
 21
-2.12740352E+02
  0
LINE
  8
0
 62
4
 10
2.32475599E+02
 20
-2.12740352E+02
 11
2.15975599E+02
 21
-2.12740352E+02
  0
LINE
  8
0
 62
4
 10
2.15975599E+02
 20
-2.12740352E+02
 11
2.12975599E+02
 21
-2.09451497E+02
  0
LINE
  8
0
 62
4
 10
2.48975599E+02
 20
-2.12740352E+02
 11
2.51975599E+02
 21
-2.09451497E+02
  0
ARC
  8
0
 62
4
 10
2.14475099E+02
 20
-1.95759004E+02
 40
1.49950029E+00
 50
8.99809029E+01
 51
1.80019097E+02
  0
LINE
  8
0
 62
4
 10
2.50475599E+02
 20
-1.94259504E+02
 11
2.14475599E+02
 21
-1.94259504E+02
  0
ARC
  8
0
 62
4
 10
2.50476099E+02
 20
-1.95759004E+02
 40
1.49950029E+00
 50
3.59980903E+02
 51
9.00190969E+01
  0
LINE
  8
0
 62
4
 10
2.32475599E+02
 20
-1.90254367E+02
 11
2.14475599E+02
 21
-1.90254367E+02
  0
LINE
  8
0
  6
CENTER
 62
6
 10
2.23975599E+02
 20
-1.89223230E+02
 11
2.23975599E+02
 21
-1.91306195E+02
  0
POLYLINE
  8
0
 62
4
 66
1
  0
VERTEX
  8
0
 62
4
 10
2.27115599E+02
 20
-1.91306195E+02
  0
VERTEX
  8
0
 62
4
 10
2.27103650E+02
 20
-1.91249296E+02
  0
VERTEX
  8
0
 62
4
 10
2.27067895E+02
 20
-1.91192830E+02
  0
VERTEX
  8
0
 62
4
 10
2.27008606E+02
 20
-1.91137227E+02
  0
VERTEX
  8
0
 62
4
 10
2.26926234E+02
 20
-1.91082910E+02
  0
VERTEX
  8
0
 62
4
 10
2.26821405E+02
 20
-1.91030292E+02
  0
VERTEX
  8
0
 62
4
 10
2.26694919E+02
 20
-1.90979774E+02
  0
VERTEX
  8
0
 62
4
 10
2.26547736E+02
 20
-1.90931740E+02
  0
VERTEX
  8
0
 62
4
 10
2.26380979E+02
 20
-1.90886556E+02
  0
VERTEX
  8
0
 62
4
 10
2.26195914E+02
 20
-1.90844565E+02
  0
VERTEX
  8
0
 62
4
 10
2.25993952E+02
 20
-1.90806088E+02
  0
VERTEX
  8
0
 62
4
 10
2.25776629E+02
 20
-1.90771418E+02
  0
VERTEX
  8
0
 62
4
 10
2.25545599E+02
 20
-1.90740817E+02
  0
VERTEX
  8
0
 62
4
 10
2.25302620E+02
 20
-1.90714519E+02
  0
VERTEX
  8
0
 62
4
 10
2.25049542E+02
 20
-1.90692724E+02
  0
VERTEX
  8
0
 62
4
 10
2.24788291E+02
 20
-1.90675597E+02
  0
VERTEX
  8
0
 62
4
 10
2.24520854E+02
 20
-1.90663270E+02
  0
VERTEX
  8
0
 62
4
 10
2.24249268E+02
 20
-1.90655837E+02
  0
VERTEX
  8
0
 62
4
 10
2.23975599E+02
 20
-1.90653352E+02
  0
VERTEX
  8
0
 62
4
 10
2.23701930E+02
 20
-1.90655837E+02
  0
VERTEX
  8
0
 62
4
 10
2.23430344E+02
 20
-1.90663270E+02
  0
VERTEX
  8
0
 62
4
 10
2.23162907E+02
 20
-1.90675597E+02
  0
VERTEX
  8
0
 62
4
 10
2.22901656E+02
 20
-1.90692724E+02
  0
VERTEX
  8
0
 62
4
 10
2.22648578E+02
 20
-1.90714519E+02
  0
VERTEX
  8
0
 62
4
 10
2.22405599E+02
 20
-1.90740817E+02
  0
VERTEX
  8
0
 62
4
 10
2.22174569E+02
 20
-1.90771418E+02
  0
VERTEX
  8
0
 62
4
 10
2.21957246E+02
 20
-1.90806088E+02
  0
VERTEX
  8
0
 62
4
 10
2.21755284E+02
 20
-1.90844565E+02
  0
VERTEX
  8
0
 62
4
 10
2.21570219E+02
 20
-1.90886556E+02
  0
VERTEX
  8
0
 62
4
 10
2.21403462E+02
 20
-1.90931740E+02
  0
VERTEX
  8
0
 62
4
 10
2.21256279E+02
 20
-1.90979774E+02
  0
VERTEX
  8
0
 62
4
 10
2.21129793E+02
 20
-1.91030292E+02
  0
VERTEX
  8
0
 62
4
 10
2.21024964E+02
 20
-1.91082910E+02
  0
VERTEX
  8
0
 62
4
 10
2.20942592E+02
 20
-1.91137227E+02
  0
VERTEX
  8
0
 62
4
 10
2.20883303E+02
 20
-1.91192830E+02
  0
VERTEX
  8
0
 62
4
 10
2.20847548E+02
 20
-1.91249296E+02
  0
VERTEX
  8
0
 62
4
 10
2.20835599E+02
 20
-1.91306195E+02
  0
VERTEX
  8
0
 62
4
 10
2.20847548E+02
 20
-1.91363094E+02
  0
VERTEX
  8
0
 62
4
 10
2.20883303E+02
 20
-1.91419560E+02
  0
VERTEX
  8
0
 62
4
 10
2.20942592E+02
 20
-1.91475163E+02
  0
VERTEX
  8
0
 62
4
 10
2.21024964E+02
 20
-1.91529480E+02
  0
VERTEX
  8
0
 62
4
 10
2.21129793E+02
 20
-1.91582098E+02
  0
VERTEX
  8
0
 62
4
 10
2.21256279E+02
 20
-1.91632616E+02
  0
VERTEX
  8
0
 62
4
 10
2.21403462E+02
 20
-1.91680650E+02
  0
VERTEX
  8
0
 62
4
 10
2.21570219E+02
 20
-1.91725834E+02
  0
VERTEX
  8
0
 62
4
 10
2.21755284E+02
 20
-1.91767825E+02
  0
VERTEX
  8
0
 62
4
 10
2.21957246E+02
 20
-1.91806302E+02
  0
VERTEX
  8
0
 62
4
 10
2.22174569E+02
 20
-1.91840972E+02
  0
VERTEX
  8
0
 62
4
 10
2.22405599E+02
 20
-1.91871573E+02
  0
VERTEX
  8
0
 62
4
 10
2.22648578E+02
 20
-1.91897871E+02
  0
VERTEX
  8
0
 62
4
 10
2.22901656E+02
 20
-1.91919666E+02
  0
VERTEX
  8
0
 62
4
 10
2.23162907E+02
 20
-1.91936793E+02
  0
VERTEX
  8
0
 62
4
 10
2.23430344E+02
 20
-1.91949120E+02
  0
VERTEX
  8
0
 62
4
 10
2.23701930E+02
 20
-1.91956553E+02
  0
VERTEX
  8
0
 62
4
 10
2.23975599E+02
 20
-1.91959038E+02
  0
VERTEX
  8
0
 62
4
 10
2.24249268E+02
 20
-1.91956553E+02
  0
VERTEX
  8
0
 62
4
 10
2.24520854E+02
 20
-1.91949120E+02
  0
VERTEX
  8
0
 62
4
 10
2.24788291E+02
 20
-1.91936793E+02
  0
VERTEX
  8
0
 62
4
 10
2.25049542E+02
 20
-1.91919666E+02
  0
VERTEX
  8
0
 62
4
 10
2.25302620E+02
 20
-1.91897871E+02
  0
VERTEX
  8
0
 62
4
 10
2.25545599E+02
 20
-1.91871573E+02
  0
VERTEX
  8
0
 62
4
 10
2.25776629E+02
 20
-1.91840972E+02
  0
VERTEX
  8
0
 62
4
 10
2.25993952E+02
 20
-1.91806302E+02
  0
VERTEX
  8
0
 62
4
 10
2.26195914E+02
 20
-1.91767825E+02
  0
VERTEX
  8
0
 62
4
 10
2.26380979E+02
 20
-1.91725834E+02
  0
VERTEX
  8
0
 62
4
 10
2.26547736E+02
 20
-1.91680650E+02
  0
VERTEX
  8
0
 62
4
 10
2.26694919E+02
 20
-1.91632616E+02
  0
VERTEX
  8
0
 62
4
 10
2.26821405E+02
 20
-1.91582098E+02
  0
VERTEX
  8
0
 62
4
 10
2.26926234E+02
 20
-1.91529480E+02
  0
VERTEX
  8
0
 62
4
 10
2.27008606E+02
 20
-1.91475163E+02
  0
VERTEX
  8
0
 62
4
 10
2.27067895E+02
 20
-1.91419560E+02
  0
VERTEX
  8
0
 62
4
 10
2.27103650E+02
 20
-1.91363094E+02
  0
VERTEX
  8
0
 62
4
 10
2.27115599E+02
 20
-1.91306195E+02
  0
SEQEND
  8
0
  0
POLYLINE
  8
0
 62
4
 66
1
  0
VERTEX
  8
0
 62
4
 10
2.20516348E+02
 20
-1.92173625E+02
  0
VERTEX
  8
0
 62
4
 10
2.20482699E+02
 20
-1.92238015E+02
  0
VERTEX
  8
0
 62
4
 10
2.20476722E+02
 20
-1.92302773E+02
  0
VERTEX
  8
0
 62
4
 10
2.20498463E+02
 20
-1.92367384E+02
  0
VERTEX
  8
0
 62
4
 10
2.20547751E+02
 20
-1.92431338E+02
  0
VERTEX
  8
0
 62
4
 10
2.20624195E+02
 20
-1.92494127E+02
  0
VERTEX
  8
0
 62
4
 10
2.20727189E+02
 20
-1.92555254E+02
  0
VERTEX
  8
0
 62
4
 10
2.20855918E+02
 20
-1.92614235E+02
  0
VERTEX
  8
0
 62
4
 10
2.21009362E+02
 20
-1.92670602E+02
  0
VERTEX
  8
0
 62
4
 10
2.21186305E+02
 20
-1.92723910E+02
  0
VERTEX
  8
0
 62
4
 10
2.21385345E+02
 20
-1.92773735E+02
  0
VERTEX
  8
0
 62
4
 10
2.21604905E+02
 20
-1.92819683E+02
  0
VERTEX
  8
0
 62
4
 10
2.21843247E+02
 20
-1.92861390E+02
  0
VERTEX
  8
0
 62
4
 10
2.22098481E+02
 20
-1.92898525E+02
  0
VERTEX
  8
0
 62
4
 10
2.22368587E+02
 20
-1.92930795E+02
  0
VERTEX
  8
0
 62
4
 10
2.22651423E+02
 20
-1.92957943E+02
  0
VERTEX
  8
0
 62
4
 10
2.22944750E+02
 20
-1.92979756E+02
  0
VERTEX
  8
0
 62
4
 10
2.23246244E+02
 20
-1.92996058E+02
  0
VERTEX
  8
0
 62
4
 10
2.23553515E+02
 20
-1.93006723E+02
  0
VERTEX
  8
0
 62
4
 10
2.23864131E+02
 20
-1.93011665E+02
  0
VERTEX
  8
0
 62
4
 10
2.24175629E+02
 20
-1.93010845E+02
  0
VERTEX
  8
0
 62
4
 10
2.24485543E+02
 20
-1.93004269E+02
  0
VERTEX
  8
0
 62
4
 10
2.24791417E+02
 20
-1.92991990E+02
  0
VERTEX
  8
0
 62
4
 10
2.25090828E+02
 20
-1.92974104E+02
  0
VERTEX
  8
0
 62
4
 10
2.25381403E+02
 20
-1.92950755E+02
  0
VERTEX
  8
0
 62
4
 10
2.25660842E+02
 20
-1.92922126E+02
  0
VERTEX
  8
0
 62
4
 10
2.25926930E+02
 20
-1.92888444E+02
  0
VERTEX
  8
0
 62
4
 10
2.26177559E+02
 20
-1.92849976E+02
  0
VERTEX
  8
0
 62
4
 10
2.26410744E+02
 20
-1.92807028E+02
  0
VERTEX
  8
0
 62
4
 10
2.26624637E+02
 20
-1.92759938E+02
  0
VERTEX
  8
0
 62
4
 10
2.26817544E+02
 20
-1.92709081E+02
  0
VERTEX
  8
0
 62
4
 10
2.26987936E+02
 20
-1.92654859E+02
  0
VERTEX
  8
0
 62
4
 10
2.27134464E+02
 20
-1.92597702E+02
  0
VERTEX
  8
0
 62
4
 10
2.27255967E+02
 20
-1.92538062E+02
  0
VERTEX
  8
0
 62
4
 10
2.27351483E+02
 20
-1.92476412E+02
  0
VERTEX
  8
0
 62
4
 10
2.27420253E+02
 20
-1.92413241E+02
  0
VERTEX
  8
0
 62
4
 10
2.27461735E+02
 20
-1.92349048E+02
  0
VERTEX
  8
0
 62
4
 10
2.27475599E+02
 20
-1.92284343E+02
  0
SEQEND
  8
0
  0
LINE
  8
0
 62
4
 10
2.20835599E+02
 20
-1.91306195E+02
 11
2.20475599E+02
 21
-1.92284343E+02
  0
LINE
  8
0
 62
4
 10
2.27115599E+02
 20
-1.91306195E+02
 11
2.27475599E+02
 21
-1.92284343E+02
  0
CIRCLE
  8
0
 62
7
 10
5.20943604E+01
 20
-2.17057629E+02
 40
2.45850000E+00
  0
CIRCLE
  8
0
 62
7
 10
8.90944366E+01
 20
-2.17057706E+02
 40
2.45850000E+00
  0
CIRCLE
  8
0
 62
7
 10
-2.72250000E+02
 20
-2.17057629E+02
 40
2.45850000E+00
  0
CIRCLE
  8
0
 62
7
 10
-2.35249924E+02
 20
-2.17057706E+02
 40
2.45850000E+00
  0
LINE
  8
0
 62
2
 10
-1.03054312E+01
 20
-2.42581875E+02
 11
8.32078618E+00
 21
-2.10320320E+02
  0
LINE
  8
0
 62
2
 10
3.20938751E+02
 20
-2.29377713E+02
 11
3.14475599E+02
 21
-2.29377713E+02
  0
LINE
  8
0
 62
7
 10
3.20938751E+02
 20
-2.28557721E+02
 11
3.14475599E+02
 21
-2.28557721E+02
  0
ARC
  8
0
 62
4
 10
3.41956271E+02
 20
-2.35557706E+02
 40
2.10175199E+01
 50
1.62412046E+02
 51
1.80000000E+02
  0
ARC
  8
0
 62
4
 10
3.07921231E+02
 20
-2.35557706E+02
 40
2.10175199E+01
 50
0.00000000E+00
 51
1.75879537E+01
  0
LINE
  8
0
 62
4
 10
3.27956271E+02
 20
-2.29206853E+02
 11
3.21921232E+02
 21
-2.29206853E+02
  0
LINE
  8
0
 62
4
 10
3.20938751E+02
 20
-2.24557706E+02
 11
3.21921232E+02
 21
-2.22856000E+02
  0
LINE
  8
0
 62
4
 10
3.28938751E+02
 20
-2.24557706E+02
 11
3.27956271E+02
 21
-2.22856000E+02
  0
LINE
  8
0
 62
4
 10
3.27956271E+02
 20
-2.22856000E+02
 11
3.21921232E+02
 21
-2.22856000E+02
  0
LINE
  8
0
 62
4
 10
3.20938751E+02
 20
-2.35557706E+02
 11
3.20938751E+02
 21
-2.24557706E+02
  0
LINE
  8
0
 62
4
 10
3.28938751E+02
 20
-2.35557706E+02
 11
3.28938751E+02
 21
-2.24557706E+02
  0
ARC
  8
0
 62
4
 10
3.26561561E+02
 20
-2.26031426E+02
 40
5.62281003E+00
 50
1.45615752E+02
 51
2.14384247E+02
  0
ARC
  8
0
 62
4
 10
3.23315941E+02
 20
-2.26031426E+02
 40
5.62281003E+00
 50
3.25615753E+02
 51
3.43842476E+01
  0
LINE
  8
0
 62
4
 10
-2.42750000E+02
 20
-2.35557706E+02
 11
-2.42750000E+02
 21
-2.29206853E+02
  0
LINE
  8
0
  6
CENTER
 62
2
 10
-2.53750000E+02
 20
-2.35557706E+02
 11
-2.53750000E+02
 21
-2.37443153E+02
  0
LINE
  8
0
 62
4
 10
-2.64750000E+02
 20
-2.29206853E+02
 11
-2.64750000E+02
 21
-2.35557706E+02
  0
LINE
  8
0
 62
4
 10
-2.53750000E+02
 20
-2.22856000E+02
 11
-2.64750000E+02
 21
-2.29206853E+02
  0
LINE
  8
0
 62
4
 10
-2.42750000E+02
 20
-2.29206853E+02
 11
-2.53750000E+02
 21
-2.22856000E+02
  0
ARC
  8
0
 62
4
 10
-2.53750000E+02
 20
-2.35557706E+02
 40
1.10000000E+01
 50
0.00000000E+00
 51
1.80000000E+02
  0
LINE
  8
0
 62
4
 10
-1.29750031E+02
 20
-2.35557706E+02
 11
-1.29750031E+02
 21
-2.24557706E+02
  0
LINE
  8
0
 62
4
 10
-1.37750031E+02
 20
-2.35557706E+02
 11
-1.37750031E+02
 21
-2.24557706E+02
  0
LINE
  8
0
 62
2
 10
-1.29750031E+02
 20
-2.29377713E+02
 11
-1.23250031E+02
 21
-2.29377713E+02
  0
LINE
  8
0
 62
7
 10
-1.29750031E+02
 20
-2.28557721E+02
 11
-1.23250031E+02
 21
-2.28557721E+02
  0
LINE
  8
0
 62
7
 10
-1.29750046E+02
 20
-1.02557736E+02
 11
-1.23250000E+02
 21
-1.02557736E+02
  0
LINE
  8
0
 62
2
 10
-1.29750046E+02
 20
-1.01857739E+02
 11
-1.23250000E+02
 21
-1.01857739E+02
  0
LINE
  8
0
 62
7
 10
-1.29750046E+02
 20
-8.85577056E+01
 11
-1.23250000E+02
 21
-8.85577056E+01
  0
LINE
  8
0
 62
2
 10
-1.29750046E+02
 20
-8.92577178E+01
 11
-1.23250000E+02
 21
-8.92577178E+01
  0
ARC
  8
0
 62
4
 10
-1.16732511E+02
 20
-2.35557706E+02
 40
2.10175199E+01
 50
1.62412046E+02
 51
1.80000000E+02
  0
ARC
  8
0
 62
4
 10
-1.50767550E+02
 20
-2.35557706E+02
 40
2.10175199E+01
 50
0.00000000E+00
 51
1.75879537E+01
  0
LINE
  8
0
 62
4
 10
-1.36767550E+02
 20
-2.29206853E+02
 11
-1.30732511E+02
 21
-2.29206853E+02
  0
LINE
  8
0
 62
4
 10
-1.36767550E+02
 20
-2.22856000E+02
 11
-1.30732511E+02
 21
-2.22856000E+02
  0
LINE
  8
0
 62
4
 10
-1.37750031E+02
 20
-2.24557706E+02
 11
-1.36767550E+02
 21
-2.22856000E+02
  0
LINE
  8
0
 62
4
 10
-1.29750031E+02
 20
-2.24557706E+02
 11
-1.30732511E+02
 21
-2.22856000E+02
  0
ARC
  8
0
 62
4
 10
-1.35372841E+02
 20
-2.26031426E+02
 40
5.62281003E+00
 50
3.25615753E+02
 51
3.43842476E+01
  0
ARC
  8
0
 62
4
 10
-1.32127220E+02
 20
-2.26031426E+02
 40
5.62281003E+00
 50
1.45615752E+02
 51
2.14384247E+02
  0
LINE
  8
0
 62
4
 10
-1.37750046E+02
 20
-1.06557706E+02
 11
-1.29750046E+02
 21
-1.06557706E+02
  0
ARC
  8
0
 62
4
 10
-1.21864098E+02
 20
-1.01057706E+02
 40
1.58859473E+01
 50
1.59743839E+02
 51
2.00256161E+02
  0
ARC
  8
0
 62
4
 10
-1.45635996E+02
 20
-1.01057706E+02
 40
1.58859499E+01
 50
3.39743842E+02
 51
2.02561578E+01
  0
LINE
  8
0
 62
4
 10
-1.36767565E+02
 20
-9.55577056E+01
 11
-1.30732526E+02
 21
-9.55577056E+01
  0
LINE
  8
0
 62
4
 10
-1.37750046E+02
 20
-8.45577056E+01
 11
-1.29750046E+02
 21
-8.45577056E+01
  0
ARC
  8
0
 62
4
 10
-1.21864098E+02
 20
-9.00577056E+01
 40
1.58859474E+01
 50
1.59743839E+02
 51
2.00256161E+02
  0
ARC
  8
0
 62
4
 10
-1.45635996E+02
 20
-9.00577056E+01
 40
1.58859499E+01
 50
3.39743842E+02
 51
2.02561578E+01
  0
LINE
  8
0
 62
4
 10
-1.37750046E+02
 20
-1.06557706E+02
 11
-1.37750046E+02
 21
-8.45577056E+01
  0
LINE
  8
0
 62
4
 10
-1.29750046E+02
 20
-1.06557706E+02
 11
-1.29750046E+02
 21
-8.45577056E+01
  0
TEXT
  8
0
 62
7
 10
-3.47600562E+02
 20
2.28100000E+02
 40
6.30000019E+00
  1
DDAH40*75
 41
1.00000015E+00
  7
MONOTXT
  0
TEXT
  8
0
 62
7
 10
1.32589063E+02
 20
-1.84000001E+01
 40
6.30000019E+00
  1
725
 41
1.00000000E+00
  7
MONOTXT
  0
TEXT
  8
0
 62
7
 10
1.32589063E+02
 20
-8.40000009E+00
 40
6.30000019E+00
  1
800
 41
1.00000000E+00
  7
MONOTXT
  0
LINE
  8
0
 62
7
 10
1.53950000E+02
 20
-2.02500000E+01
 11
1.53950000E+02
 21
-2.50000009E-01
  0
TEXT
  8
0
 62
7
 10
1.28039063E+02
 20
3.59999991E+00
 40
6.30000019E+00
  1
(mm)
 41
1.00000000E+00
  7
MONOTXT
  0
LINE
  8
0
 62
7
 10
2.48975599E+02
 20
-2.13557721E+02
 11
2.55475599E+02
 21
-2.13557721E+02
  0
LINE
  8
0
 62
7
 10
1.84773896E+02
 20
-2.13557721E+02
 11
2.15975599E+02
 21
-2.13557721E+02
  0
ARC
  8
0
 62
7
 10
3.00975630E+02
 20
-2.21057706E+02
 40
5.00000000E-01
 50
3.59721787E-05
 51
9.00000179E+01
  0
ARC
  8
0
 62
7
 10
2.87975599E+02
 20
-2.20057706E+02
 40
5.00000000E-01
 50
3.59721787E-05
 51
9.00000179E+01
  0
ARC
  8
0
 62
7
 10
2.96225599E+02
 20
-2.20549100E+02
 40
2.50000000E-01
 50
3.59721787E-05
 51
8.79992642E+01
  0
ARC
  8
0
 62
7
 10
3.11475599E+02
 20
-2.35557706E+02
 40
8.00000000E+00
 50
1.51044955E+02
 51
1.80000000E+02
  0
LINE
  8
0
 62
7
 10
3.14475599E+02
 20
-2.29377713E+02
 11
3.11475599E+02
 21
-2.29377713E+02
  0
LINE
  8
0
 62
7
 10
3.08475600E+02
 20
-2.27557686E+02
 11
3.11475605E+02
 21
-2.28557718E+02
  0
LINE
  8
0
 62
7
 10
3.11475599E+02
 20
-2.35557704E+02
 11
3.08475599E+02
 21
-2.31684717E+02
  0
LINE
  8
0
  6
CENTER
 62
2
 10
2.68475599E+02
 20
-2.08805340E+02
 11
2.68475599E+02
 21
-2.19985943E+02
  0
LINE
  8
0
 62
7
 10
2.81475599E+02
 20
-2.11212308E+02
 11
2.81475599E+02
 21
-2.10557706E+02
  0
LINE
  8
0
 62
7
 10
2.87975599E+02
 20
-2.19557706E+02
 11
2.86475599E+02
 21
-2.19557706E+02
  0
LINE
  8
0
 62
7
 10
3.08475599E+02
 20
-2.27557690E+02
 11
3.01475614E+02
 21
-2.27557690E+02
  0
LINE
  8
0
 62
7
 10
2.96234326E+02
 20
-2.20299223E+02
 11
2.88474743E+02
 21
-2.20028252E+02
  0
LINE
  8
0
 62
7
 10
3.00975630E+02
 20
-2.20557675E+02
 11
2.96466657E+02
 21
-2.20557675E+02
  0
LINE
  8
0
 62
2
 10
3.09860203E+02
 20
-2.33472241E+02
 11
3.07975578E+02
 21
-2.35557706E+02
  0
LINE
  8
0
 62
2
 10
3.07975580E+02
 20
-2.35557706E+02
 11
3.04475581E+02
 21
-2.31684721E+02
  0
LINE
  8
0
 62
7
 10
3.08475584E+02
 20
-2.31684720E+02
 11
3.04475599E+02
 21
-2.31684720E+02
  0
LINE
  8
0
 62
7
 10
3.35475480E+02
 20
-2.30057810E+02
 11
3.33975534E+02
 21
-2.28557818E+02
  0
LINE
  8
0
 62
7
 10
3.14475599E+02
 20
-2.28557721E+02
 11
3.14475599E+02
 21
-2.35557706E+02
  0
LINE
  8
0
 62
7
 10
3.33975568E+02
 20
-2.28557721E+02
 11
3.33975568E+02
 21
-2.35557706E+02
  0
LINE
  8
0
 62
2
 10
3.34795515E+02
 20
-2.29377713E+02
 11
3.28938751E+02
 21
-2.29377713E+02
  0
LINE
  8
0
 62
7
 10
3.33975568E+02
 20
-2.28557721E+02
 11
3.28938751E+02
 21
-2.28557721E+02
  0
LINE
  8
0
 62
7
 10
3.35475568E+02
 20
-2.35557706E+02
 11
3.35475568E+02
 21
-2.30057721E+02
  0
LINE
  8
0
 62
7
 10
3.04475599E+02
 20
-2.35557706E+02
 11
3.04475599E+02
 21
-2.31684720E+02
  0
LINE
  8
0
 62
7
 10
3.08475599E+02
 20
-2.31684720E+02
 11
3.08475599E+02
 21
-2.27557736E+02
  0
LINE
  8
0
 62
7
 10
3.11475599E+02
 20
-2.35557706E+02
 11
3.11475599E+02
 21
-2.28557721E+02
  0
LINE
  8
0
 62
7
 10
2.86475599E+02
 20
-2.11343274E+02
 11
2.86475599E+02
 21
-2.35557706E+02
  0
LINE
  8
0
 62
7
 10
2.96475599E+02
 20
-2.35557706E+02
 11
2.96475599E+02
 21
-2.20549100E+02
  0
LINE
  8
0
 62
7
 10
2.88475599E+02
 20
-2.20057706E+02
 11
2.88475599E+02
 21
-2.35557706E+02
  0
LINE
  8
0
 62
7
 10
3.01475599E+02
 20
-2.35557706E+02
 11
3.01475599E+02
 21
-2.21057706E+02
  0
ARC
  8
0
 62
4
 10
4.70303211E+01
 20
-2.24906228E+02
 40
1.50000000E+00
 50
1.90000000E+02
 51
1.96794373E+02
  0
ARC
  8
0
 62
4
 10
-2.30185900E+02
 20
-2.24906228E+02
 40
1.50000000E+00
 50
3.43189498E+02
 51
3.50000000E+02
  0
LINE
  8
0
  6
CENTER
 62
2
 10
-1.47883850E+02
 20
-9.55577056E+01
 11
-6.07499487E+01
 21
-9.55577056E+01
  0
LINE
  8
0
  6
CENTER
 62
2
 10
-7.72500000E+01
 20
-1.01573575E+02
 11
-7.72500000E+01
 21
-8.14135405E+01
  0
LINE
  8
0
  6
CENTER
 62
2
 10
-8.73667145E+01
 20
-9.15577666E+01
 11
-7.57499487E+01
 21
-9.15577666E+01
  0
LINE
  8
0
  6
CENTER
 62
2
 10
-6.97499847E+01
 20
-1.11477414E+02
 11
-6.97499847E+01
 21
-9.99527861E+01
  0
LINE
  8
0
 62
7
 10
-1.09750031E+02
 20
-1.10557706E+02
 11
-1.05241058E+02
 21
-1.10557706E+02
  0
LINE
  8
0
 62
7
 10
-9.67500000E+01
 20
-1.11557675E+02
 11
-9.52500000E+01
 21
-1.11557675E+02
  0
LINE
  8
0
 62
7
 10
-1.05008766E+02
 20
-1.10816065E+02
 11
-9.72491832E+01
 21
-1.11087037E+02
  0
LINE
  8
0
 62
7
 10
-1.10249954E+02
 20
-1.10057706E+02
 11
-1.10249954E+02
 21
-8.10577056E+01
  0
LINE
  8
0
 62
7
 10
-1.09750031E+02
 20
-8.05576445E+01
 11
-1.05241058E+02
 21
-8.05576445E+01
  0
LINE
  8
0
 62
7
 10
-9.67500000E+01
 20
-7.95576750E+01
 11
-9.52500000E+01
 21
-7.95576750E+01
  0
LINE
  8
0
 62
7
 10
-6.42499542E+01
 20
-1.20557706E+02
 11
-6.42499542E+01
 21
-9.40997780E+01
  0
LINE
  8
0
 62
7
 10
-9.52499542E+01
 20
-1.19525235E+02
 11
-9.52499542E+01
 21
-7.15901763E+01
  0
LINE
  8
0
 62
7
 10
-1.05008731E+02
 20
-8.02991560E+01
 11
-9.72491479E+01
 21
-8.00281866E+01
  0
LINE
  8
0
 62
7
 10
-1.05249954E+02
 20
-8.05576750E+01
 11
-1.05249954E+02
 21
-1.10557736E+02
  0
LINE
  8
0
 62
7
 10
-9.72499542E+01
 20
-8.00577056E+01
 11
-9.72499542E+01
 21
-1.11087125E+02
  0
LINE
  8
0
 62
7
 10
-6.42500219E+01
 20
-7.05576358E+01
 11
-9.47587418E+01
 21
-7.10901628E+01
  0
LINE
  8
0
 62
7
 10
-6.42499481E+01
 20
-1.20557574E+02
 11
-9.47586984E+01
 21
-1.20025038E+02
  0
LINE
  8
0
  6
CENTER
 62
2
 10
-7.54465942E+01
 20
-1.05557706E+02
 11
-6.38311005E+01
 21
-1.05557706E+02
  0
LINE
  8
0
 62
7
 10
-8.82499542E+01
 20
-7.55577056E+01
 11
-6.42499542E+01
 21
-7.55577056E+01
  0
LINE
  8
0
 62
7
 10
-8.82499542E+01
 20
-1.15557706E+02
 11
-6.42499542E+01
 21
-1.15557706E+02
  0
LINE
  8
0
 62
7
 10
-9.02499542E+01
 20
-7.75577056E+01
 11
-9.02499542E+01
 21
-1.13557706E+02
  0
LINE
  8
0
  6
CENTER
 62
2
 10
-1.47487244E+02
 20
-2.35557706E+02
 11
-6.25002503E+00
 21
-2.35557706E+02
  0
LINE
  8
0
 62
7
 10
-1.10250031E+02
 20
-2.35557706E+02
 11
-1.10250031E+02
 21
-2.21057706E+02
  0
LINE
  8
0
  6
CENTER
 62
2
 10
-2.35249939E+02
 20
-2.08551053E+02
 11
-2.35249939E+02
 21
-2.23472195E+02
  0
LINE
  8
0
 62
7
 10
-2.28750000E+02
 20
-2.13557675E+02
 11
-2.28750000E+02
 21
-2.35557706E+02
  0
LINE
  8
0
 62
7
 10
-2.75750000E+02
 20
-2.11057675E+02
 11
-2.31750000E+02
 21
-2.11057736E+02
  0
LINE
  8
0
 62
7
 10
-2.29250000E+02
 20
-2.13557736E+02
 11
-2.29250000E+02
 21
-2.35557706E+02
  0
LINE
  8
0
 62
7
 10
-2.32750000E+02
 20
-2.34557706E+02
 11
-2.36868042E+02
 21
-2.34557706E+02
  0
LINE
  8
0
 62
7
 10
-2.40020202E+02
 20
-2.23241897E+02
 11
-2.41105678E+02
 21
-2.24327374E+02
  0
LINE
  8
0
 62
7
 10
-2.52750000E+02
 20
-2.14557706E+02
 11
-2.52750000E+02
 21
-2.18675763E+02
  0
LINE
  8
0
 62
7
 10
-2.41434361E+02
 20
-2.21827716E+02
 11
-2.42519827E+02
 21
-2.22913182E+02
  0
LINE
  8
0
 62
7
 10
-2.31750000E+02
 20
-2.30557675E+02
 11
-2.31750000E+02
 21
-2.35557706E+02
  0
LINE
  8
0
  6
CENTER
 62
2
 10
-2.80839905E+02
 20
-2.17057629E+02
 11
-2.66173035E+02
 21
-2.17057629E+02
  0
LINE
  8
0
  6
CENTER
 62
2
 10
-2.72250000E+02
 20
-2.08655057E+02
 11
-2.72250000E+02
 21
-2.24942044E+02
  0
LINE
  8
0
 62
7
 10
-2.75750061E+02
 20
-2.10557675E+02
 11
-2.31750000E+02
 21
-2.10557675E+02
  0
LINE
  8
0
 62
7
 10
-2.78750061E+02
 20
-2.13557675E+02
 11
-2.78750061E+02
 21
-2.35557706E+02
  0
LINE
  8
0
 62
7
 10
-2.78250000E+02
 20
-2.13557675E+02
 11
-2.78250000E+02
 21
-2.35557706E+02
  0
LINE
  8
0
 62
7
 10
-2.54750000E+02
 20
-2.14557706E+02
 11
-2.54750000E+02
 21
-2.18675748E+02
  0
LINE
  8
0
 62
7
 10
-2.74750000E+02
 20
-2.34557690E+02
 11
-2.70631958E+02
 21
-2.34557690E+02
  0
LINE
  8
0
 62
7
 10
-2.67479947E+02
 20
-2.23242007E+02
 11
-2.66394471E+02
 21
-2.24327483E+02
  0
LINE
  8
0
 62
7
 10
-2.66065777E+02
 20
-2.21827750E+02
 11
-2.64980300E+02
 21
-2.22913226E+02
  0
LINE
  8
0
 62
7
 10
-2.58750061E+02
 20
-2.13557675E+02
 11
-2.48750000E+02
 21
-2.13557675E+02
  0
LINE
  8
0
 62
7
 10
-2.75750000E+02
 20
-2.30557675E+02
 11
-2.75750000E+02
 21
-2.35557706E+02
  0
LINE
  8
0
  6
CENTER
 62
2
 10
-2.53750000E+02
 20
-2.07062710E+02
 11
-2.53750000E+02
 21
-2.35557706E+02
  0
LINE
  8
0
 62
7
 10
-2.73750000E+02
 20
-2.10557675E+02
 11
-2.73750000E+02
 21
-2.11057675E+02
  0
LINE
  8
0
 62
7
 10
-2.33750000E+02
 20
-2.10557675E+02
 11
-2.33750000E+02
 21
-2.11057736E+02
  0
LINE
  8
0
 62
7
 10
-2.35749939E+02
 20
-2.24846402E+02
 11
-2.35749939E+02
 21
-2.26807675E+02
  0
LINE
  8
0
 62
7
 10
-2.64461731E+02
 20
-2.17557614E+02
 11
-2.62500061E+02
 21
-2.17557614E+02
  0
LINE
  8
0
 62
7
 10
-2.71750000E+02
 20
-2.24845547E+02
 11
-2.71750000E+02
 21
-2.26807675E+02
  0
LINE
  8
0
  6
CENTER
 62
2
 10
-2.41631409E+02
 20
-2.17057629E+02
 11
-2.27109741E+02
 21
-2.17057629E+02
  0
LINE
  8
0
  6
CENTER
 62
2
 10
-2.24777679E+02
 20
-2.35557706E+02
 11
-2.83453796E+02
 21
-2.35557706E+02
  0
LINE
  8
0
 62
7
 10
-9.72500305E+01
 20
-2.20057706E+02
 11
-9.72500305E+01
 21
-2.35557706E+02
  0
LINE
  8
0
 62
7
 10
-1.05250031E+02
 20
-2.35557706E+02
 11
-1.05250031E+02
 21
-2.20549100E+02
  0
LINE
  8
0
 62
7
 10
-6.42500305E+01
 20
-2.10557706E+02
 11
-6.42500305E+01
 21
-2.35557706E+02
  0
LINE
  8
0
 62
7
 10
-9.52500305E+01
 20
-2.11343274E+02
 11
-9.52500305E+01
 21
-2.35557706E+02
  0
LINE
  8
0
 62
7
 10
-2.43136963E+02
 20
-2.17528515E+02
 11
-2.45167053E+02
 21
-2.17528515E+02
  0
LINE
  8
0
 62
7
 10
-1.12250031E+02
 20
-8.75577361E+01
 11
-1.10249954E+02
 21
-8.75577361E+01
  0
LINE
  8
0
 62
7
 10
-1.12249939E+02
 20
-1.03557721E+02
 11
-1.10249969E+02
 21
-1.03557721E+02
  0
LINE
  8
0
 62
7
 10
-1.20249969E+02
 20
-8.85577056E+01
 11
-1.20249969E+02
 21
-1.02557736E+02
  0
LINE
  8
0
 62
7
 10
-1.44250000E+02
 20
-1.01057736E+02
 11
-1.44250000E+02
 21
-9.00577056E+01
  0
LINE
  8
0
 62
7
 10
-1.42749969E+02
 20
-8.85577056E+01
 11
-1.37750046E+02
 21
-8.85577056E+01
  0
LINE
  8
0
 62
7
 10
-1.23250000E+02
 20
-1.02557736E+02
 11
-1.23250000E+02
 21
-8.85577056E+01
  0
LINE
  8
0
 62
2
 10
-1.43450012E+02
 20
-8.92577178E+01
 11
-1.37750046E+02
 21
-8.92577178E+01
  0
LINE
  8
0
 62
7
 10
-1.20249969E+02
 20
-8.85577056E+01
 11
-1.13250000E+02
 21
-8.85577056E+01
  0
LINE
  8
0
 62
7
 10
-1.42750000E+02
 20
-1.02557736E+02
 11
-1.37750046E+02
 21
-1.02557736E+02
  0
LINE
  8
0
 62
2
 10
-1.43450012E+02
 20
-1.01857739E+02
 11
-1.37750046E+02
 21
-1.01857739E+02
  0
LINE
  8
0
 62
7
 10
-1.20249969E+02
 20
-1.02557736E+02
 11
-1.13249924E+02
 21
-1.02557736E+02
  0
LINE
  8
0
 62
7
 10
-6.83066211E+01
 20
-1.05557612E+02
 11
-6.90282938E+01
 21
-1.04307622E+02
  0
LINE
  8
0
 62
7
 10
-6.90282898E+01
 20
-1.04307645E+02
 11
-7.04716797E+01
 21
-1.04307645E+02
  0
LINE
  8
0
 62
7
 10
-7.11932780E+01
 20
-1.05557694E+02
 11
-7.04715901E+01
 21
-1.04307677E+02
  0
LINE
  8
0
 62
7
 10
-7.04716458E+01
 20
-1.06807679E+02
 11
-7.11933490E+01
 21
-1.05557636E+02
  0
LINE
  8
0
 62
7
 10
-6.90282898E+01
 20
-1.06807675E+02
 11
-7.04716797E+01
 21
-1.06807675E+02
  0
LINE
  8
0
 62
7
 10
-6.83064896E+01
 20
-1.05557735E+02
 11
-6.90281776E+01
 21
-1.06807752E+02
  0
LINE
  8
0
  6
CENTER
 62
2
 10
-9.74769745E+01
 20
-1.14057706E+02
 11
-1.69309287E+01
 21
-1.14057706E+02
  0
LINE
  8
0
 62
7
 10
-6.42499542E+01
 20
-1.16707699E+02
 11
-1.84609034E+01
 21
-1.16707699E+02
  0
LINE
  8
0
 62
7
 10
-6.42499542E+01
 20
-1.17557690E+02
 11
-1.89516458E+01
 21
-1.17557690E+02
  0
LINE
  8
0
  6
CENTER
 62
2
 10
-9.74769745E+01
 20
-7.70577056E+01
 11
-5.62499487E+01
 21
-7.70577056E+01
  0
LINE
  8
0
 62
7
 10
-6.42499542E+01
 20
-7.97076995E+01
 11
-5.62499487E+01
 21
-7.97076995E+01
  0
LINE
  8
0
 62
7
 10
-6.42499542E+01
 20
-7.44077117E+01
 11
-5.62499487E+01
 21
-7.44077117E+01
  0
LINE
  8
0
 62
7
 10
-6.42499542E+01
 20
-7.35577208E+01
 11
-5.62499487E+01
 21
-7.35577208E+01
  0
LINE
  8
0
 62
7
 10
-1.20250031E+02
 20
-2.35557706E+02
 11
-1.20250031E+02
 21
-2.28557721E+02
  0
LINE
  8
0
 62
7
 10
-1.17250031E+02
 20
-2.31684720E+02
 11
-1.17250031E+02
 21
-2.27557736E+02
  0
LINE
  8
0
 62
7
 10
-1.13250031E+02
 20
-2.35557706E+02
 11
-1.13250031E+02
 21
-2.31684720E+02
  0
LINE
  8
0
 62
7
 10
-1.13250012E+02
 20
-8.85576641E+01
 11
-1.12250062E+02
 21
-8.75577143E+01
  0
LINE
  8
0
 62
7
 10
-1.13249976E+02
 20
-1.02557690E+02
 11
-1.12249953E+02
 21
-1.03557712E+02
  0
LINE
  8
0
 62
7
 10
-1.17249969E+02
 20
-8.85577056E+01
 11
-1.17249969E+02
 21
-1.02557736E+02
  0
LINE
  8
0
 62
7
 10
-1.44250000E+02
 20
-2.35557706E+02
 11
-1.44250000E+02
 21
-2.30057721E+02
  0
LINE
  8
0
 62
7
 10
-1.42750000E+02
 20
-2.28557721E+02
 11
-1.37750031E+02
 21
-2.28557721E+02
  0
LINE
  8
0
 62
2
 10
-1.43569946E+02
 20
-2.29377713E+02
 11
-1.37750031E+02
 21
-2.29377713E+02
  0
LINE
  8
0
 62
7
 10
-1.42750000E+02
 20
-2.28557721E+02
 11
-1.42750000E+02
 21
-2.35557706E+02
  0
LINE
  8
0
 62
7
 10
-1.23250031E+02
 20
-2.28557721E+02
 11
-1.23250031E+02
 21
-2.35557706E+02
  0
LINE
  8
0
 62
7
 10
-1.44249912E+02
 20
-2.30057810E+02
 11
-1.42749965E+02
 21
-2.28557818E+02
  0
LINE
  8
0
 62
7
 10
-1.17250015E+02
 20
-2.31684720E+02
 11
-1.13250031E+02
 21
-2.31684720E+02
  0
LINE
  8
0
 62
2
 10
-1.16750012E+02
 20
-2.35557706E+02
 11
-1.13250013E+02
 21
-2.31684721E+02
  0
LINE
  8
0
 62
2
 10
-1.18634634E+02
 20
-2.33472241E+02
 11
-1.16750010E+02
 21
-2.35557706E+02
  0
LINE
  8
0
  6
CENTER
 62
2
 10
4.43095495E+00
 20
-2.17057706E+02
 11
-9.73534546E+01
 21
-2.17057706E+02
  0
LINE
  8
0
 62
7
 10
2.90098026E+00
 20
-2.19707699E+02
 11
-6.42500305E+01
 21
-2.19707699E+02
  0
LINE
  8
0
 62
7
 10
5.96092964E+00
 20
-2.14407712E+02
 11
-6.42500305E+01
 21
-2.14407712E+02
  0
LINE
  8
0
 62
7
 10
6.45167208E+00
 20
-2.13557721E+02
 11
-6.42500305E+01
 21
-2.13557721E+02
  0
LINE
  8
0
 62
7
 10
-1.09750061E+02
 20
-2.20557675E+02
 11
-1.05241089E+02
 21
-2.20557675E+02
  0
LINE
  8
0
 62
7
 10
-1.05008758E+02
 20
-2.20299223E+02
 11
-9.72491747E+01
 21
-2.20028252E+02
  0
LINE
  8
0
 62
7
 10
-1.17250031E+02
 20
-2.27557690E+02
 11
-1.10250046E+02
 21
-2.27557690E+02
  0
LINE
  8
0
 62
7
 10
-9.67500305E+01
 20
-2.19557706E+02
 11
-9.52500305E+01
 21
-2.19557706E+02
  0
LINE
  8
0
 62
7
 10
-9.02500305E+01
 20
-2.10557706E+02
 11
-6.42500305E+01
 21
-2.10557706E+02
  0
LINE
  8
0
 62
7
 10
-9.52500951E+01
 20
-2.11343280E+02
 11
-6.42500708E+01
 21
-2.10531516E+02
  0
LINE
  8
0
 62
7
 10
-9.02500305E+01
 20
-2.11212308E+02
 11
-9.02500305E+01
 21
-2.10557706E+02
  0
LINE
  8
0
  6
CENTER
 62
2
 10
-2.57750061E+02
 20
-2.08805310E+02
 11
-2.57750061E+02
 21
-2.19985913E+02
  0
LINE
  8
0
  6
CENTER
 62
2
 10
-7.72500305E+01
 20
-2.08805340E+02
 11
-7.72500305E+01
 21
-2.19985943E+02
  0
LINE
  8
0
 62
7
 10
-1.42750000E+02
 20
-1.02557736E+02
 11
-1.42750000E+02
 21
-8.85577056E+01
  0
LINE
  8
0
 62
7
 10
-1.44250017E+02
 20
-1.01057724E+02
 11
-1.42750004E+02
 21
-1.02557737E+02
  0
LINE
  8
0
 62
7
 10
-1.44249998E+02
 20
-9.00577038E+01
 11
-1.42749968E+02
 21
-8.85577040E+01
  0
LINE
  8
0
 62
7
 10
-1.20250031E+02
 20
-2.35557704E+02
 11
-1.17250030E+02
 21
-2.31684717E+02
  0
LINE
  8
0
 62
7
 10
-1.17250032E+02
 20
-2.27557686E+02
 11
-1.20250037E+02
 21
-2.28557718E+02
  0
LINE
  8
0
  6
CENTER
 62
2
 10
7.45944214E+01
 20
-2.08805310E+02
 11
7.45944214E+01
 21
-2.19985913E+02
  0
LINE
  8
0
  6
CENTER
 62
2
 10
5.20942993E+01
 20
-2.08551053E+02
 11
5.20942993E+01
 21
-2.23472195E+02
  0
LINE
  8
0
 62
7
 10
4.55943604E+01
 20
-2.13557675E+02
 11
4.55943604E+01
 21
-2.35557706E+02
  0
LINE
  8
0
 62
7
 10
4.85943604E+01
 20
-2.10557675E+02
 11
9.25944214E+01
 21
-2.10557675E+02
  0
LINE
  8
0
 62
7
 10
4.60943604E+01
 20
-2.13557736E+02
 11
4.60943604E+01
 21
-2.35557706E+02
  0
LINE
  8
0
 62
7
 10
4.95943604E+01
 20
-2.34557706E+02
 11
5.37124023E+01
 21
-2.34557706E+02
  0
LINE
  8
0
 62
7
 10
5.68645520E+01
 20
-2.23241897E+02
 11
5.79500283E+01
 21
-2.24327373E+02
  0
LINE
  8
0
 62
7
 10
6.95943604E+01
 20
-2.14557706E+02
 11
6.95943604E+01
 21
-2.18675763E+02
  0
LINE
  8
0
 62
7
 10
5.82787115E+01
 20
-2.21827715E+02
 11
5.93641771E+01
 21
-2.22913181E+02
  0
LINE
  8
0
 62
7
 10
4.85943604E+01
 20
-2.30557675E+02
 11
4.85943604E+01
 21
-2.35557706E+02
  0
LINE
  8
0
  6
CENTER
 62
2
 10
9.76842651E+01
 20
-2.17057629E+02
 11
8.30173950E+01
 21
-2.17057629E+02
  0
LINE
  8
0
  6
CENTER
 62
2
 10
8.90943604E+01
 20
-2.08655057E+02
 11
8.90943604E+01
 21
-2.24942044E+02
  0
LINE
  8
0
 62
7
 10
9.55944214E+01
 20
-2.13557675E+02
 11
9.55944214E+01
 21
-2.35557706E+02
  0
LINE
  8
0
 62
7
 10
9.50943604E+01
 20
-2.13557675E+02
 11
9.50943604E+01
 21
-2.35557706E+02
  0
LINE
  8
0
 62
7
 10
4.85943604E+01
 20
-2.11057736E+02
 11
9.25943604E+01
 21
-2.11057675E+02
  0
LINE
  8
0
 62
7
 10
7.15943604E+01
 20
-2.14557706E+02
 11
7.15943604E+01
 21
-2.18675748E+02
  0
LINE
  8
0
 62
7
 10
9.15943604E+01
 20
-2.34557690E+02
 11
8.74763184E+01
 21
-2.34557690E+02
  0
LINE
  8
0
 62
7
 10
8.43242973E+01
 20
-2.23242011E+02
 11
8.32388208E+01
 21
-2.24327487E+02
  0
LINE
  8
0
 62
7
 10
8.29101272E+01
 20
-2.21827754E+02
 11
8.18246507E+01
 21
-2.22913230E+02
  0
LINE
  8
0
 62
7
 10
6.55943604E+01
 20
-2.13557675E+02
 11
7.55944214E+01
 21
-2.13557675E+02
  0
LINE
  8
0
 62
7
 10
9.25943604E+01
 20
-2.30557675E+02
 11
9.25943604E+01
 21
-2.35557706E+02
  0
LINE
  8
0
  6
CENTER
 62
2
 10
7.05943604E+01
 20
-2.07062710E+02
 11
7.05943604E+01
 21
-2.38847965E+02
  0
LINE
  8
0
 62
7
 10
9.05943604E+01
 20
-2.10557675E+02
 11
9.05943604E+01
 21
-2.11057675E+02
  0
LINE
  8
0
 62
7
 10
5.05943604E+01
 20
-2.10557675E+02
 11
5.05943604E+01
 21
-2.11057736E+02
  0
LINE
  8
0
 62
7
 10
5.25942993E+01
 20
-2.24846402E+02
 11
5.25942993E+01
 21
-2.26807675E+02
  0
LINE
  8
0
 62
7
 10
8.13060913E+01
 20
-2.17557614E+02
 11
7.93444214E+01
 21
-2.17557614E+02
  0
LINE
  8
0
 62
7
 10
8.85943604E+01
 20
-2.24845547E+02
 11
8.85943604E+01
 21
-2.26807675E+02
  0
LINE
  8
0
  6
CENTER
 62
2
 10
5.84757690E+01
 20
-2.17057629E+02
 11
4.39541016E+01
 21
-2.17057629E+02
  0
LINE
  8
0
  6
CENTER
 62
2
 10
4.16220398E+01
 20
-2.35557706E+02
 11
1.00298157E+02
 21
-2.35557706E+02
  0
LINE
  8
0
 62
7
 10
5.99813232E+01
 20
-2.17528515E+02
 11
6.20114136E+01
 21
-2.17528515E+02
  0
LINE
  8
0
 62
7
 10
5.20942973E+01
 20
-2.13593528E+02
 11
4.90942988E+01
 21
-2.15325578E+02
  0
LINE
  8
0
 62
7
 10
4.90942993E+01
 20
-2.15325574E+02
 11
4.90942993E+01
 21
-2.18789685E+02
  0
LINE
  8
0
 62
7
 10
5.20943017E+01
 20
-2.20521730E+02
 11
4.90943000E+01
 21
-2.18789679E+02
  0
LINE
  8
0
 62
7
 10
5.50942973E+01
 20
-2.18789681E+02
 11
5.20942988E+01
 21
-2.20521731E+02
  0
LINE
  8
0
 62
7
 10
5.50942993E+01
 20
-2.15325574E+02
 11
5.50942993E+01
 21
-2.18789685E+02
  0
LINE
  8
0
 62
7
 10
5.20943000E+01
 20
-2.13593526E+02
 11
5.50943017E+01
 21
-2.15325578E+02
  0
LINE
  8
0
 62
7
 10
8.90943568E+01
 20
-2.13593529E+02
 11
8.60943550E+01
 21
-2.15325581E+02
  0
LINE
  8
0
 62
7
 10
8.60943604E+01
 20
-2.15325574E+02
 11
8.60943604E+01
 21
-2.18789685E+02
  0
LINE
  8
0
 62
7
 10
8.90943613E+01
 20
-2.20521730E+02
 11
8.60943595E+01
 21
-2.18789678E+02
  0
LINE
  8
0
 62
7
 10
9.20943568E+01
 20
-2.18789681E+02
 11
8.90943550E+01
 21
-2.20521733E+02
  0
LINE
  8
0
 62
7
 10
9.20943604E+01
 20
-2.15325574E+02
 11
9.20943604E+01
 21
-2.18789685E+02
  0
LINE
  8
0
 62
7
 10
8.90943595E+01
 20
-2.13593526E+02
 11
9.20943613E+01
 21
-2.15325578E+02
  0
LINE
  8
0
 62
7
 10
-1.23250031E+02
 20
-2.29377713E+02
 11
-1.20250031E+02
 21
-2.29377713E+02
  0
LINE
  8
0
 62
7
 10
-1.23250000E+02
 20
-8.92577178E+01
 11
-1.20249969E+02
 21
-8.92577178E+01
  0
LINE
  8
0
 62
7
 10
-1.23250000E+02
 20
-1.01857739E+02
 11
-1.20249969E+02
 21
-1.01857739E+02
  0
CIRCLE
  8
0
 62
7
 10
-6.97499847E+01
 20
-1.05557706E+02
 40
4.00000000E+00
  0
ARC
  8
0
 62
7
 10
-1.09750031E+02
 20
-1.10057706E+02
 40
5.00000000E-01
 50
1.80000005E+02
 51
2.70000001E+02
  0
ARC
  8
0
 62
7
 10
-9.67500000E+01
 20
-1.11057706E+02
 40
5.00000000E-01
 50
1.80000005E+02
 51
2.70000001E+02
  0
ARC
  8
0
 62
7
 10
-1.05000000E+02
 20
-1.10566312E+02
 40
2.50000000E-01
 50
1.80000005E+02
 51
2.67999220E+02
  0
ARC
  8
0
 62
7
 10
-1.09750031E+02
 20
-8.10577056E+01
 40
5.00000000E-01
 50
9.00000231E+01
 51
1.80000005E+02
  0
ARC
  8
0
 62
7
 10
-9.67500000E+01
 20
-8.00577056E+01
 40
5.00000000E-01
 50
9.00000231E+01
 51
1.80000005E+02
  0
ARC
  8
0
 62
7
 10
-1.05000000E+02
 20
-8.05490996E+01
 40
2.50000000E-01
 50
9.20007768E+01
 51
1.79999991E+02
  0
ARC
  8
0
 62
7
 10
-9.47500000E+01
 20
-7.15901763E+01
 40
5.00000000E-01
 50
9.10002155E+01
 51
1.80000005E+02
  0
ARC
  8
0
 62
7
 10
-9.47500000E+01
 20
-1.19525235E+02
 40
5.00000000E-01
 50
1.80000005E+02
 51
2.68999788E+02
  0
ARC
  8
0
 62
7
 10
-7.72500000E+01
 20
-9.15577666E+01
 40
7.00000000E+00
 50
7.76259453E+01
 51
3.45167056E+02
  0
ARC
  8
0
 62
7
 10
-8.82499542E+01
 20
-7.75577056E+01
 40
2.00000000E+00
 50
8.99999818E+01
 51
1.79999964E+02
  0
ARC
  8
0
 62
7
 10
-8.82499542E+01
 20
-1.13557706E+02
 40
2.00000000E+00
 50
1.79999981E+02
 51
2.70000018E+02
  0
ARC
  8
0
 62
7
 10
-7.72500000E+01
 20
-9.15577666E+01
 40
5.65999985E+00
 50
7.46314587E+01
 51
3.31727516E+02
  0
ARC
  8
0
 62
7
 10
-2.31750000E+02
 20
-2.13557736E+02
 40
2.50000000E+00
 50
0.00000000E+00
 51
8.99999818E+01
  0
CIRCLE
  8
0
 62
7
 10
-2.35249939E+02
 20
-2.17057706E+02
 40
5.00000000E+00
  0
CIRCLE
  8
0
 62
7
 10
-2.35249939E+02
 20
-2.17057706E+02
 40
4.50000000E+00
  0
ARC
  8
0
 62
7
 10
-2.42141418E+02
 20
-2.21120724E+02
 40
1.00000000E+00
 50
3.15000624E+02
 51
3.05224488E+01
  0
ARC
  8
0
 62
7
 10
-2.32750000E+02
 20
-2.33557706E+02
 40
1.00000000E+00
 50
2.69999963E+02
 51
0.00000000E+00
  0
ARC
  8
0
 62
7
 10
-2.36868042E+02
 20
-2.33557706E+02
 40
1.00000000E+00
 50
1.86756090E+02
 51
2.69999963E+02
  0
ARC
  8
0
 62
7
 10
-2.39312988E+02
 20
-2.23949139E+02
 40
1.00000000E+00
 50
5.94777518E+01
 51
1.34999345E+02
  0
ARC
  8
0
 62
7
 10
-2.51750000E+02
 20
-2.14557706E+02
 40
1.00000000E+00
 50
8.99999818E+01
 51
1.79999964E+02
  0
ARC
  8
0
 62
7
 10
-2.51750000E+02
 20
-2.18675763E+02
 40
1.00000000E+00
 50
1.79999964E+02
 51
2.63243741E+02
  0
ARC
  8
0
 62
7
 10
-2.40398438E+02
 20
-2.25034619E+02
 40
1.00000000E+00
 50
1.34999959E+02
 51
2.18243614E+02
  0
ARC
  8
0
 62
7
 10
-2.43226868E+02
 20
-2.22206189E+02
 40
1.00000000E+00
 50
2.31755794E+02
 51
3.14999380E+02
  0
ARC
  8
0
 62
7
 10
-2.31750000E+02
 20
-2.13557675E+02
 40
3.00000000E+00
 50
0.00000000E+00
 51
8.99999818E+01
  0
ARC
  8
0
 62
7
 10
-2.32750000E+02
 20
-2.30557675E+02
 40
1.00000000E+00
 50
0.00000000E+00
 51
8.99999818E+01
  0
ARC
  8
0
 62
7
 10
-2.32750000E+02
 20
-2.26557675E+02
 40
3.00000000E+00
 50
1.77973583E+02
 51
2.69999946E+02
  0
ARC
  8
0
 62
7
 10
-2.36747498E+02
 20
-2.24916241E+02
 40
1.00000000E+00
 50
3.57973879E+02
 51
7.92109058E+01
  0
ARC
  8
0
 62
7
 10
-2.35250000E+02
 20
-2.17057645E+02
 40
7.00000000E+00
 50
1.90788702E+02
 51
2.59211358E+02
  0
ARC
  8
0
 62
7
 10
-2.43108582E+02
 20
-2.18555142E+02
 40
1.00000000E+00
 50
1.07884614E+01
 51
9.20251808E+01
  0
ARC
  8
0
 62
7
 10
-2.44750000E+02
 20
-2.14557645E+02
 40
3.00000000E+00
 50
1.80000569E+02
 51
2.72025811E+02
  0
ARC
  8
0
 62
7
 10
-2.48750000E+02
 20
-2.14557675E+02
 40
1.00000000E+00
 50
0.00000000E+00
 51
8.99999818E+01
  0
ARC
  8
0
 62
7
 10
-2.75750000E+02
 20
-2.13557675E+02
 40
2.50000000E+00
 50
8.99999818E+01
 51
1.79999964E+02
  0
ARC
  8
0
 62
7
 10
-2.75750061E+02
 20
-2.13557675E+02
 40
3.00000000E+00
 50
8.99999818E+01
 51
1.79999964E+02
  0
CIRCLE
  8
0
 62
7
 10
-2.72250000E+02
 20
-2.17057645E+02
 40
4.50000000E+00
  0
CIRCLE
  8
0
 62
7
 10
-2.72250000E+02
 20
-2.17057645E+02
 40
5.00000000E+00
  0
ARC
  8
0
 62
7
 10
-2.74750000E+02
 20
-2.33557706E+02
 40
1.00000000E+00
 50
1.79999964E+02
 51
2.69999946E+02
  0
ARC
  8
0
 62
7
 10
-2.55750000E+02
 20
-2.14557706E+02
 40
1.00000000E+00
 50
3.59999959E+02
 51
8.99999956E+01
  0
ARC
  8
0
 62
7
 10
-2.65358582E+02
 20
-2.21120663E+02
 40
1.00000000E+00
 50
1.49477747E+02
 51
2.24999340E+02
  0
ARC
  8
0
 62
7
 10
-2.72250000E+02
 20
-2.17057645E+02
 40
7.00000000E+00
 50
2.80788623E+02
 51
3.49211279E+02
  0
ARC
  8
0
 62
7
 10
-2.68187012E+02
 20
-2.23949093E+02
 40
1.00000000E+00
 50
4.50006194E+01
 51
1.20522431E+02
  0
ARC
  8
0
 62
7
 10
-2.55750000E+02
 20
-2.18675748E+02
 40
1.00000000E+00
 50
2.76756086E+02
 51
3.59999959E+02
  0
ARC
  8
0
 62
7
 10
-2.64273132E+02
 20
-2.22206113E+02
 40
1.00000000E+00
 50
2.24999972E+02
 51
3.08243613E+02
  0
ARC
  8
0
 62
7
 10
-2.67101562E+02
 20
-2.25034543E+02
 40
1.00000000E+00
 50
3.21755790E+02
 51
4.49993763E+01
  0
ARC
  8
0
 62
7
 10
-2.70631958E+02
 20
-2.33557706E+02
 40
1.00000000E+00
 50
2.69999963E+02
 51
3.53243768E+02
  0
ARC
  8
0
 62
7
 10
-2.74750000E+02
 20
-2.26557675E+02
 40
3.00000000E+00
 50
2.70000018E+02
 51
0.00000000E+00
  0
ARC
  8
0
 62
7
 10
-2.62750061E+02
 20
-2.14557645E+02
 40
3.00000000E+00
 50
2.67974177E+02
 51
3.59999417E+02
  0
ARC
  8
0
 62
7
 10
-2.74750000E+02
 20
-2.30557675E+02
 40
1.00000000E+00
 50
8.99999818E+01
 51
1.79999964E+02
  0
ARC
  8
0
 62
7
 10
-2.70752502E+02
 20
-2.24916241E+02
 40
1.00000000E+00
 50
1.00789058E+02
 51
1.82026085E+02
  0
ARC
  8
0
 62
7
 10
-2.58750061E+02
 20
-2.14557675E+02
 40
1.00000000E+00
 50
8.99999818E+01
 51
1.79999964E+02
  0
ARC
  8
0
 62
7
 10
-2.64391418E+02
 20
-2.18555142E+02
 40
1.00000000E+00
 50
8.79747829E+01
 51
1.69211502E+02
  0
ARC
  8
0
 62
7
 10
-2.53750000E+02
 20
-2.35557706E+02
 40
1.60000000E+01
 50
0.00000000E+00
 51
1.80000000E+02
  0
ARC
  8
0
 62
7
 10
-2.53750000E+02
 20
-2.35557706E+02
 40
1.55000010E+01
 50
0.00000000E+00
 51
1.80000000E+02
  0
ARC
  8
0
 62
7
 10
-2.53750000E+02
 20
-2.35557706E+02
 40
1.50000000E+01
 50
0.00000000E+00
 51
1.80000000E+02
  0
ARC
  8
0
 62
2
 10
-7.72500000E+01
 20
-9.15577666E+01
 40
6.57849979E+00
 50
7.68192768E+01
 51
3.35950142E+02
  0
CIRCLE
  8
0
 62
2
 10
-2.72250000E+02
 20
-2.17057629E+02
 40
3.00000000E+00
  0
CIRCLE
  8
0
 62
2
 10
-2.35249939E+02
 20
-2.17057629E+02
 40
3.00000000E+00
  0
CIRCLE
  8
0
 62
7
 10
-6.97499847E+01
 20
-1.05557706E+02
 40
2.09999990E+00
  0
ARC
  8
0
 62
7
 10
-2.53750000E+02
 20
-2.35557706E+02
 40
6.99998474E+00
 50
0.00000000E+00
 51
1.80000000E+02
  0
ARC
  8
0
 62
2
 10
-2.53750000E+02
 20
-2.35557706E+02
 40
6.17999268E+00
 50
0.00000000E+00
 51
1.80000000E+02
  0
ARC
  8
0
 62
7
 10
-2.53750000E+02
 20
-2.35557706E+02
 40
5.49998474E+00
 50
0.00000000E+00
 51
1.80000000E+02
  0
ARC
  8
0
 62
7
 10
-1.20250031E+02
 20
-2.35557706E+02
 40
8.00000000E+00
 50
0.00000000E+00
 51
2.89550399E+01
  0
ARC
  8
0
 62
7
 10
-1.05000031E+02
 20
-2.20549100E+02
 40
2.50000000E-01
 50
9.20007356E+01
 51
1.79999964E+02
  0
ARC
  8
0
 62
7
 10
-9.67500305E+01
 20
-2.20057706E+02
 40
5.00000000E-01
 50
8.99999818E+01
 51
1.79999964E+02
  0
ARC
  8
0
 62
7
 10
-1.09750061E+02
 20
-2.21057706E+02
 40
5.00000000E-01
 50
8.99999818E+01
 51
1.79999964E+02
  0
CIRCLE
  8
0
 62
2
 10
8.90943604E+01
 20
-2.17057629E+02
 40
3.00000000E+00
  0
ARC
  8
0
 62
7
 10
4.85943604E+01
 20
-2.13557736E+02
 40
2.50000000E+00
 50
9.00000162E+01
 51
1.80000005E+02
  0
CIRCLE
  8
0
 62
7
 10
5.20942993E+01
 20
-2.17057706E+02
 40
5.00000000E+00
  0
CIRCLE
  8
0
 62
7
 10
5.20942993E+01
 20
-2.17057706E+02
 40
4.50000000E+00
  0
ARC
  8
0
 62
7
 10
5.89857788E+01
 20
-2.21120724E+02
 40
1.00000000E+00
 50
1.49477556E+02
 51
2.24999381E+02
  0
ARC
  8
0
 62
7
 10
4.95943604E+01
 20
-2.33557706E+02
 40
1.00000000E+00
 50
1.79999995E+02
 51
2.70000038E+02
  0
ARC
  8
0
 62
7
 10
5.37124023E+01
 20
-2.33557706E+02
 40
1.00000000E+00
 50
2.70000038E+02
 51
3.53243910E+02
  0
ARC
  8
0
 62
7
 10
5.61573486E+01
 20
-2.23949139E+02
 40
1.00000000E+00
 50
4.50006569E+01
 51
1.20522253E+02
  0
ARC
  8
0
 62
7
 10
6.85943604E+01
 20
-2.14557706E+02
 40
1.00000000E+00
 50
3.59721781E-05
 51
9.00000162E+01
  0
ARC
  8
0
 62
7
 10
6.85943604E+01
 20
-2.18675763E+02
 40
1.00000000E+00
 50
2.76756256E+02
 51
3.59721781E-05
  0
ARC
  8
0
 62
7
 10
5.72427979E+01
 20
-2.25034619E+02
 40
1.00000000E+00
 50
3.21756388E+02
 51
4.50000423E+01
  0
ARC
  8
0
 62
7
 10
6.00712280E+01
 20
-2.22206189E+02
 40
1.00000000E+00
 50
2.25000614E+02
 51
3.08244204E+02
  0
ARC
  8
0
 62
7
 10
4.85943604E+01
 20
-2.13557675E+02
 40
3.00000000E+00
 50
9.00000162E+01
 51
1.80000005E+02
  0
ARC
  8
0
 62
7
 10
4.95943604E+01
 20
-2.30557675E+02
 40
1.00000000E+00
 50
9.00000162E+01
 51
1.80000005E+02
  0
ARC
  8
0
 62
7
 10
4.95943604E+01
 20
-2.26557675E+02
 40
3.00000000E+00
 50
2.70000052E+02
 51
2.02641660E+00
  0
ARC
  8
0
 62
7
 10
5.35918579E+01
 20
-2.24916241E+02
 40
1.00000000E+00
 50
1.00789092E+02
 51
1.82026126E+02
  0
ARC
  8
0
 62
7
 10
5.20943604E+01
 20
-2.17057645E+02
 40
7.00000000E+00
 50
2.80788643E+02
 51
3.49211298E+02
  0
ARC
  8
0
 62
7
 10
5.99529419E+01
 20
-2.18555142E+02
 40
1.00000000E+00
 50
8.79748173E+01
 51
1.69211544E+02
  0
ARC
  8
0
 62
7
 10
6.15943604E+01
 20
-2.14557645E+02
 40
3.00000000E+00
 50
2.67974191E+02
 51
3.59999431E+02
  0
ARC
  8
0
 62
7
 10
6.55943604E+01
 20
-2.14557675E+02
 40
1.00000000E+00
 50
9.00000162E+01
 51
1.80000005E+02
  0
ARC
  8
0
 62
7
 10
9.25943604E+01
 20
-2.13557675E+02
 40
2.50000000E+00
 50
3.59721781E-05
 51
9.00000162E+01
  0
ARC
  8
0
 62
7
 10
9.25944214E+01
 20
-2.13557675E+02
 40
3.00000000E+00
 50
3.59721781E-05
 51
9.00000162E+01
  0
CIRCLE
  8
0
 62
7
 10
8.90943604E+01
 20
-2.17057645E+02
 40
4.50000000E+00
  0
CIRCLE
  8
0
 62
7
 10
8.90943604E+01
 20
-2.17057645E+02
 40
5.00000000E+00
  0
ARC
  8
0
 62
7
 10
9.15943604E+01
 20
-2.33557706E+02
 40
1.00000000E+00
 50
2.70000052E+02
 51
3.59721781E-05
  0
ARC
  8
0
 62
7
 10
7.25943604E+01
 20
-2.14557706E+02
 40
1.00000000E+00
 50
9.00000025E+01
 51
1.80000046E+02
  0
ARC
  8
0
 62
7
 10
8.22029419E+01
 20
-2.21120663E+02
 40
1.00000000E+00
 50
3.15000662E+02
 51
3.05222541E+01
  0
ARC
  8
0
 62
7
 10
8.90943604E+01
 20
-2.17057645E+02
 40
7.00000000E+00
 50
1.90788716E+02
 51
2.59211379E+02
  0
ARC
  8
0
 62
7
 10
8.50313721E+01
 20
-2.23949093E+02
 40
1.00000000E+00
 50
5.94775673E+01
 51
1.34999386E+02
  0
ARC
  8
0
 62
7
 10
7.25943604E+01
 20
-2.18675748E+02
 40
1.00000000E+00
 50
1.80000036E+02
 51
2.63243916E+02
  0
ARC
  8
0
 62
7
 10
8.11174927E+01
 20
-2.22206113E+02
 40
1.00000000E+00
 50
2.31756382E+02
 51
3.15000026E+02
  0
ARC
  8
0
 62
7
 10
8.39459229E+01
 20
-2.25034543E+02
 40
1.00000000E+00
 50
1.35000629E+02
 51
2.18244215E+02
  0
ARC
  8
0
 62
7
 10
8.74763184E+01
 20
-2.33557706E+02
 40
1.00000000E+00
 50
1.86756227E+02
 51
2.70000038E+02
  0
ARC
  8
0
 62
7
 10
9.15943604E+01
 20
-2.26557675E+02
 40
3.00000000E+00
 50
1.79999995E+02
 51
2.69999984E+02
  0
ARC
  8
0
 62
7
 10
7.95944214E+01
 20
-2.14557645E+02
 40
3.00000000E+00
 50
1.80000582E+02
 51
2.72025825E+02
  0
ARC
  8
0
 62
7
 10
9.15943604E+01
 20
-2.30557675E+02
 40
1.00000000E+00
 50
3.59721781E-05
 51
9.00000162E+01
  0
ARC
  8
0
 62
7
 10
8.75968628E+01
 20
-2.24916241E+02
 40
1.00000000E+00
 50
3.57973915E+02
 51
7.92109402E+01
  0
ARC
  8
0
 62
7
 10
7.55944214E+01
 20
-2.14557675E+02
 40
1.00000000E+00
 50
3.59721781E-05
 51
9.00000162E+01
  0
ARC
  8
0
 62
7
 10
8.12357788E+01
 20
-2.18555142E+02
 40
1.00000000E+00
 50
1.07884972E+01
 51
9.20252152E+01
  0
ARC
  8
0
 62
7
 10
7.05943604E+01
 20
-2.35557706E+02
 40
1.60000000E+01
 50
0.00000000E+00
 51
1.80000000E+02
  0
CIRCLE
  8
0
 62
2
 10
5.20942993E+01
 20
-2.17057629E+02
 40
3.00000000E+00
  0
LINE
  8
0
 62
7
 10
1.84283154E+02
 20
-2.14407712E+02
 11
2.32475599E+02
 21
-2.14407712E+02
  0
LINE
  8
0
 62
7
 10
1.81223205E+02
 20
-2.19707699E+02
 11
2.32475599E+02
 21
-2.19707699E+02
  0
LINE
  8
0
  6
CENTER
 62
2
 10
1.82753179E+02
 20
-2.17057706E+02
 11
2.32475599E+02
 21
-2.17057706E+02
  0
LINE
  8
0
 62
7
 10
2.55475599E+02
 20
-2.10557706E+02
 11
2.55475599E+02
 21
-2.35557706E+02
  0
LINE
  8
0
 62
7
 10
-4.12499487E+01
 20
-7.44077117E+01
 11
5.96100593E+00
 21
-7.44077117E+01
  0
LINE
  8
0
 62
7
 10
-4.12499487E+01
 20
-7.35577208E+01
 11
6.45174838E+00
 21
-7.35577208E+01
  0
LINE
  8
0
 62
7
 10
-4.12499487E+01
 20
-7.97076995E+01
 11
2.90105655E+00
 21
-7.97076995E+01
  0
LINE
  8
0
 62
7
 10
-6.42499542E+01
 20
-8.00997780E+01
 11
-6.42499542E+01
 21
-7.05577056E+01
  0
LINE
  8
0
 62
7
 10
-6.42499542E+01
 20
-1.11407712E+02
 11
-1.54009540E+01
 21
-1.11407712E+02
  0
LINE
  8
0
 62
2
 10
-2.06781065E+01
 20
-1.20548008E+02
 11
8.32086247E+00
 21
-7.03203202E+01
  0
LINE
  8
0
 62
2
 10
1.68806202E+02
 20
-2.41214578E+02
 11
1.86643011E+02
 21
-2.10320320E+02
  0
LINE
  8
0
 62
7
 10
2.47475599E+02
 20
-2.19707699E+02
 11
2.55475599E+02
 21
-2.19707699E+02
  0
LINE
  8
0
 62
7
 10
2.47475599E+02
 20
-2.14407712E+02
 11
2.55475568E+02
 21
-2.14407712E+02
  0
LINE
  8
0
  6
CENTER
 62
2
 10
-2.17499487E+01
 20
-9.55577056E+01
 11
-6.24994874E+00
 21
-9.55577056E+01
  0
LINE
  8
0
  6
CENTER
 62
2
 10
-4.12499487E+01
 20
-7.70577056E+01
 11
4.43103124E+00
 21
-7.70577056E+01
  0
LINE
  8
0
  6
CENTER
 62
2
 10
3.38712812E+02
 20
-2.35557706E+02
 11
1.72072199E+02
 21
-2.35557706E+02
  0
LINE
  8
0
 62
7
 10
2.81475599E+02
 20
-2.10557706E+02
 11
2.55475599E+02
 21
-2.10557706E+02
  0
LINE
  8
0
 62
7
 10
2.86475664E+02
 20
-2.11343280E+02
 11
2.55475639E+02
 21
-2.10531516E+02
  0
LINE
  8
0
  6
CENTER
 62
2
 10
2.47475599E+02
 20
-2.17057706E+02
 11
2.88579023E+02
 21
-2.17057706E+02
  0
TEXT
  8
0
 10
-4.61502877E+01
 20
2.29478397E+02
 40
6.30000019E+00
  1
STRETCH LINE
 41
1.05263174E+00
  7
MONOTXT
  0
TEXT
  8
0
 62
7
 10
-8.47609386E+01
 20
3.59999990E+00
 40
6.30000019E+00
  1
STRETCH LIST
 41
1.05263158E+00
  7
MONOTXT
  0
TEXT
  8
0
 62
7
 10
1.07389063E+02
 20
-1.84000001E+01
 40
6.30000019E+00
  1
625
 41
1.00000000E+00
  7
MONOTXT
  0
TEXT
  8
0
 62
7
 10
1.07389063E+02
 20
-8.40000009E+00
 40
6.30000019E+00
  1
700
 41
1.00000000E+00
  7
MONOTXT
  0
TEXT
  8
0
 62
7
 10
8.21890623E+01
 20
-1.84000001E+01
 40
6.30000019E+00
  1
525
 41
1.00000000E+00
  7
MONOTXT
  0
TEXT
  8
0
 62
7
 10
8.21890623E+01
 20
-8.40000009E+00
 40
6.30000019E+00
  1
600
 41
1.00000000E+00
  7
MONOTXT
  0
TEXT
  8
0
 62
7
 10
5.69890623E+01
 20
-1.84000001E+01
 40
6.30000019E+00
  1
425
 41
1.00000000E+00
  7
MONOTXT
  0
TEXT
  8
0
 62
7
 10
5.69890623E+01
 20
-8.40000009E+00
 40
6.30000019E+00
  1
500
 41
1.00000000E+00
  7
MONOTXT
  0
TEXT
  8
0
 62
7
 10
3.17890623E+01
 20
-1.84000001E+01
 40
6.30000019E+00
  1
375
 41
1.00000000E+00
  7
MONOTXT
  0
TEXT
  8
0
 62
7
 10
3.17890623E+01
 20
-8.40000009E+00
 40
6.30000019E+00
  1
450
 41
1.00000000E+00
  7
MONOTXT
  0
TEXT
  8
0
 62
7
 10
6.58906231E+00
 20
-1.84000001E+01
 40
6.30000019E+00
  1
325
 41
1.00000000E+00
  7
MONOTXT
  0
TEXT
  8
0
 62
7
 10
6.58906231E+00
 20
-8.40000009E+00
 40
6.30000019E+00
  1
400
 41
1.00000000E+00
  7
MONOTXT
  0
TEXT
  8
0
 62
7
 10
-1.86109377E+01
 20
-1.84000001E+01
 40
6.30000019E+00
  1
275
 41
1.00000000E+00
  7
MONOTXT
  0
TEXT
  8
0
 62
7
 10
-1.86109377E+01
 20
-8.40000009E+00
 40
6.30000019E+00
  1
350
 41
1.00000000E+00
  7
MONOTXT
  0
TEXT
  8
0
 62
7
 10
-4.38109377E+01
 20
-1.84000001E+01
 40
6.30000019E+00
  1
225
 41
1.00000000E+00
  7
MONOTXT
  0
TEXT
  8
0
 62
7
 10
-4.38109377E+01
 20
-8.40000009E+00
 40
6.30000019E+00
  1
300
 41
1.00000000E+00
  7
MONOTXT
  0
TEXT
  8
0
 62
7
 10
-6.90109377E+01
 20
-1.84000001E+01
 40
6.30000019E+00
  1
175
 41
1.00000000E+00
  7
MONOTXT
  0
TEXT
  8
0
 62
7
 10
-6.90109377E+01
 20
-8.40000009E+00
 40
6.30000019E+00
  1
250
 41
1.00000000E+00
  7
MONOTXT
  0
TEXT
  8
0
 62
7
 10
-9.42109377E+01
 20
-1.84000001E+01
 40
6.30000019E+00
  1
125
 41
1.00000000E+00
  7
MONOTXT
  0
TEXT
  8
0
 62
7
 10
-9.42109377E+01
 20
-8.40000009E+00
 40
6.30000019E+00
  1
200
 41
1.00000000E+00
  7
MONOTXT
  0
TEXT
  8
0
 62
7
 10
-1.16260937E+02
 20
-1.84000001E+01
 40
6.30000019E+00
  1
75
 41
1.00000000E+00
  7
MONOTXT
  0
TEXT
  8
0
 62
7
 10
-1.19410937E+02
 20
-8.40000009E+00
 40
6.30000019E+00
  1
150
 41
1.00000000E+00
  7
MONOTXT
  0
TEXT
  8
0
 62
7
 10
-1.41460937E+02
 20
-1.84000001E+01
 40
6.30000019E+00
  1
25
 41
1.00000000E+00
  7
MONOTXT
  0
TEXT
  8
0
 62
7
 10
-1.44610937E+02
 20
-8.40000009E+00
 40
6.30000019E+00
  1
100
 41
1.00000000E+00
  7
MONOTXT
  0
TEXT
  8
0
 62
7
 10
-1.63510937E+02
 20
-1.84000001E+01
 40
6.30000019E+00
  1
0
 41
1.00000000E+00
  7
MONOTXT
  0
TEXT
  8
0
 62
7
 10
-1.66660937E+02
 20
-8.40000009E+00
 40
6.30000019E+00
  1
75
 41
1.00000000E+00
  7
MONOTXT
  0
TEXT
  8
0
 62
7
 10
-2.45410938E+02
 20
-1.84000001E+01
 40
6.30000019E+00
  1
STRETCH
 41
1.00000000E+00
  7
MONOTXT
  0
TEXT
  8
0
 62
7
 10
-2.42260938E+02
 20
-8.40000009E+00
 40
6.30000019E+00
  1
STROKE
 41
1.00000000E+00
  7
MONOTXT
  0
TEXT
  8
0
 62
7
 10
-1.95010937E+02
 20
-1.84000001E+01
 40
6.30000019E+00
  1
-25
 41
1.00000000E+00
  7
MONOTXT
  0
TEXT
  8
0
 62
7
 10
-1.91860937E+02
 20
-8.40000009E+00
 40
6.30000019E+00
  1
50
 41
1.00000000E+00
  7
MONOTXT
  0
LINE
  8
0
 62
7
 10
1.28750000E+02
 20
-2.02500000E+01
 11
1.28750000E+02
 21
-2.50000009E-01
  0
LINE
  8
0
 62
7
 10
1.03550000E+02
 20
-2.02500000E+01
 11
1.03550000E+02
 21
-2.50000009E-01
  0
LINE
  8
0
 62
7
 10
7.83500000E+01
 20
-2.02500000E+01
 11
7.83500000E+01
 21
-2.50000009E-01
  0
LINE
  8
0
 62
7
 10
5.31500000E+01
 20
-2.02500000E+01
 11
5.31500000E+01
 21
-2.50000009E-01
  0
LINE
  8
0
 62
7
 10
2.79500000E+01
 20
-2.02500000E+01
 11
2.79500000E+01
 21
-2.50000009E-01
  0
LINE
  8
0
 62
7
 10
2.75000000E+00
 20
-2.02500000E+01
 11
2.75000000E+00
 21
-2.50000009E-01
  0
LINE
  8
0
 62
7
 10
-2.24500000E+01
 20
-2.02500000E+01
 11
-2.24500000E+01
 21
-2.50000009E-01
  0
LINE
  8
0
 62
7
 10
-4.76500000E+01
 20
-2.02500000E+01
 11
-4.76500000E+01
 21
-2.50000009E-01
  0
LINE
  8
0
 62
7
 10
-7.28500000E+01
 20
-2.02500000E+01
 11
-7.28500000E+01
 21
-2.50000009E-01
  0
LINE
  8
0
 62
7
 10
-9.80500000E+01
 20
-2.02500000E+01
 11
-9.80500000E+01
 21
-2.50000009E-01
  0
LINE
  8
0
 62
7
 10
-1.23250000E+02
 20
-2.02500000E+01
 11
-1.23250000E+02
 21
-2.50000009E-01
  0
LINE
  8
0
 62
7
 10
-1.48450000E+02
 20
-2.02500000E+01
 11
-1.48450000E+02
 21
-2.50000009E-01
  0
LINE
  8
0
 62
7
 10
-1.73650000E+02
 20
-2.02500000E+01
 11
-1.73650000E+02
 21
-2.50000009E-01
  0
LINE
  8
0
 62
7
 10
-1.98850000E+02
 20
-2.02500000E+01
 11
-1.98850000E+02
 21
-2.50000009E-01
  0
LINE
  8
0
 62
7
 10
-2.49250000E+02
 20
-2.02500000E+01
 11
1.53950000E+02
 21
-2.02500000E+01
  0
LINE
  8
0
 62
7
 10
-2.49250000E+02
 20
-2.50000000E-01
 11
1.53950000E+02
 21
-2.50000000E-01
  0
LINE
  8
0
 62
7
 10
-2.49250000E+02
 20
-2.02500000E+01
 11
-2.49250000E+02
 21
-2.50000009E-01
  0
LINE
  8
0
 62
7
 10
-2.49250000E+02
 20
-1.02500000E+01
 11
1.53950000E+02
 21
-1.02500000E+01
  0
LINE
  8
0
 62
7
 10
2.79799927E+02
 20
-2.56750000E+02
 11
3.99799805E+02
 21
-2.56750000E+02
  0
LINE
  8
0
 62
7
 10
2.79799927E+02
 20
-2.56750000E+02
 11
2.79799927E+02
 21
-2.76750000E+02
  0
TEXT
  8
0
 62
7
 10
2.87585240E+02
 20
-2.71250000E+02
 40
9.00000000E+00
  1
KOGANEI CORP.
 41
1.04838710E+00
  7
MONOTXT
  0
TEXT
  8
0
 62
7
 10
3.15499641E+02
 20
2.63100000E+02
 40
6.30000019E+00
  1
Ver. 1.0
 41
1.08108124E+00
  7
MONOTXT
  0
LINE
  8
0
 62
7
 10
2.79799927E+02
 20
2.56250000E+02
 11
3.99799805E+02
 21
2.56250000E+02
  0
LINE
  8
0
 62
7
 10
2.79799927E+02
 20
2.76250000E+02
 11
2.79799927E+02
 21
2.56250000E+02
  0
TEXT
  8
0
 62
7
 10
-3.85600562E+02
 20
2.38100000E+02
 40
6.30000019E+00
  1
MODEL:DDA40*75
 41
1.00000015E+00
  7
MONOTXT
  0
LINE
  8
0
 62
7
 10
-3.99250000E+02
 20
2.56250000E+02
 11
-2.79250000E+02
 21
2.56250000E+02
  0
LINE
  8
0
 62
7
 10
-2.79250000E+02
 20
2.76250000E+02
 11
-2.79250000E+02
 21
2.56250000E+02
  0
TEXT
  8
0
 62
7
 10
-3.91900291E+02
 20
2.63100000E+02
 40
6.30000019E+00
  1
NEW DYNA CYLINDER
 41
1.07594953E+00
  7
MONOTXT
  0
LINE
  8
0
 62
7
 10
-3.99250000E+02
 20
-2.76750000E+02
 11
3.99799805E+02
 21
-2.76750000E+02
  0
LINE
  8
0
 62
7
 10
-3.99250000E+02
 20
2.76250000E+02
 11
3.99799805E+02
 21
2.76250000E+02
  0
LINE
  8
0
 62
7
 10
-3.99250000E+02
 20
2.76250000E+02
 11
-3.99250000E+02
 21
-2.76750000E+02
  0
LINE
  8
0
 62
7
 10
3.99799805E+02
 20
2.76250000E+02
 11
3.99799805E+02
 21
-2.76750000E+02
  0
ENDSEC
  0
EOF
