  0
SECTION
  2
HEADER
  9
$ACADVER
  1
AC1003
  9
$EXTMIN
 10
-1.38399994E+02
 20
-9.48000031E+01
  9
$EXTMAX
 10
1.38350006E+02
 20
9.45000000E+01
  9
$LIMMIN
 10
-1.38400994E+02
 20
-9.48010031E+01
  9
$LIMMAX
 10
1.38351006E+02
 20
9.45010000E+01
  9
$SNAPUNIT
 10
1
 20
1
  9
$SNAPBASE
 10
0
 20
0
  9
$GRIDMODE
 70
0
  9
$GRIDUNIT
 10
0
 20
0
  9
$LTSCALE
 40
4.61250000E+00
  9
$TEXTSIZE
 40
3.2
  9
$DIMTAD
 70
0
  9
$LUNITS
 70
2
  9
$LUPREC
 70
4
  9
$FILLETRAD
 40
0
  9
$AUNITS
 70
0
  9
$AUPREC
 70
0
  0
ENDSEC
  0
SECTION
  2
TABLES
  0
TABLE
  2
LTYPE
 70
2
  0
LTYPE
  2
CONTINUOUS
 70
64
  3
Solid-Line
 72
65
 73
0
 40
0
  0
LTYPE
  2
DASHED
 70
64
  3
DASHED
 72
65
 73
2
 40
.75
 49
.5
 49
-.25
  0
LTYPE
  2
HIDDEN
 70
64
  3
HIDDEN
 72
65
 73
2
 40
.375
 49
.25
 49
-.125
  0
LTYPE
  2
CENTER
 70
64
  3
CENTER
 72
65
 73
4
 40
2
 49
1.25
 49
-.25
 49
.25
 49
-.25
  0
LTYPE
  2
PHANTOM
 70
64
  3
PHANTOM
 72
65
 73
6
 40
2.5
 49
1.25
 49
-.25
 49
.25
 49
-.25
 49
.25
 49
-.25
  0
ENDTAB
  0
TABLE
  2
LAYER
 70
1
  0
LAYER
  2
1
 70
0
 62
7
  6
CONTINUOUS
 0
ENDTAB
  0
TABLE
  2
STYLE
 70
2
  0
STYLE
  2
MONOTXT
 70
0
 40
0
 41
1
 50
0
 71
0
 42
.2
  3
monotxt
  0
STYLE
  2
BIGFONT
 70
0
 40
0
 41
1
 50
0
 71
0
 42
.2
  3
txt
  4
bigfont
  0
ENDTAB
  0
ENDSEC
  0
SECTION
  2
ENTITIES
  0
ARC
  8
0
 62
4
 10
2.87722666E+01
 20
-2.74350210E+01
 40
1.00000000E+00
 50
3.60000000E+02
 51
9.00000094E+01
  0
ARC
  8
0
 62
4
 10
2.87722666E+01
 20
-4.14350210E+01
 40
1.00000000E+00
 50
2.69999998E+02
 51
2.50447807E-06
  0
ARC
  8
0
 62
4
 10
4.07722666E+01
 20
-4.79350210E+01
 40
1.00000000E+00
 50
8.99999956E+01
 51
1.79999991E+02
  0
ARC
  8
0
 62
4
 10
4.07722666E+01
 20
-2.09350210E+01
 40
1.00000000E+00
 50
1.79999991E+02
 51
2.70000001E+02
  0
LINE
  8
0
 62
4
 10
1.13222543E+01
 20
-1.62346578E+01
 11
1.13222543E+01
 21
-1.33346639E+01
  0
LINE
  8
0
 62
4
 10
1.42222788E+01
 20
-1.62346578E+01
 11
1.42222788E+01
 21
-1.33346639E+01
  0
LINE
  8
0
 62
4
 10
1.27722666E+01
 20
-1.62346578E+01
 11
1.27722666E+01
 21
-1.33346639E+01
  0
LINE
  8
0
 62
4
 10
1.56722604E+01
 20
-1.62346578E+01
 11
1.56722604E+01
 21
-1.33346639E+01
  0
LINE
  8
0
 62
4
 10
9.87227266E+00
 20
-1.62346578E+01
 11
1.56722604E+01
 21
-1.62346578E+01
  0
LINE
  8
0
 62
4
 10
9.87227266E+00
 20
-1.62346578E+01
 11
9.87227266E+00
 21
-1.33346639E+01
  0
LINE
  8
0
 62
4
 10
9.87227266E+00
 20
-1.33346639E+01
 11
1.56722604E+01
 21
-1.33346639E+01
  0
LINE
  8
0
 62
4
 10
1.13222543E+01
 20
-5.62346540E+01
 11
1.13222543E+01
 21
-5.33346601E+01
  0
LINE
  8
0
 62
4
 10
1.42222788E+01
 20
-5.62346540E+01
 11
1.42222788E+01
 21
-5.33346601E+01
  0
LINE
  8
0
 62
4
 10
1.27722666E+01
 20
-5.62346540E+01
 11
1.27722666E+01
 21
-5.33346601E+01
  0
LINE
  8
0
 62
4
 10
1.56722604E+01
 20
-5.62346540E+01
 11
1.56722604E+01
 21
-5.33346601E+01
  0
LINE
  8
0
 62
4
 10
9.87227266E+00
 20
-5.62346540E+01
 11
1.56722604E+01
 21
-5.62346540E+01
  0
LINE
  8
0
 62
4
 10
9.87227266E+00
 20
-5.62346540E+01
 11
9.87227266E+00
 21
-5.33346601E+01
  0
LINE
  8
0
 62
4
 10
9.87227266E+00
 20
-5.33346601E+01
 11
1.56722604E+01
 21
-5.33346601E+01
  0
LINE
  8
0
 62
4
 10
1.87722666E+01
 20
-5.24350210E+01
 11
1.87722666E+01
 21
-5.77846570E+01
  0
LINE
  8
0
 62
4
 10
6.77226655E+00
 20
-5.24350210E+01
 11
6.77226655E+00
 21
-5.77846570E+01
  0
LINE
  8
0
 62
4
 10
6.77226655E+00
 20
-2.54350210E+01
 11
6.77226655E+00
 21
-4.34350210E+01
  0
LINE
  8
0
 62
4
 10
1.87722666E+01
 20
-2.54350210E+01
 11
1.87722666E+01
 21
-4.34350210E+01
  0
LINE
  8
0
 62
4
 10
1.87722644E+01
 20
-5.77846567E+01
 11
1.77722660E+01
 21
-5.87846551E+01
  0
LINE
  8
0
 62
4
 10
7.77226584E+00
 20
-5.87846546E+01
 11
6.77226478E+00
 21
-5.77846534E+01
  0
LINE
  8
0
 62
4
 10
1.87722665E+01
 20
-1.17846549E+01
 11
1.77722654E+01
 21
-1.07846539E+01
  0
LINE
  8
0
 62
4
 10
7.77226515E+00
 20
-1.07846543E+01
 11
6.77226544E+00
 21
-1.17846541E+01
  0
LINE
  8
0
 62
4
 10
7.77226655E+00
 20
-5.87846570E+01
 11
1.77722666E+01
 21
-5.87846570E+01
  0
LINE
  8
0
 62
4
 10
6.77226655E+00
 20
-5.77846570E+01
 11
1.87722666E+01
 21
-5.77846570E+01
  0
LINE
  8
0
 62
4
 10
7.77226655E+00
 20
-1.07846608E+01
 11
1.77722666E+01
 21
-1.07846608E+01
  0
LINE
  8
0
 62
4
 10
6.77226655E+00
 20
-1.17846608E+01
 11
1.87722666E+01
 21
-1.17846608E+01
  0
LINE
  8
0
 62
4
 10
1.87722666E+01
 20
-1.17846608E+01
 11
1.87722666E+01
 21
-1.64350210E+01
  0
LINE
  8
0
 62
4
 10
6.77226655E+00
 20
-1.17846608E+01
 11
6.77226655E+00
 21
-1.64350210E+01
  0
LINE
  8
0
 62
4
 10
2.87722666E+01
 20
-4.24350210E+01
 11
2.87722666E+01
 21
-4.34350210E+01
  0
LINE
  8
0
 62
4
 10
2.97722666E+01
 20
-2.74350210E+01
 11
2.97722666E+01
 21
-4.14350210E+01
  0
LINE
  8
0
 62
4
 10
6.77226777E+00
 20
-5.19350186E+01
 11
6.27226719E+00
 21
-5.24350191E+01
  0
LINE
  8
0
 62
4
 10
6.77226161E+00
 20
-1.69350166E+01
 11
6.27226104E+00
 21
-1.64350161E+01
  0
LINE
  8
0
  6
CENTER
 62
6
 10
-3.46737273E+00
 20
-3.44350210E+01
 11
6.19988939E+01
 21
-3.44350210E+01
  0
LINE
  8
0
 62
4
 10
5.77722652E+01
 20
-4.69350152E+01
 11
5.87722636E+01
 21
-4.59350168E+01
  0
LINE
  8
0
 62
4
 10
5.77722692E+01
 20
-2.19350222E+01
 11
5.87722648E+01
 21
-2.29350180E+01
  0
LINE
  8
0
 62
4
 10
4.07722666E+01
 20
-4.69350210E+01
 11
5.77722666E+01
 21
-4.69350210E+01
  0
LINE
  8
0
 62
4
 10
4.07722666E+01
 20
-2.19350210E+01
 11
5.77722666E+01
 21
-2.19350210E+01
  0
LINE
  8
0
 62
4
 10
3.97722666E+01
 20
-3.79724508E+01
 11
3.97722666E+01
 21
-5.24350210E+01
  0
LINE
  8
0
 62
4
 10
2.72266552E-01
 20
-4.34350210E+01
 11
2.72266552E-01
 21
-5.24350210E+01
  0
LINE
  8
0
 62
4
 10
2.87722666E+01
 20
-2.54350210E+01
 11
2.87722666E+01
 21
-2.64350210E+01
  0
LINE
  8
0
 62
4
 10
2.72266552E-01
 20
-1.64350210E+01
 11
2.72266552E-01
 21
-2.54350210E+01
  0
LINE
  8
0
  6
CENTER
 62
6
 10
1.27722666E+01
 20
-1.13101735E+01
 11
1.27722666E+01
 21
-5.90332456E+01
  0
LINE
  8
0
 62
4
 10
5.87722666E+01
 20
-2.29350210E+01
 11
5.87722666E+01
 21
-4.59350210E+01
  0
LINE
  8
0
  6
CENTER
 62
6
 10
-3.46737273E+00
 20
-3.44350210E+01
 11
6.19988939E+01
 21
-3.44350210E+01
  0
LINE
  8
0
 62
4
 10
3.97722666E+01
 20
-1.64350210E+01
 11
3.97722666E+01
 21
-3.05376973E+01
  0
LINE
  8
0
 62
4
 10
2.72266552E-01
 20
-5.24350210E+01
 11
3.97722666E+01
 21
-5.24350210E+01
  0
LINE
  8
0
 62
4
 10
2.72266552E-01
 20
-4.34350210E+01
 11
2.87722666E+01
 21
-4.34350210E+01
  0
LINE
  8
0
 62
4
 10
2.72266552E-01
 20
-1.64350210E+01
 11
3.97722666E+01
 21
-1.64350210E+01
  0
LINE
  8
0
 62
4
 10
2.72266552E-01
 20
-2.54350210E+01
 11
2.87722666E+01
 21
-2.54350210E+01
  0
LINE
  8
0
 62
4
 10
-8.05237692E+01
 20
-1.29850087E+01
 11
-8.05237692E+01
 21
-1.58850332E+01
  0
LINE
  8
0
 62
4
 10
-5.09237936E+01
 20
-1.29850087E+01
 11
-5.09237936E+01
 21
-1.58850332E+01
  0
LINE
  8
0
 62
4
 10
-6.22061270E+01
 20
-1.58850332E+01
 11
-5.09237936E+01
 21
-1.58850332E+01
  0
LINE
  8
0
 62
4
 10
-6.22061270E+01
 20
-1.29850087E+01
 11
-5.09237936E+01
 21
-1.29850087E+01
  0
LINE
  8
0
 62
4
 10
-8.05237692E+01
 20
-1.58850332E+01
 11
-7.42061270E+01
 21
-1.58850332E+01
  0
LINE
  8
0
 62
4
 10
-8.05237692E+01
 20
-1.29850087E+01
 11
-7.42061270E+01
 21
-1.29850087E+01
  0
LINE
  8
0
 62
4
 10
-8.05237692E+01
 20
-5.29850087E+01
 11
-8.05237692E+01
 21
-5.58850332E+01
  0
LINE
  8
0
 62
4
 10
-5.09237936E+01
 20
-5.29850087E+01
 11
-5.09237936E+01
 21
-5.58850332E+01
  0
LINE
  8
0
 62
4
 10
-6.22061270E+01
 20
-5.58850332E+01
 11
-5.09237936E+01
 21
-5.58850332E+01
  0
LINE
  8
0
 62
4
 10
-6.22061270E+01
 20
-5.29850087E+01
 11
-5.09237936E+01
 21
-5.29850087E+01
  0
LINE
  8
0
 62
4
 10
-8.05237692E+01
 20
-5.58850332E+01
 11
-7.42061270E+01
 21
-5.58850332E+01
  0
LINE
  8
0
 62
4
 10
-8.05237692E+01
 20
-5.29850087E+01
 11
-7.42061270E+01
 21
-5.29850087E+01
  0
LINE
  8
0
 62
4
 10
-6.22061270E+01
 20
-4.24350210E+01
 11
-5.57061270E+01
 21
-4.24350210E+01
  0
LINE
  8
0
 62
4
 10
-6.22061270E+01
 20
-2.64350210E+01
 11
-5.57061270E+01
 21
-2.64350210E+01
  0
LINE
  8
0
 62
4
 10
-6.22061210E+01
 20
-5.74350213E+01
 11
-6.32061222E+01
 21
-5.84350223E+01
  0
LINE
  8
0
 62
4
 10
-7.32061278E+01
 20
-5.84350165E+01
 11
-7.42061289E+01
 21
-5.74350154E+01
  0
LINE
  8
0
 62
4
 10
-6.22061223E+01
 20
-1.14350189E+01
 11
-6.32061234E+01
 21
-1.04350178E+01
  0
LINE
  8
0
 62
4
 10
-7.32061291E+01
 20
-1.04350128E+01
 11
-7.42061301E+01
 21
-1.14350140E+01
  0
LINE
  8
0
 62
4
 10
-7.32061270E+01
 20
-5.84350210E+01
 11
-6.32061270E+01
 21
-5.84350210E+01
  0
LINE
  8
0
 62
4
 10
-7.42061270E+01
 20
-5.74350210E+01
 11
-6.22061270E+01
 21
-5.74350210E+01
  0
LINE
  8
0
 62
4
 10
-7.32061270E+01
 20
-1.04350210E+01
 11
-6.32061270E+01
 21
-1.04350210E+01
  0
LINE
  8
0
 62
4
 10
-7.42061270E+01
 20
-1.14350210E+01
 11
-6.22061270E+01
 21
-1.14350210E+01
  0
LINE
  8
0
 62
4
 10
-6.22061270E+01
 20
-1.14350210E+01
 11
-6.22061270E+01
 21
-1.64350210E+01
  0
LINE
  8
0
 62
4
 10
-7.42061270E+01
 20
-1.14350210E+01
 11
-7.42061270E+01
 21
-1.64350210E+01
  0
LINE
  8
0
 62
4
 10
-7.42061270E+01
 20
-2.54350210E+01
 11
-7.42061270E+01
 21
-4.34350210E+01
  0
LINE
  8
0
 62
4
 10
-6.22061270E+01
 20
-2.54350210E+01
 11
-6.22061270E+01
 21
-4.34350210E+01
  0
LINE
  8
0
 62
4
 10
-7.42061270E+01
 20
-5.24350210E+01
 11
-7.42061270E+01
 21
-5.74350210E+01
  0
LINE
  8
0
 62
4
 10
-6.22061270E+01
 20
-5.24350210E+01
 11
-6.22061270E+01
 21
-5.74350210E+01
  0
LINE
  8
0
  6
CENTER
 62
6
 10
-6.82061270E+01
 20
-9.19579366E+00
 11
-6.82061270E+01
 21
-6.07389150E+01
  0
LINE
  8
0
 62
4
 10
-8.07061270E+01
 20
-4.24350210E+01
 11
-7.42061270E+01
 21
-4.24350210E+01
  0
LINE
  8
0
 62
4
 10
-8.07061270E+01
 20
-2.64350210E+01
 11
-7.42061270E+01
 21
-2.64350210E+01
  0
LINE
  8
0
 62
4
 10
-8.07061270E+01
 20
-4.34350210E+01
 11
-5.57061270E+01
 21
-4.34350210E+01
  0
LINE
  8
0
 62
4
 10
-8.07061270E+01
 20
-2.54350210E+01
 11
-5.57061270E+01
 21
-2.54350210E+01
  0
LINE
  8
0
 62
4
 10
-8.07061270E+01
 20
-1.64350210E+01
 11
-8.07061270E+01
 21
-5.24350210E+01
  0
LINE
  8
0
 62
4
 10
-5.57061270E+01
 20
-1.64350210E+01
 11
-5.57061270E+01
 21
-5.24350210E+01
  0
LINE
  8
0
 62
4
 10
-8.07061270E+01
 20
-5.24350210E+01
 11
-5.57061270E+01
 21
-5.24350210E+01
  0
LINE
  8
0
 62
4
 10
-8.07061270E+01
 20
-1.64350210E+01
 11
-5.57061270E+01
 21
-1.64350210E+01
  0
LINE
  8
0
  6
CENTER
 62
6
 10
-8.86188010E+01
 20
-3.44350210E+01
 11
-4.88119925E+01
 21
-3.44350210E+01
  0
ARC
  8
0
 62
4
 10
1.72222788E+01
 20
5.71086802E+01
 40
3.00000000E+00
 50
1.38958724E+02
 51
1.73345775E+02
  0
ARC
  8
0
 62
4
 10
1.27722666E+01
 20
6.09826426E+01
 40
2.89999962E+00
 50
3.18958725E+02
 51
2.21041232E+02
  0
ARC
  8
0
 62
4
 10
1.27722666E+01
 20
6.09826426E+01
 40
1.59999943E+00
 50
3.10705552E+02
 51
2.29294314E+02
  0
ARC
  8
0
 62
4
 10
1.57722666E+01
 20
5.74955210E+01
 40
3.00000000E+00
 50
1.30705779E+02
 51
1.79999964E+02
  0
ARC
  8
0
 62
4
 10
9.77226655E+00
 20
5.74955210E+01
 40
3.00000000E+00
 50
0.00000000E+00
 51
4.92941583E+01
  0
ARC
  8
0
 62
4
 10
8.32225435E+00
 20
5.71086802E+01
 40
3.00000000E+00
 50
6.65420595E+00
 51
4.10412714E+01
  0
CIRCLE
  8
0
 62
4
 10
1.27722666E+01
 20
5.15649790E+01
 40
5.00000286E+00
  0
ARC
  8
0
 62
4
 10
1.27722666E+01
 20
5.15649790E+01
 40
1.25000000E+01
 50
8.99999956E+01
 51
2.63338626E+02
  0
CIRCLE
  8
0
 62
4
 10
1.27722666E+01
 20
5.15649790E+01
 40
6.00000000E+00
  0
LINE
  8
0
 62
4
 10
1.27722666E+01
 20
4.55649790E+01
 11
1.27722666E+01
 21
3.55383525E+01
  0
LINE
  8
0
 62
4
 10
1.34973598E+01
 20
3.74826307E+01
 11
1.42223507E+01
 21
3.87383517E+01
  0
LINE
  8
0
 62
4
 10
1.27722933E+01
 20
3.87383772E+01
 11
1.34972995E+01
 21
3.74826298E+01
  0
LINE
  8
0
 62
4
 10
1.20472721E+01
 20
3.42826511E+01
 11
1.27722783E+01
 21
3.55383985E+01
  0
LINE
  8
0
 62
4
 10
1.13222947E+01
 20
3.55383618E+01
 11
1.20472857E+01
 21
3.42826408E+01
  0
LINE
  8
0
 62
4
 10
1.13222543E+01
 20
4.57428202E+01
 11
1.13222543E+01
 21
3.55383525E+01
  0
LINE
  8
0
 62
4
 10
1.42222788E+01
 20
4.57428202E+01
 11
1.42222788E+01
 21
3.87383494E+01
  0
LINE
  8
0
 62
4
 10
5.87722698E+01
 20
6.30649848E+01
 11
5.77722686E+01
 21
6.40649859E+01
  0
LINE
  8
0
 62
4
 10
3.97722666E+01
 20
6.40649790E+01
 11
3.97722666E+01
 21
3.90649790E+01
  0
LINE
  8
0
 62
4
 10
5.87722675E+01
 20
4.00649760E+01
 11
5.77722718E+01
 21
3.90649804E+01
  0
LINE
  8
0
 62
4
 10
1.27722666E+01
 20
6.40649790E+01
 11
5.77722666E+01
 21
6.40649790E+01
  0
LINE
  8
0
 62
4
 10
1.42222788E+01
 20
3.90649790E+01
 11
5.77722666E+01
 21
3.90649790E+01
  0
LINE
  8
0
 62
4
 10
5.87722666E+01
 20
6.30649790E+01
 11
5.87722666E+01
 21
4.00649790E+01
  0
LINE
  8
0
  6
CENTER
 62
6
 10
1.27722666E+01
 20
6.74981150E+01
 11
1.27722666E+01
 21
3.56827311E+01
  0
LINE
  8
0
  6
CENTER
 62
6
 10
-3.46737273E+00
 20
5.15649790E+01
 11
6.19988939E+01
 21
5.15649790E+01
  0
TEXT
  8
0
 62
7
 10
-1.32642850E+02
 20
8.79000001E+01
 40
3.19999981E+00
  1
NEW DYNA CYLINDER
 41
1.07594937E+00
  7
MONOTXT
  0
LINE
  8
0
 62
7
 10
-1.38399994E+02
 20
9.45000000E+01
 11
1.38350006E+02
 21
9.45000000E+01
  0
LINE
  8
0
 62
7
 10
1.38350006E+02
 20
9.45000000E+01
 11
1.38350006E+02
 21
-9.48000031E+01
  0
LINE
  8
0
 62
7
 10
-1.38399994E+02
 20
-9.48000031E+01
 11
1.38350006E+02
 21
-9.48000031E+01
  0
LINE
  8
0
 62
7
 10
-1.38399994E+02
 20
9.45000000E+01
 11
-1.38399994E+02
 21
-9.48000031E+01
  0
LINE
  8
0
 62
7
 10
7.33500061E+01
 20
-8.48000031E+01
 11
1.38350006E+02
 21
-8.48000031E+01
  0
LINE
  8
0
 62
7
 10
-1.38399994E+02
 20
8.45000000E+01
 11
-7.33999939E+01
 21
8.45000000E+01
  0
LINE
  8
0
 62
7
 10
7.33500061E+01
 20
8.45000000E+01
 11
1.38350006E+02
 21
8.45000000E+01
  0
LINE
  8
0
 62
7
 10
7.33500061E+01
 20
-8.48000031E+01
 11
7.33500061E+01
 21
-9.48000031E+01
  0
LINE
  8
0
 62
7
 10
7.33500061E+01
 20
9.45000000E+01
 11
7.33500061E+01
 21
8.45000000E+01
  0
LINE
  8
0
 62
7
 10
-7.33999939E+01
 20
9.45000000E+01
 11
-7.33999939E+01
 21
8.45000000E+01
  0
TEXT
  8
0
 62
7
 10
7.72426624E+01
 20
-9.20500031E+01
 40
4.50000000E+00
  1
KOGANEI CORP.
 41
1.04838710E+00
  7
MONOTXT
  0
TEXT
  8
0
 62
7
 10
9.35071493E+01
 20
8.79000001E+01
 40
3.19999981E+00
  1
Ver. 1.0
 41
1.08108108E+00
  7
MONOTXT
  0
TEXT
  8
0
 62
7
 10
-1.29085994E+02
 20
7.29000001E+01
 40
3.19999981E+00
  1
MODEL:DDA40-Y
 41
1.00000000E+00
  7
MONOTXT
  0
ENDSEC
  0
EOF
