  0
SECTION
  2
HEADER
  9
$ACADVER
  1
AC1003
  9
$EXTMIN
 10
-1.38399994E+02
 20
-9.48000031E+01
  9
$EXTMAX
 10
1.38350006E+02
 20
9.45000000E+01
  9
$LIMMIN
 10
-1.38400994E+02
 20
-9.48010031E+01
  9
$LIMMAX
 10
1.38351006E+02
 20
9.45010000E+01
  9
$SNAPUNIT
 10
1
 20
1
  9
$SNAPBASE
 10
0
 20
0
  9
$GRIDMODE
 70
0
  9
$GRIDUNIT
 10
0
 20
0
  9
$LTSCALE
 40
4.61250000E+00
  9
$TEXTSIZE
 40
3.2
  9
$DIMTAD
 70
0
  9
$LUNITS
 70
2
  9
$LUPREC
 70
4
  9
$FILLETRAD
 40
0
  9
$AUNITS
 70
0
  9
$AUPREC
 70
0
  0
ENDSEC
  0
SECTION
  2
TABLES
  0
TABLE
  2
LTYPE
 70
2
  0
LTYPE
  2
CONTINUOUS
 70
64
  3
Solid-Line
 72
65
 73
0
 40
0
  0
LTYPE
  2
DASHED
 70
64
  3
DASHED
 72
65
 73
2
 40
.75
 49
.5
 49
-.25
  0
LTYPE
  2
HIDDEN
 70
64
  3
HIDDEN
 72
65
 73
2
 40
.375
 49
.25
 49
-.125
  0
LTYPE
  2
CENTER
 70
64
  3
CENTER
 72
65
 73
4
 40
2
 49
1.25
 49
-.25
 49
.25
 49
-.25
  0
LTYPE
  2
PHANTOM
 70
64
  3
PHANTOM
 72
65
 73
6
 40
2.5
 49
1.25
 49
-.25
 49
.25
 49
-.25
 49
.25
 49
-.25
  0
ENDTAB
  0
TABLE
  2
LAYER
 70
1
  0
LAYER
  2
1
 70
0
 62
7
  6
CONTINUOUS
 0
ENDTAB
  0
TABLE
  2
STYLE
 70
2
  0
STYLE
  2
MONOTXT
 70
0
 40
0
 41
1
 50
0
 71
0
 42
.2
  3
monotxt
  0
STYLE
  2
BIGFONT
 70
0
 40
0
 41
1
 50
0
 71
0
 42
.2
  3
txt
  4
bigfont
  0
ENDTAB
  0
ENDSEC
  0
SECTION
  2
ENTITIES
  0
LINE
  8
0
 62
4
 10
2.82624789E+00
 20
-4.61884937E+01
 11
2.75009229E+01
 21
-4.61884937E+01
  0
LINE
  8
0
 62
4
 10
2.82624789E+00
 20
-2.81884937E+01
 11
2.75009229E+01
 21
-2.81884937E+01
  0
LINE
  8
0
  6
CENTER
 62
6
 10
1.15009229E+01
 20
-4.80766620E+01
 11
1.15009229E+01
 21
-2.45210437E+01
  0
LINE
  8
0
 62
4
 10
2.75009229E+01
 20
-4.96884937E+01
 11
2.75009229E+01
 21
-4.61884937E+01
  0
LINE
  8
0
  6
CENTER
 62
6
 10
-4.73872404E+00
 20
-3.71884937E+01
 11
6.07275502E+01
 21
-3.71884937E+01
  0
LINE
  8
0
 62
4
 10
5.50092614E+00
 20
-4.56884846E+01
 11
5.00092557E+00
 21
-4.61884851E+01
  0
LINE
  8
0
 62
4
 10
5.75009235E+01
 20
-2.56884944E+01
 11
5.65009224E+01
 21
-2.46884933E+01
  0
LINE
  8
0
 62
4
 10
5.75009220E+01
 20
-4.86884935E+01
 11
5.65009209E+01
 21
-4.96884945E+01
  0
LINE
  8
0
 62
4
 10
2.75009229E+01
 20
-2.81884937E+01
 11
2.75009229E+01
 21
-2.46884937E+01
  0
LINE
  8
0
 62
4
 10
5.50091751E+00
 20
-2.86884958E+01
 11
5.00091694E+00
 21
-2.81884953E+01
  0
LINE
  8
0
 62
4
 10
2.75009229E+01
 20
-4.96884937E+01
 11
5.65009229E+01
 21
-4.96884937E+01
  0
LINE
  8
0
 62
4
 10
2.75009229E+01
 20
-2.46884937E+01
 11
5.65009229E+01
 21
-2.46884937E+01
  0
LINE
  8
0
 62
4
 10
5.75009229E+01
 20
-4.86884937E+01
 11
5.75009229E+01
 21
-2.56884937E+01
  0
ARC
  8
0
 62
4
 10
1.15009229E+01
 20
-3.71884937E+01
 40
1.25000000E+01
 50
1.33945515E+02
 51
2.26054481E+02
  0
LINE
  8
0
  6
CENTER
 62
6
 10
-4.25659373E+01
 20
-3.71884951E+01
 11
-7.43813174E+01
 21
-3.71884923E+01
  0
LINE
  8
0
 62
4
 10
-4.98244029E+01
 20
-4.61885097E+01
 11
-6.71737376E+01
 21
-4.61885082E+01
  0
LINE
  8
0
 62
4
 10
-4.98243937E+01
 20
-2.81884944E+01
 11
-6.71737437E+01
 21
-2.81884929E+01
  0
LINE
  8
0
  6
CENTER
 62
6
 10
-5.84990708E+01
 20
-5.16885089E+01
 11
-5.84990682E+01
 21
-2.26884937E+01
  0
ARC
  8
0
 62
4
 10
-5.84990695E+01
 20
-3.71884937E+01
 40
1.25000000E+01
 50
1.79999990E+02
 51
0.00000000E+00
  0
ARC
  8
0
 62
4
 10
-5.84990695E+01
 20
-3.71884937E+01
 40
1.25000000E+01
 50
3.59999986E+02
 51
1.80000000E+02
  0
LINE
  8
0
  6
CENTER
 62
6
 10
-4.73872404E+00
 20
3.78115063E+01
 11
6.07275502E+01
 21
3.78115063E+01
  0
LINE
  8
0
  6
CENTER
 62
6
 10
1.15009229E+01
 20
2.18783703E+01
 11
1.15009229E+01
 21
5.36937542E+01
  0
LINE
  8
0
 62
4
 10
5.75009229E+01
 20
2.63115063E+01
 11
5.75009229E+01
 21
4.93115063E+01
  0
LINE
  8
0
 62
4
 10
1.15009229E+01
 20
5.03115063E+01
 11
5.65009229E+01
 21
5.03115063E+01
  0
LINE
  8
0
 62
4
 10
1.15009229E+01
 20
2.53115063E+01
 11
5.65009229E+01
 21
2.53115063E+01
  0
LINE
  8
0
 62
4
 10
2.75009229E+01
 20
2.91368313E+01
 11
2.75009229E+01
 21
4.64861813E+01
  0
LINE
  8
0
 62
4
 10
5.75009253E+01
 20
4.93115080E+01
 11
5.65009242E+01
 21
5.03115091E+01
  0
LINE
  8
0
 62
4
 10
5.75009257E+01
 20
2.63115103E+01
 11
5.65009245E+01
 21
2.53115092E+01
  0
LINE
  8
0
 62
4
 10
1.15009229E+01
 20
2.91368237E+01
 11
2.75009229E+01
 21
2.91368237E+01
  0
LINE
  8
0
 62
4
 10
1.14909589E+01
 20
4.64861737E+01
 11
2.75009229E+01
 21
4.64861737E+01
  0
CIRCLE
  8
0
 62
4
 10
1.15009229E+01
 20
3.78115063E+01
 40
6.00000000E+00
  0
ARC
  8
0
 62
4
 10
1.15009229E+01
 20
3.78115063E+01
 40
1.25000000E+01
 50
9.00000025E+01
 51
2.70000001E+02
  0
ARC
  8
0
 62
4
 10
1.15009229E+01
 20
3.78115063E+01
 40
8.67467594E+00
 50
9.00000025E+01
 51
2.70000001E+02
  0
TEXT
  8
0
 62
7
 10
-1.32642850E+02
 20
8.79000001E+01
 40
3.19999981E+00
  1
NEW DYNA CYLINDER
 41
1.07594937E+00
  7
MONOTXT
  0
TEXT
  8
0
 62
7
 10
-1.29085994E+02
 20
7.29000001E+01
 40
3.19999981E+00
  1
MODEL:DDA40-I
 41
1.00000000E+00
  7
MONOTXT
  0
LINE
  8
0
 62
7
 10
-1.38399994E+02
 20
9.45000000E+01
 11
1.38350006E+02
 21
9.45000000E+01
  0
LINE
  8
0
 62
7
 10
1.38350006E+02
 20
9.45000000E+01
 11
1.38350006E+02
 21
-9.48000031E+01
  0
LINE
  8
0
 62
7
 10
-1.38399994E+02
 20
-9.48000031E+01
 11
1.38350006E+02
 21
-9.48000031E+01
  0
LINE
  8
0
 62
7
 10
-1.38399994E+02
 20
9.45000000E+01
 11
-1.38399994E+02
 21
-9.48000031E+01
  0
LINE
  8
0
 62
7
 10
7.33500061E+01
 20
-8.48000031E+01
 11
1.38350006E+02
 21
-8.48000031E+01
  0
LINE
  8
0
 62
7
 10
-1.38399994E+02
 20
8.45000000E+01
 11
-7.33999939E+01
 21
8.45000000E+01
  0
LINE
  8
0
 62
7
 10
7.33500061E+01
 20
8.45000000E+01
 11
1.38350006E+02
 21
8.45000000E+01
  0
LINE
  8
0
 62
7
 10
7.33500061E+01
 20
-8.48000031E+01
 11
7.33500061E+01
 21
-9.48000031E+01
  0
LINE
  8
0
 62
7
 10
7.33500061E+01
 20
9.45000000E+01
 11
7.33500061E+01
 21
8.45000000E+01
  0
LINE
  8
0
 62
7
 10
-7.33999939E+01
 20
9.45000000E+01
 11
-7.33999939E+01
 21
8.45000000E+01
  0
TEXT
  8
0
 62
7
 10
7.72426624E+01
 20
-9.20500031E+01
 40
4.50000000E+00
  1
KOGANEI CORP.
 41
1.04838710E+00
  7
MONOTXT
  0
TEXT
  8
0
 62
7
 10
9.35071493E+01
 20
8.79000001E+01
 40
3.19999981E+00
  1
Ver. 1.0
 41
1.08108108E+00
  7
MONOTXT
  0
ENDSEC
  0
EOF
