  0
SECTION
  2
HEADER
  9
$ACADVER
  1
AC1003
  9
$EXTMIN
 10
-1.94250000E+02
 20
-1.33500000E+02
  9
$EXTMAX
 10
1.94800003E+02
 20
1.32600006E+02
  9
$LIMMIN
 10
-1.94251000E+02
 20
-1.33501000E+02
  9
$LIMMAX
 10
1.94801003E+02
 20
1.32601006E+02
  9
$SNAPUNIT
 10
1
 20
1
  9
$SNAPBASE
 10
0
 20
0
  9
$GRIDMODE
 70
0
  9
$GRIDUNIT
 10
0
 20
0
  9
$LTSCALE
 40
6.48416672E+00
  9
$TEXTSIZE
 40
3.2
  9
$DIMTAD
 70
0
  9
$LUNITS
 70
2
  9
$LUPREC
 70
4
  9
$FILLETRAD
 40
0
  9
$AUNITS
 70
0
  9
$AUPREC
 70
0
  0
ENDSEC
  0
SECTION
  2
TABLES
  0
TABLE
  2
LTYPE
 70
2
  0
LTYPE
  2
CONTINUOUS
 70
64
  3
Solid-Line
 72
65
 73
0
 40
0
  0
LTYPE
  2
DASHED
 70
64
  3
DASHED
 72
65
 73
2
 40
.75
 49
.5
 49
-.25
  0
LTYPE
  2
HIDDEN
 70
64
  3
HIDDEN
 72
65
 73
2
 40
.375
 49
.25
 49
-.125
  0
LTYPE
  2
CENTER
 70
64
  3
CENTER
 72
65
 73
4
 40
2
 49
1.25
 49
-.25
 49
.25
 49
-.25
  0
LTYPE
  2
PHANTOM
 70
64
  3
PHANTOM
 72
65
 73
6
 40
2.5
 49
1.25
 49
-.25
 49
.25
 49
-.25
 49
.25
 49
-.25
  0
ENDTAB
  0
TABLE
  2
LAYER
 70
1
  0
LAYER
  2
1
 70
0
 62
7
  6
CONTINUOUS
 0
ENDTAB
  0
TABLE
  2
STYLE
 70
2
  0
STYLE
  2
MONOTXT
 70
0
 40
0
 41
1
 50
0
 71
0
 42
.2
  3
monotxt
  0
STYLE
  2
BIGFONT
 70
0
 40
0
 41
1
 50
0
 71
0
 42
.2
  3
txt
  4
bigfont
  0
ENDTAB
  0
ENDSEC
  0
SECTION
  2
ENTITIES
  0
LINE
  8
0
 62
4
 10
-6.92500000E+01
 20
-6.42500076E+01
 11
-7.42500000E+01
 21
-6.42500076E+01
  0
LINE
  8
0
  6
CENTER
 62
6
 10
-5.52500000E+01
 20
-3.38253174E+01
 11
-5.52500000E+01
 21
-7.21742783E+01
  0
LINE
  8
0
  6
CENTER
 62
6
 10
-6.02801819E+01
 20
-3.50000000E+01
 11
-7.79010620E+01
 21
-3.50000000E+01
  0
LINE
  8
0
  6
CENTER
 62
6
 10
-7.86277771E+01
 20
-5.35000000E+01
 11
-3.43597794E+01
 21
-5.35000000E+01
  0
LINE
  8
0
 62
4
 10
-7.42500000E+01
 20
-7.82500076E+01
 11
-7.42500000E+01
 21
-2.87500000E+01
  0
LINE
  8
0
 62
4
 10
-6.82500000E+01
 20
-7.82500076E+01
 11
-7.42500000E+01
 21
-7.82500076E+01
  0
LINE
  8
0
  6
CENTER
 62
6
 10
-6.02801819E+01
 20
-7.20000076E+01
 11
-7.88354034E+01
 21
-7.20000076E+01
  0
LINE
  8
0
 62
4
 10
-4.45563816E+01
 20
-6.46903045E+01
 11
-6.62499979E+01
 21
-7.25000070E+01
  0
LINE
  8
0
 62
4
 10
-4.45564091E+01
 20
-4.23096987E+01
 11
-6.62500008E+01
 21
-3.45000190E+01
  0
LINE
  8
0
 62
4
 10
-4.12500000E+01
 20
-4.70141296E+01
 11
-4.12500000E+01
 21
-5.99858551E+01
  0
LINE
  8
0
 62
4
 10
-6.82500000E+01
 20
-6.88476639E+01
 11
-6.82500000E+01
 21
-7.82500076E+01
  0
LINE
  8
0
 62
4
 10
-6.82500000E+01
 20
-3.81523438E+01
 11
-6.82500000E+01
 21
-2.87500000E+01
  0
LINE
  8
0
 62
4
 10
-6.62500000E+01
 20
-3.81523438E+01
 11
-6.82500000E+01
 21
-3.81523438E+01
  0
LINE
  8
0
 62
4
 10
-6.62500000E+01
 20
-6.88476639E+01
 11
-6.82500000E+01
 21
-6.88476639E+01
  0
LINE
  8
0
 62
4
 10
-6.92500000E+01
 20
-4.27500000E+01
 11
-7.42500000E+01
 21
-4.27500000E+01
  0
LINE
  8
0
 62
4
 10
-6.92499947E+01
 20
-6.42500034E+01
 11
-6.62499915E+01
 21
-6.72500066E+01
  0
LINE
  8
0
 62
4
 10
-6.92499731E+01
 20
-4.27499914E+01
 11
-6.62499700E+01
 21
-3.97499882E+01
  0
LINE
  8
0
 62
4
 10
-6.82500000E+01
 20
-2.87500000E+01
 11
-7.42500000E+01
 21
-2.87500000E+01
  0
LINE
  8
0
 62
4
 10
-6.62500000E+01
 20
-3.97500000E+01
 11
-6.62500000E+01
 21
-3.07500000E+01
  0
LINE
  8
0
 62
4
 10
-6.62500000E+01
 20
-6.72500076E+01
 11
-6.62500000E+01
 21
-7.62500076E+01
  0
ARC
  8
0
 62
4
 10
-4.62500000E+01
 20
-5.99858551E+01
 40
5.00000000E+00
 50
2.89798961E+02
 51
3.59999964E+02
  0
ARC
  8
0
 62
4
 10
-4.62500000E+01
 20
-4.70141296E+01
 40
5.00000000E+00
 50
3.59999981E+02
 51
7.02012035E+01
  0
CIRCLE
  8
0
 62
4
 10
-5.52500000E+01
 20
-5.35000000E+01
 40
1.30000000E+01
  0
ARC
  8
0
 62
4
 10
-6.82500000E+01
 20
-3.07500000E+01
 40
2.00000000E+00
 50
0.00000000E+00
 51
8.99999618E+01
  0
ARC
  8
0
 62
4
 10
-6.82500000E+01
 20
-7.62500076E+01
 40
2.00000000E+00
 50
2.69999984E+02
 51
3.55130785E+02
  0
CIRCLE
  8
0
 62
4
 10
-5.52500000E+01
 20
-5.35000000E+01
 40
7.00000000E+00
  0
LINE
  8
0
  6
CENTER
 62
6
 10
2.72499394E+01
 20
-2.84972076E+01
 11
2.72499394E+01
 21
-4.22240601E+01
  0
LINE
  8
0
  6
CENTER
 62
6
 10
7.23273721E+01
 20
-3.49999237E+01
 11
5.62540407E+01
 21
-3.49999237E+01
  0
LINE
  8
0
  6
CENTER
 62
6
 10
6.42499995E+01
 20
-2.79105835E+01
 11
6.42499995E+01
 21
-4.24587097E+01
  0
LINE
  8
0
  6
CENTER
 62
6
 10
6.42500606E+01
 20
-7.92983170E+01
 11
6.42500606E+01
 21
-6.39804993E+01
  0
LINE
  8
0
  6
CENTER
 62
6
 10
7.17407537E+01
 20
-7.19999924E+01
 11
5.64886880E+01
 21
-7.19999924E+01
  0
LINE
  8
0
 62
4
 10
3.47499995E+01
 20
-6.68150101E+01
 11
3.47499995E+01
 21
-7.05000076E+01
  0
LINE
  8
0
 62
4
 10
3.87280879E+01
 20
-6.35000000E+01
 11
5.29658813E+01
 21
-6.35000000E+01
  0
LINE
  8
0
 62
4
 10
3.67499995E+01
 20
-7.05000076E+01
 11
3.67499995E+01
 21
-3.65000000E+01
  0
LINE
  8
0
 62
4
 10
3.47499995E+01
 20
-4.01849976E+01
 11
3.47499995E+01
 21
-3.65000000E+01
  0
LINE
  8
0
 62
4
 10
3.38451852E+01
 20
-4.31577905E+01
 11
2.39048196E+01
 21
-4.28422233E+01
  0
LINE
  8
0
 62
4
 10
5.76548342E+01
 20
-6.38422200E+01
 11
6.75951998E+01
 21
-6.41577871E+01
  0
LINE
  8
0
 62
4
 10
7.05000005E+01
 20
-3.98437347E+01
 11
7.05000005E+01
 21
-3.55124664E+01
  0
LINE
  8
0
 62
4
 10
4.57499935E+01
 20
-2.87500127E+01
 11
6.47422489E+01
 21
-2.95173766E+01
  0
LINE
  8
0
 62
4
 10
2.10000005E+01
 20
-6.71562729E+01
 11
2.10000005E+01
 21
-7.14875412E+01
  0
LINE
  8
0
 62
4
 10
2.67577813E+01
 20
-7.74826673E+01
 11
4.57499753E+01
 21
-7.82500287E+01
  0
LINE
  8
0
  6
CENTER
 62
6
 10
4.57500000E+01
 20
-2.50050049E+01
 11
4.57500000E+01
 21
-8.28012543E+01
  0
LINE
  8
0
  6
CENTER
 62
6
 10
2.72500615E+01
 20
-7.90636673E+01
 11
2.72500615E+01
 21
-6.43982162E+01
  0
LINE
  8
0
 62
4
 10
5.66865374E+01
 20
-4.01870217E+01
 11
5.94543691E+01
 21
-4.00991541E+01
  0
LINE
  8
0
 62
4
 10
3.87499995E+01
 20
-7.45000076E+01
 11
5.27500000E+01
 21
-7.45000076E+01
  0
LINE
  8
0
  6
CENTER
 62
6
 10
3.49011483E+01
 20
-7.19999924E+01
 11
1.95317578E+01
 21
-7.19999924E+01
  0
LINE
  8
0
  6
CENTER
 62
6
 10
3.52531190E+01
 20
-3.49999237E+01
 11
2.00010533E+01
 21
-3.49999237E+01
  0
LINE
  8
0
  6
CENTER
 62
6
 10
1.67776475E+01
 20
-5.35000000E+01
 11
7.54537969E+01
 21
-5.35000000E+01
  0
LINE
  8
0
 62
4
 10
6.93594245E+01
 20
-6.72153056E+01
 11
7.05000251E+01
 21
-6.72515151E+01
  0
LINE
  8
0
 62
4
 10
3.87280879E+01
 20
-4.35000000E+01
 11
5.29658813E+01
 21
-4.35000000E+01
  0
LINE
  8
0
 62
4
 10
5.66865487E+01
 20
-6.68129920E+01
 11
5.94543804E+01
 21
-6.69008597E+01
  0
LINE
  8
0
 62
4
 10
3.48134584E+01
 20
-6.68129954E+01
 11
3.20456877E+01
 21
-6.69008611E+01
  0
LINE
  8
0
 62
4
 10
3.38451730E+01
 20
-6.38422233E+01
 11
2.39048064E+01
 21
-6.41577905E+01
  0
LINE
  8
0
 62
4
 10
5.57500000E+01
 20
-6.65000076E+01
 11
5.57500000E+01
 21
-4.05000000E+01
  0
LINE
  8
0
 62
4
 10
5.47500000E+01
 20
-7.05000076E+01
 11
5.47500000E+01
 21
-3.65000000E+01
  0
LINE
  8
0
 62
4
 10
3.87499995E+01
 20
-3.45000000E+01
 11
5.27500000E+01
 21
-3.45000000E+01
  0
LINE
  8
0
 62
4
 10
2.21405207E+01
 20
-6.72153109E+01
 11
2.09999820E+01
 21
-6.72515185E+01
  0
LINE
  8
0
 62
4
 10
5.67500000E+01
 20
-6.68150101E+01
 11
5.67500000E+01
 21
-7.05000076E+01
  0
LINE
  8
0
 62
4
 10
6.23960567E+01
 20
-6.52500076E+01
 11
6.61039424E+01
 21
-6.52500076E+01
  0
LINE
  8
0
 62
4
 10
2.21405320E+01
 20
-3.97847029E+01
 11
2.09999933E+01
 21
-3.97484953E+01
  0
LINE
  8
0
 62
4
 10
3.57499995E+01
 20
-6.65000076E+01
 11
3.57499995E+01
 21
-4.05000000E+01
  0
LINE
  8
0
 62
4
 10
2.10000005E+01
 20
-3.98437347E+01
 11
2.10000005E+01
 21
-3.55124664E+01
  0
LINE
  8
0
 62
4
 10
4.57499677E+01
 20
-7.82500175E+01
 11
6.47421613E+01
 21
-7.74826561E+01
  0
LINE
  8
0
 62
4
 10
5.76548229E+01
 20
-4.31577938E+01
 11
6.75951875E+01
 21
-4.28422267E+01
  0
LINE
  8
0
 62
4
 10
2.67577548E+01
 20
-2.95173553E+01
 11
4.57499490E+01
 21
-2.87499939E+01
  0
LINE
  8
0
 62
4
 10
3.48134707E+01
 20
-4.01870184E+01
 11
3.20456390E+01
 21
-4.00991508E+01
  0
LINE
  8
0
 62
4
 10
7.05000005E+01
 20
-6.71562729E+01
 11
7.05000005E+01
 21
-7.14875412E+01
  0
LINE
  8
0
 62
4
 10
3.87499995E+01
 20
-7.25000076E+01
 11
5.27500000E+01
 21
-7.25000076E+01
  0
LINE
  8
0
 62
4
 10
3.87499995E+01
 20
-3.25000000E+01
 11
5.27500000E+01
 21
-3.25000000E+01
  0
LINE
  8
0
 62
4
 10
5.67500000E+01
 20
-4.01849976E+01
 11
5.67500000E+01
 21
-3.65000000E+01
  0
LINE
  8
0
 62
4
 10
2.53959355E+01
 20
-4.17500000E+01
 11
2.91039433E+01
 21
-4.17500000E+01
  0
LINE
  8
0
 62
4
 10
2.53959355E+01
 20
-6.52500076E+01
 11
2.91039433E+01
 21
-6.52500076E+01
  0
LINE
  8
0
 62
4
 10
6.23960567E+01
 20
-4.17500000E+01
 11
6.61039424E+01
 21
-4.17500000E+01
  0
ARC
  8
0
 62
4
 10
3.37500005E+01
 20
-6.08437195E+01
 40
3.00000000E+00
 50
2.71818139E+02
 51
3.11810256E+02
  0
ARC
  8
0
 62
4
 10
3.87499995E+01
 20
-3.65000000E+01
 40
2.00000000E+00
 50
8.99999818E+01
 51
1.79999964E+02
  0
ARC
  8
0
 62
4
 10
3.87499995E+01
 20
-7.05000076E+01
 40
2.00000000E+00
 50
1.79999977E+02
 51
2.69999974E+02
  0
ARC
  8
0
 62
4
 10
6.44999995E+01
 20
-7.14875412E+01
 40
6.00000000E+00
 50
2.72313588E+02
 51
3.59999945E+02
  0
ARC
  8
0
 62
4
 10
3.57499995E+01
 20
-3.95000000E+01
 40
1.00000000E+00
 50
2.70000018E+02
 51
0.00000000E+00
  0
ARC
  8
0
 62
4
 10
6.44999995E+01
 20
-3.55124664E+01
 40
6.00000000E+00
 50
0.00000000E+00
 51
8.76863576E+01
  0
ARC
  8
0
 62
4
 10
3.47499995E+01
 20
-6.48140030E+01
 40
2.00000000E+00
 50
2.71817846E+02
 51
3.02404047E+02
  0
ARC
  8
0
 62
4
 10
5.67500000E+01
 20
-6.48140030E+01
 40
2.00000000E+00
 50
2.37595825E+02
 51
2.68182027E+02
  0
ARC
  8
0
 62
4
 10
3.37500005E+01
 20
-4.61562805E+01
 40
3.00000000E+00
 50
4.81896894E+01
 51
8.81818063E+01
  0
ARC
  8
0
 62
4
 10
2.70000005E+01
 20
-3.55124664E+01
 40
6.00000000E+00
 50
9.23136542E+01
 51
1.79999964E+02
  0
ARC
  8
0
 62
4
 10
6.75000005E+01
 20
-6.71562729E+01
 40
3.00000000E+00
 50
3.59999945E+02
 51
8.81817513E+01
  0
ARC
  8
0
 62
4
 10
2.40000005E+01
 20
-6.71562729E+01
 40
3.00000000E+00
 50
9.18180967E+01
 51
1.79999909E+02
  0
ARC
  8
0
 62
4
 10
5.27500000E+01
 20
-3.65000000E+01
 40
2.00000000E+00
 50
0.00000000E+00
 51
8.99999818E+01
  0
ARC
  8
0
 62
4
 10
5.77500000E+01
 20
-4.61562805E+01
 40
3.00000000E+00
 50
9.18182124E+01
 51
1.31810329E+02
  0
ARC
  8
0
 62
4
 10
5.27500000E+01
 20
-7.05000076E+01
 40
4.00000000E+00
 50
2.69999963E+02
 51
3.59999945E+02
  0
ARC
  8
0
 62
4
 10
5.77500000E+01
 20
-6.08437195E+01
 40
3.00000000E+00
 50
2.28189616E+02
 51
2.68181733E+02
  0
ARC
  8
0
 62
4
 10
3.47499995E+01
 20
-4.21860046E+01
 40
2.00000000E+00
 50
5.75958982E+01
 51
8.81820996E+01
  0
ARC
  8
0
 62
4
 10
2.40000005E+01
 20
-3.98437347E+01
 40
3.00000000E+00
 50
1.80000036E+02
 51
2.68181842E+02
  0
ARC
  8
0
 62
4
 10
5.67500000E+01
 20
-4.21860046E+01
 40
2.00000000E+00
 50
9.18179191E+01
 51
1.22404120E+02
  0
ARC
  8
0
 62
4
 10
3.87499995E+01
 20
-3.65000000E+01
 40
4.00000000E+00
 50
8.99999818E+01
 51
1.79999964E+02
  0
ARC
  8
0
 62
4
 10
5.27500000E+01
 20
-3.65000000E+01
 40
4.00000000E+00
 50
0.00000000E+00
 51
8.99999818E+01
  0
ARC
  8
0
 62
4
 10
5.57500000E+01
 20
-3.95000000E+01
 40
1.00000000E+00
 50
1.79999977E+02
 51
2.70000028E+02
  0
ARC
  8
0
 62
4
 10
6.75000005E+01
 20
-3.98437347E+01
 40
3.00000000E+00
 50
2.71818194E+02
 51
0.00000000E+00
  0
ARC
  8
0
 62
4
 10
5.27500000E+01
 20
-7.05000076E+01
 40
2.00000000E+00
 50
2.69999963E+02
 51
3.59999945E+02
  0
ARC
  8
0
 62
4
 10
3.87499995E+01
 20
-7.05000076E+01
 40
4.00000000E+00
 50
1.79999977E+02
 51
2.69999974E+02
  0
ARC
  8
0
 62
4
 10
3.57499995E+01
 20
-6.75000076E+01
 40
1.00000000E+00
 50
3.59999945E+02
 51
8.99999274E+01
  0
ARC
  8
0
 62
4
 10
2.70000005E+01
 20
-7.14875412E+01
 40
6.00000000E+00
 50
1.79999977E+02
 51
2.67686288E+02
  0
ARC
  8
0
 62
4
 10
5.57500000E+01
 20
-6.75000076E+01
 40
1.00000000E+00
 50
8.99999274E+01
 51
1.79999964E+02
  0
ARC
  8
0
 62
4
 10
2.72499394E+01
 20
-3.49999847E+01
 40
7.00000000E+00
 50
2.85358491E+02
 51
5.40743515E+01
  0
ARC
  8
0
 62
4
 10
6.42499995E+01
 20
-3.49999695E+01
 40
7.00000000E+00
 50
2.85357978E+02
 51
3.33234537E+02
  0
ARC
  8
0
 62
4
 10
6.42499995E+01
 20
-7.20000381E+01
 40
7.00000000E+00
 50
1.05357997E+02
 51
2.34073971E+02
  0
ARC
  8
0
 62
4
 10
2.72499394E+01
 20
-7.20000229E+01
 40
7.00000000E+00
 50
1.05358509E+02
 51
1.53233942E+02
  0
ARC
  8
0
 62
4
 10
2.72499394E+01
 20
-7.20000229E+01
 40
7.00000000E+00
 50
3.05925594E+02
 51
7.46415095E+01
  0
ARC
  8
0
 62
4
 10
2.72499394E+01
 20
-3.49999847E+01
 40
7.00000000E+00
 50
2.06766004E+02
 51
2.54641490E+02
  0
ARC
  8
0
 62
4
 10
6.42499995E+01
 20
-3.49999695E+01
 40
7.00000000E+00
 50
1.25925944E+02
 51
2.54641992E+02
  0
ARC
  8
0
 62
4
 10
6.42499995E+01
 20
-7.20000381E+01
 40
7.00000000E+00
 50
2.67655135E+01
 51
7.46420218E+01
  0
CIRCLE
  8
0
 62
4
 10
2.72500615E+01
 20
-7.19999924E+01
 40
2.75000000E+00
  0
CIRCLE
  8
0
 62
4
 10
2.72499394E+01
 20
-3.49999237E+01
 40
2.75000000E+00
  0
CIRCLE
  8
0
 62
4
 10
6.42499995E+01
 20
-3.49999237E+01
 40
2.75000000E+00
  0
CIRCLE
  8
0
 62
4
 10
6.42500606E+01
 20
-7.19999924E+01
 40
2.75000000E+00
  0
LINE
  8
0
 62
4
 10
-4.32500000E+01
 20
5.75000000E+01
 11
-6.42500000E+01
 21
5.75000000E+01
  0
LINE
  8
0
 62
4
 10
-4.22500000E+01
 20
5.72639160E+01
 11
-4.22500000E+01
 21
5.65000153E+01
  0
LINE
  8
0
 62
4
 10
-6.82500000E+01
 20
9.12500000E+01
 11
-7.42500000E+01
 21
9.12500000E+01
  0
LINE
  8
0
 62
4
 10
-4.22500000E+01
 20
7.65000000E+01
 11
-6.59820557E+01
 21
7.65000000E+01
  0
LINE
  8
0
 62
4
 10
-6.82500000E+01
 20
5.28000031E+01
 11
-6.82500000E+01
 21
4.17500153E+01
  0
LINE
  8
0
 62
4
 10
-6.82500000E+01
 20
8.02000122E+01
 11
-6.82500000E+01
 21
9.12500000E+01
  0
LINE
  8
0
 62
4
 10
-6.62500000E+01
 20
5.28000031E+01
 11
-6.82500000E+01
 21
5.28000031E+01
  0
LINE
  8
0
 62
4
 10
-6.82500000E+01
 20
4.17500153E+01
 11
-7.42500000E+01
 21
4.17500153E+01
  0
LINE
  8
0
 62
4
 10
-6.62500000E+01
 20
8.92500000E+01
 11
-6.62500000E+01
 21
4.37500153E+01
  0
LINE
  8
0
  6
CENTER
 62
6
 10
-5.52500000E+01
 20
8.04653931E+01
 11
-5.52500000E+01
 21
5.38932648E+01
  0
LINE
  8
0
 62
4
 10
-7.42500000E+01
 20
4.17500153E+01
 11
-7.42500000E+01
 21
9.12500000E+01
  0
LINE
  8
0
  6
CENTER
 62
6
 10
-7.66967316E+01
 20
4.80000153E+01
 11
-6.37321777E+01
 21
4.80000153E+01
  0
LINE
  8
0
  6
CENTER
 62
6
 10
-7.77173157E+01
 20
8.50000305E+01
 11
-6.34489746E+01
 21
8.50000305E+01
  0
LINE
  8
0
  6
CENTER
 62
6
 10
-7.70369263E+01
 20
6.65000000E+01
 11
-3.71080322E+01
 21
6.65000000E+01
  0
LINE
  8
0
 62
4
 10
-4.12500000E+01
 20
7.35000000E+01
 11
-4.12500000E+01
 21
5.95000000E+01
  0
LINE
  8
0
 62
4
 10
-4.22500000E+01
 20
5.65000153E+01
 11
-6.59820557E+01
 21
5.65000153E+01
  0
LINE
  8
0
 62
4
 10
-4.22500000E+01
 20
7.57360840E+01
 11
-4.22500000E+01
 21
7.65000000E+01
  0
LINE
  8
0
 62
4
 10
-4.32500000E+01
 20
7.55000000E+01
 11
-6.42500000E+01
 21
7.55000000E+01
  0
LINE
  8
0
 62
4
 10
-6.62500000E+01
 20
8.02000122E+01
 11
-6.82500000E+01
 21
8.02000122E+01
  0
ARC
  8
0
 62
4
 10
-4.12500000E+01
 20
5.72639160E+01
 40
1.00000000E+00
 50
1.31810329E+02
 51
1.80000005E+02
  0
ARC
  8
0
 62
4
 10
-4.12500000E+01
 20
7.57360840E+01
 40
1.00000000E+00
 50
1.79999991E+02
 51
2.28189667E+02
  0
ARC
  8
0
 62
4
 10
-6.42500000E+01
 20
7.75000000E+01
 40
2.00000000E+00
 50
1.79999951E+02
 51
2.69999919E+02
  0
ARC
  8
0
 62
4
 10
-4.32500000E+01
 20
7.35000000E+01
 40
2.00000000E+00
 50
3.59999981E+02
 51
8.99999618E+01
  0
ARC
  8
0
 62
4
 10
-6.82500000E+01
 20
8.92500000E+01
 40
2.00000000E+00
 50
0.00000000E+00
 51
8.99999618E+01
  0
ARC
  8
0
 62
4
 10
-6.42500000E+01
 20
5.55000153E+01
 40
2.00000000E+00
 50
9.00000162E+01
 51
1.80000005E+02
  0
ARC
  8
0
 62
4
 10
-6.82500000E+01
 20
4.37500153E+01
 40
2.00000000E+00
 50
2.69999984E+02
 51
0.00000000E+00
  0
ARC
  8
0
 62
4
 10
-4.32500000E+01
 20
5.95000000E+01
 40
2.00000000E+00
 50
2.69999984E+02
 51
3.59999964E+02
  0
LINE
  8
0
 62
7
 10
1.09800003E+02
 20
-1.18500000E+02
 11
1.09800003E+02
 21
-1.33500000E+02
  0
LINE
  8
0
 62
7
 10
1.09800003E+02
 20
-1.18500000E+02
 11
1.94800003E+02
 21
-1.18500000E+02
  0
TEXT
  8
0
 62
7
 10
1.15249715E+02
 20
-1.29150000E+02
 40
6.30000019E+00
  1
KOGANEI CORP.
 41
1.04838725E+00
  7
MONOTXT
  0
TEXT
  8
0
 62
7
 10
1.34942863E+02
 20
1.22850006E+02
 40
4.50000000E+00
  1
Ver. 1.0
 41
1.08108085E+00
  7
MONOTXT
  0
LINE
  8
0
 62
7
 10
1.09800003E+02
 20
1.32600006E+02
 11
1.09800003E+02
 21
1.17600006E+02
  0
LINE
  8
0
 62
7
 10
1.09800003E+02
 20
1.17600006E+02
 11
1.94800003E+02
 21
1.17600006E+02
  0
TEXT
  8
0
 62
7
 10
-1.89357136E+02
 20
1.22850006E+02
 40
4.50000000E+00
  1
NEW DYNA CYLINDER
 41
1.07594914E+00
  7
MONOTXT
  0
LINE
  8
0
 62
7
 10
-1.94250000E+02
 20
1.17600006E+02
 11
-1.09250000E+02
 21
1.17600006E+02
  0
LINE
  8
0
 62
7
 10
-1.09250000E+02
 20
1.32600006E+02
 11
-1.09250000E+02
 21
1.17600006E+02
  0
TEXT
  8
0
 62
7
 10
-1.85214688E+02
 20
1.05350006E+02
 40
4.50000000E+00
  1
MODEL:DDA40-8
 41
1.00000000E+00
  7
MONOTXT
  0
LINE
  8
0
 62
7
 10
-1.94250000E+02
 20
1.32600006E+02
 11
1.94800003E+02
 21
1.32600006E+02
  0
LINE
  8
0
 62
7
 10
1.94800003E+02
 20
1.32600006E+02
 11
1.94800003E+02
 21
-1.33500000E+02
  0
LINE
  8
0
 62
7
 10
-1.94250000E+02
 20
1.32600006E+02
 11
-1.94250000E+02
 21
-1.33500000E+02
  0
LINE
  8
0
 62
7
 10
-1.94250000E+02
 20
-1.33500000E+02
 11
1.94800003E+02
 21
-1.33500000E+02
  0
ENDSEC
  0
EOF
