  0
SECTION
  2
HEADER
  9
$ACADVER
  1
AC1003
  9
$EXTMIN
 10
-1.38399994E+02
 20
-9.48000031E+01
  9
$EXTMAX
 10
1.38350006E+02
 20
9.45000000E+01
  9
$LIMMIN
 10
-1.38400994E+02
 20
-9.48010031E+01
  9
$LIMMAX
 10
1.38351006E+02
 20
9.45010000E+01
  9
$SNAPUNIT
 10
1
 20
1
  9
$SNAPBASE
 10
0
 20
0
  9
$GRIDMODE
 70
0
  9
$GRIDUNIT
 10
0
 20
0
  9
$LTSCALE
 40
4.61250000E+00
  9
$TEXTSIZE
 40
3.2
  9
$DIMTAD
 70
0
  9
$LUNITS
 70
2
  9
$LUPREC
 70
4
  9
$FILLETRAD
 40
0
  9
$AUNITS
 70
0
  9
$AUPREC
 70
0
  0
ENDSEC
  0
SECTION
  2
TABLES
  0
TABLE
  2
LTYPE
 70
2
  0
LTYPE
  2
CONTINUOUS
 70
64
  3
Solid-Line
 72
65
 73
0
 40
0
  0
LTYPE
  2
DASHED
 70
64
  3
DASHED
 72
65
 73
2
 40
.75
 49
.5
 49
-.25
  0
LTYPE
  2
HIDDEN
 70
64
  3
HIDDEN
 72
65
 73
2
 40
.375
 49
.25
 49
-.125
  0
LTYPE
  2
CENTER
 70
64
  3
CENTER
 72
65
 73
4
 40
2
 49
1.25
 49
-.25
 49
.25
 49
-.25
  0
LTYPE
  2
PHANTOM
 70
64
  3
PHANTOM
 72
65
 73
6
 40
2.5
 49
1.25
 49
-.25
 49
.25
 49
-.25
 49
.25
 49
-.25
  0
ENDTAB
  0
TABLE
  2
LAYER
 70
1
  0
LAYER
  2
1
 70
0
 62
7
  6
CONTINUOUS
 0
ENDTAB
  0
TABLE
  2
STYLE
 70
2
  0
STYLE
  2
MONOTXT
 70
0
 40
0
 41
1
 50
0
 71
0
 42
.2
  3
monotxt
  0
STYLE
  2
BIGFONT
 70
0
 40
0
 41
1
 50
0
 71
0
 42
.2
  3
txt
  4
bigfont
  0
ENDTAB
  0
ENDSEC
  0
SECTION
  2
ENTITIES
  0
LINE
  8
0
  6
CENTER
 62
6
 10
4.01125315E+01
 20
-6.88769579E+01
 11
2.29942816E+01
 21
-6.88769579E+01
  0
LINE
  8
0
 62
4
 10
2.51256865E+01
 20
-7.53769579E+01
 11
6.21256848E+01
 21
-7.53769579E+01
  0
LINE
  8
0
 62
4
 10
2.51256865E+01
 20
-6.23769579E+01
 11
2.51256865E+01
 21
-7.53769579E+01
  0
LINE
  8
0
  6
CENTER
 62
6
 10
4.81256846E+01
 20
-6.48780260E+01
 11
4.81256846E+01
 21
-7.77971697E+01
  0
LINE
  8
0
 62
4
 10
6.21256848E+01
 20
-6.82429857E+01
 11
6.21256848E+01
 21
-7.53769579E+01
  0
LINE
  8
0
 62
4
 10
3.46256846E+01
 20
-6.73769579E+01
 11
6.16256848E+01
 21
-6.73769579E+01
  0
LINE
  8
0
 62
4
 10
2.71256865E+01
 20
-6.83769579E+01
 11
3.89257029E+01
 21
-6.83769579E+01
  0
LINE
  8
0
 62
4
 10
2.81256865E+01
 20
-5.93769579E+01
 11
3.81256846E+01
 21
-5.93769579E+01
  0
LINE
  8
0
 62
4
 10
2.61256865E+01
 20
-6.93769579E+01
 11
2.61256865E+01
 21
-7.53769579E+01
  0
LINE
  8
0
 62
4
 10
3.57257299E+01
 20
-6.73769816E+01
 11
3.65382386E+01
 21
-6.23769398E+01
  0
LINE
  8
0
 62
4
 10
3.24257029E+01
 20
-6.93769579E+01
 11
3.24257029E+01
 21
-7.53769579E+01
  0
LINE
  8
0
 62
4
 10
3.81256846E+01
 20
-6.73769579E+01
 11
3.81256846E+01
 21
-5.93769579E+01
  0
ARC
  8
0
 62
4
 10
2.81256865E+01
 20
-6.23769579E+01
 40
3.00000024E+00
 50
8.99999818E+01
 51
1.79999964E+02
  0
ARC
  8
0
 62
4
 10
3.89257029E+01
 20
-6.73769579E+01
 40
1.00000000E+00
 50
2.70000018E+02
 51
0.00000000E+00
  0
ARC
  8
0
 62
4
 10
3.36256846E+01
 20
-6.73769579E+01
 40
1.00000000E+00
 50
2.70000018E+02
 51
0.00000000E+00
  0
ARC
  8
0
 62
4
 10
6.26256848E+01
 20
-6.73769579E+01
 40
1.00000000E+00
 50
1.79999977E+02
 51
2.40000062E+02
  0
ARC
  8
0
 62
4
 10
2.71256865E+01
 20
-6.93769579E+01
 40
1.00000000E+00
 50
8.99999818E+01
 51
1.79999964E+02
  0
POLYLINE
  8
0
 62
4
 66
1
  0
VERTEX
  8
0
 62
4
 10
3.81255179E+01
 20
-5.94840716E+01
  0
VERTEX
  8
0
 62
4
 10
3.79770556E+01
 20
-5.95704151E+01
  0
VERTEX
  8
0
 62
4
 10
3.78292926E+01
 20
-5.96810454E+01
  0
VERTEX
  8
0
 62
4
 10
3.76835077E+01
 20
-5.98150051E+01
  0
VERTEX
  8
0
 62
4
 10
3.75409624E+01
 20
-5.99711350E+01
  0
VERTEX
  8
0
 62
4
 10
3.74028903E+01
 20
-6.01480840E+01
  0
VERTEX
  8
0
 62
4
 10
3.72704861E+01
 20
-6.03443208E+01
  0
VERTEX
  8
0
 62
4
 10
3.71448957E+01
 20
-6.05581473E+01
  0
VERTEX
  8
0
 62
4
 10
3.70272060E+01
 20
-6.07877132E+01
  0
VERTEX
  8
0
 62
4
 10
3.69184352E+01
 20
-6.10310317E+01
  0
VERTEX
  8
0
 62
4
 10
3.68195247E+01
 20
-6.12859974E+01
  0
VERTEX
  8
0
 62
4
 10
3.67313304E+01
 20
-6.15504038E+01
  0
VERTEX
  8
0
 62
4
 10
3.66546155E+01
 20
-6.18219630E+01
  0
VERTEX
  8
0
 62
4
 10
3.65900440E+01
 20
-6.20983248E+01
  0
VERTEX
  8
0
 62
4
 10
3.65381744E+01
 20
-6.23770979E+01
  0
SEQEND
  8
0
  0
LINE
  8
0
  6
CENTER
 62
6
 10
-8.73744394E+01
 20
-7.67138376E+01
 11
-8.73744394E+01
 21
-6.21328936E+01
  0
LINE
  8
0
  6
CENTER
 62
6
 10
-9.38279459E+01
 20
-6.88769426E+01
 11
-8.10069467E+01
 21
-6.88769426E+01
  0
LINE
  8
0
 62
4
 10
-7.74625741E+01
 20
-7.48769426E+01
 11
-6.02862436E+01
 21
-7.48769426E+01
  0
LINE
  8
0
 62
4
 10
-3.99305307E+01
 20
-6.83769426E+01
 11
-2.59244272E+01
 21
-6.83769426E+01
  0
LINE
  8
0
 62
4
 10
-2.29244272E+01
 20
-6.73769426E+01
 11
-2.29244272E+01
 21
-7.53769426E+01
  0
LINE
  8
0
  6
CENTER
 62
6
 10
-6.88743783E+01
 20
-6.00539141E+01
 11
-6.88743783E+01
 21
-7.96782045E+01
  0
LINE
  8
0
  6
CENTER
 62
6
 10
-5.03744089E+01
 20
-7.54932184E+01
 11
-5.03744089E+01
 21
-6.24728594E+01
  0
LINE
  8
0
 62
4
 10
-8.68743783E+01
 20
-5.93769884E+01
 11
-8.68743783E+01
 21
-5.92875872E+01
  0
LINE
  8
0
  6
CENTER
 62
6
 10
-5.67557260E+01
 20
-6.88769426E+01
 11
-4.40528909E+01
 21
-6.88769426E+01
  0
LINE
  8
0
 62
4
 10
-5.01353952E+01
 20
-5.93769426E+01
 11
-4.57129404E+01
 21
-5.93769426E+01
  0
LINE
  8
0
 62
4
 10
-4.16625864E+01
 20
-6.73769426E+01
 11
-2.29244272E+01
 21
-6.73769426E+01
  0
LINE
  8
0
 62
4
 10
-1.14874439E+02
 20
-7.53769426E+01
 11
-2.29244272E+01
 21
-7.53769426E+01
  0
LINE
  8
0
 62
4
 10
-4.27585181E+01
 20
-6.18559852E+01
 11
-4.03744082E+01
 21
-7.53769403E+01
  0
LINE
  8
0
 62
4
 10
-6.03744337E+01
 20
-7.53769436E+01
 11
-5.91280696E+01
 21
-6.83084638E+01
  0
LINE
  8
0
 62
4
 10
-5.82950106E+01
 20
-6.67080806E+01
 11
-5.15496505E+01
 21
-5.99627210E+01
  0
LINE
  8
0
  6
CENTER
 62
6
 10
-3.38744394E+01
 20
-6.46817369E+01
 11
-3.38744394E+01
 21
-7.82183123E+01
  0
LINE
  8
0
 62
4
 10
-9.60862619E+01
 20
-6.73769426E+01
 11
-1.14874439E+02
 21
-6.73769426E+01
  0
LINE
  8
0
 62
4
 10
-8.76134531E+01
 20
-5.93769426E+01
 11
-9.20359079E+01
 21
-5.93769426E+01
  0
LINE
  8
0
 62
4
 10
-1.14874439E+02
 20
-6.73769426E+01
 11
-1.14874439E+02
 21
-7.53769426E+01
  0
LINE
  8
0
 62
4
 10
-9.78183176E+01
 20
-6.83769426E+01
 11
-1.11874409E+02
 21
-6.83769426E+01
  0
LINE
  8
0
 62
4
 10
-9.49903035E+01
 20
-6.18559935E+01
 11
-9.73744137E+01
 21
-7.53769505E+01
  0
LINE
  8
0
 62
4
 10
-7.73744223E+01
 20
-7.53769161E+01
 11
-7.86207860E+01
 21
-6.83084382E+01
  0
LINE
  8
0
 62
4
 10
-7.94538512E+01
 20
-6.67081059E+01
 11
-8.61992032E+01
 21
-5.99627545E+01
  0
LINE
  8
0
  6
CENTER
 62
6
 10
-1.03874439E+02
 20
-6.46817369E+01
 11
-1.03874439E+02
 21
-7.82183123E+01
  0
LINE
  8
0
 62
4
 10
-7.83743527E+01
 20
-6.97060348E+01
 11
-5.93743832E+01
 21
-6.97053755E+01
  0
ARC
  8
0
 62
4
 10
-2.59244272E+01
 20
-7.13769426E+01
 40
3.00000024E+00
 50
0.00000000E+00
 51
8.99999818E+01
  0
ARC
  8
0
 62
4
 10
-4.57129404E+01
 20
-6.23769426E+01
 40
3.00000024E+00
 50
9.99996985E+00
 51
8.99999818E+01
  0
ARC
  8
0
 62
4
 10
-5.01353952E+01
 20
-6.13769426E+01
 40
2.00000000E+00
 50
8.99999818E+01
 51
1.35000178E+02
  0
ARC
  8
0
 62
4
 10
-5.61736337E+01
 20
-6.88293962E+01
 40
3.00000024E+00
 50
1.35000014E+02
 51
1.70000048E+02
  0
ARC
  8
0
 62
4
 10
-3.99305307E+01
 20
-6.63769426E+01
 40
2.00000000E+00
 50
1.89999993E+02
 51
2.70000018E+02
  0
CIRCLE
  8
0
 62
4
 10
-5.03744394E+01
 20
-6.88769426E+01
 40
5.50000000E+00
  0
CIRCLE
  8
0
 62
4
 10
-8.73744089E+01
 20
-6.88769426E+01
 40
5.50000000E+00
  0
ARC
  8
0
 62
4
 10
-1.11874409E+02
 20
-7.13769426E+01
 40
3.00000024E+00
 50
8.99999818E+01
 51
1.79999964E+02
  0
ARC
  8
0
 62
4
 10
-9.20359079E+01
 20
-6.23769426E+01
 40
3.00000024E+00
 50
8.99999818E+01
 51
1.69999993E+02
  0
ARC
  8
0
 62
4
 10
-8.76134531E+01
 20
-6.13769426E+01
 40
2.00000000E+00
 50
4.49997861E+01
 51
8.99999818E+01
  0
ARC
  8
0
 62
4
 10
-8.15752145E+01
 20
-6.88293962E+01
 40
3.00000024E+00
 50
9.99991605E+00
 51
4.49999500E+01
  0
ARC
  8
0
 62
4
 10
-9.78183176E+01
 20
-6.63769426E+01
 40
2.00000000E+00
 50
2.69999963E+02
 51
3.49999988E+02
  0
CIRCLE
  8
0
 62
4
 10
-8.73744394E+01
 20
-6.88769426E+01
 40
2.75000000E+00
  0
CIRCLE
  8
0
 62
4
 10
-5.03744089E+01
 20
-6.88769426E+01
 40
2.75000000E+00
  0
LINE
  8
0
 62
4
 10
3.26256846E+01
 20
3.30328245E+01
 11
3.26256846E+01
 21
5.02055845E+01
  0
LINE
  8
0
  6
CENTER
 62
6
 10
5.84401377E+01
 20
7.66230345E+01
 11
3.85017832E+01
 21
7.66230345E+01
  0
LINE
  8
0
 62
4
 10
3.81256846E+01
 20
5.11230345E+01
 11
3.26256236E+01
 21
5.11230345E+01
  0
LINE
  8
0
 62
4
 10
6.20648669E+01
 20
1.19284886E+01
 11
6.01081135E+01
 21
8.31188967E-01
  0
LINE
  8
0
 62
4
 10
3.81256846E+01
 20
1.66230650E+01
 11
3.81256846E+01
 21
6.66230345E+01
  0
LINE
  8
0
  6
CENTER
 62
6
 10
4.54239844E+01
 20
2.31230650E+01
 11
2.26849516E+01
 21
2.31230650E+01
  0
LINE
  8
0
  6
CENTER
 62
6
 10
4.28373030E+01
 20
6.01230955E+01
 11
2.30119895E+01
 21
6.01230955E+01
  0
LINE
  8
0
  6
CENTER
 62
6
 10
4.71484374E+01
 20
4.16230650E+01
 11
2.30119895E+01
 21
4.16230650E+01
  0
LINE
  8
0
 62
4
 10
3.69007090E+01
 20
6.91230345E+01
 11
2.51256827E+01
 21
6.91230345E+01
  0
LINE
  8
0
  6
CENTER
 62
6
 10
5.84401377E+01
 20
6.62306501E+00
 11
3.85017832E+01
 21
6.62306501E+00
  0
LINE
  8
0
 62
4
 10
3.69007090E+01
 20
1.41230650E+01
 11
2.51256827E+01
 21
1.41230650E+01
  0
LINE
  8
0
 62
4
 10
3.81256846E+01
 20
3.21230650E+01
 11
3.26256236E+01
 21
3.21230650E+01
  0
LINE
  8
0
 62
4
 10
2.51256344E+01
 20
3.24230633E+01
 11
3.26256792E+01
 21
3.21230585E+01
  0
LINE
  8
0
 62
4
 10
2.61749971E+01
 20
1.29874328E+01
 11
3.09672242E+01
 21
-1.79103764E-01
  0
LINE
  8
0
  6
CENTER
 62
6
 10
4.81256846E+01
 20
1.75963926E+01
 11
4.81256846E+01
 21
-6.25141619E+00
  0
LINE
  8
0
 62
4
 10
2.51256827E+01
 20
3.31230650E+01
 11
2.51256827E+01
 21
1.31230650E+01
  0
LINE
  8
0
 62
4
 10
2.51256192E+01
 20
5.08230736E+01
 11
3.26256029E+01
 21
5.11230761E+01
  0
LINE
  8
0
 62
4
 10
5.41992930E+01
 20
-4.12693499E+00
 11
3.66054209E+01
 21
-4.12693499E+00
  0
LINE
  8
0
 62
4
 10
6.00621470E+01
 20
6.71230345E+01
 11
3.86256846E+01
 21
6.71230345E+01
  0
LINE
  8
0
 62
4
 10
6.00621470E+01
 20
1.61230650E+01
 11
3.86256846E+01
 21
1.61230650E+01
  0
LINE
  8
0
 62
4
 10
2.51256827E+01
 20
5.01230650E+01
 11
2.51256827E+01
 21
7.01230345E+01
  0
LINE
  8
0
 62
4
 10
2.66256217E+01
 20
3.43595457E+01
 11
2.66256217E+01
 21
4.88865538E+01
  0
LINE
  8
0
 62
4
 10
5.41992930E+01
 20
8.73730650E+01
 11
3.66054209E+01
 21
8.73730650E+01
  0
LINE
  8
0
 62
4
 10
6.20648790E+01
 20
7.13176585E+01
 11
6.01081256E+01
 21
8.24149582E+01
  0
LINE
  8
0
 62
4
 10
2.61749941E+01
 20
7.02586259E+01
 11
3.09672213E+01
 21
8.34251624E+01
  0
LINE
  8
0
  6
CENTER
 62
6
 10
4.81256846E+01
 20
6.67273131E+01
 11
4.81256846E+01
 21
8.94975462E+01
  0
ARC
  8
0
 62
4
 10
3.86256846E+01
 20
6.66230345E+01
 40
5.00000000E-01
 50
8.99999956E+01
 51
1.79999977E+02
  0
ARC
  8
0
 62
4
 10
3.86256846E+01
 20
1.66230650E+01
 40
5.00000000E-01
 50
1.79999977E+02
 51
2.70000028E+02
  0
ARC
  8
0
 62
4
 10
4.81256846E+01
 20
7.66230345E+01
 40
1.45000010E+01
 50
2.11147393E+02
 51
2.26397197E+02
  0
ARC
  8
0
 62
4
 10
2.39354361E+01
 20
1.03692808E+01
 40
3.00000024E+00
 50
2.00000865E+01
 51
6.66252444E+01
  0
ARC
  8
0
 62
4
 10
2.42956046E+01
 20
1.23034239E+01
 40
2.00000000E+00
 50
1.99999363E+01
 51
6.54796846E+01
  0
ARC
  8
0
 62
4
 10
2.46256217E+01
 20
3.43595457E+01
 40
2.00000000E+00
 50
2.84477540E+02
 51
2.23117997E-05
  0
ARC
  8
0
 62
4
 10
2.46256217E+01
 20
3.50595579E+01
 40
2.00000000E+00
 50
2.84477540E+02
 51
2.23117997E-05
  0
ARC
  8
0
 62
4
 10
2.46256217E+01
 20
4.81865721E+01
 40
2.00000000E+00
 50
2.23117997E-05
 51
7.55224946E+01
  0
ARC
  8
0
 62
4
 10
2.46256217E+01
 20
4.88865538E+01
 40
2.00000000E+00
 50
2.23117997E-05
 51
7.55224946E+01
  0
ARC
  8
0
 62
4
 10
2.42956046E+01
 20
7.09427061E+01
 40
2.00000000E+00
 50
2.94520349E+02
 51
3.40000104E+02
  0
CIRCLE
  8
0
 62
4
 10
4.81256846E+01
 20
6.62306501E+00
 40
6.00000048E+00
  0
ARC
  8
0
 62
4
 10
4.81256846E+01
 20
6.62306501E+00
 40
1.45000010E+01
 50
1.33602830E+02
 51
1.48852607E+02
  0
ARC
  8
0
 62
4
 10
4.81256846E+01
 20
6.62306501E+00
 40
1.35000000E+01
 50
1.46251016E+02
 51
2.32777874E+02
  0
ARC
  8
0
 62
4
 10
4.81256846E+01
 20
6.62306501E+00
 40
1.35000000E+01
 50
8.44889793E+00
 51
4.47249222E+01
  0
ARC
  8
0
 62
4
 10
3.66054209E+01
 20
1.87306501E+00
 40
6.00000048E+00
 50
2.00000046E+02
 51
2.70000038E+02
  0
ARC
  8
0
 62
4
 10
5.41992930E+01
 20
1.87306501E+00
 40
6.00000048E+00
 50
2.70000038E+02
 51
3.50000076E+02
  0
ARC
  8
0
 62
4
 10
5.81256846E+01
 20
1.26230650E+01
 40
4.00000000E+00
 50
3.49999983E+02
 51
6.10449592E+01
  0
ARC
  8
0
 62
4
 10
2.39354361E+01
 20
7.28768187E+01
 40
3.00000024E+00
 50
2.93374790E+02
 51
3.39999941E+02
  0
CIRCLE
  8
0
 62
4
 10
4.81256846E+01
 20
7.66230345E+01
 40
6.00000048E+00
  0
ARC
  8
0
 62
4
 10
4.81256846E+01
 20
7.66230345E+01
 40
1.35000000E+01
 50
1.27222149E+02
 51
2.13748994E+02
  0
ARC
  8
0
 62
4
 10
4.81256846E+01
 20
7.66230345E+01
 40
1.35000000E+01
 50
3.15275050E+02
 51
3.51551130E+02
  0
ARC
  8
0
 62
4
 10
3.66054209E+01
 20
8.13730345E+01
 40
6.00000048E+00
 50
8.99999956E+01
 51
1.59999981E+02
  0
ARC
  8
0
 62
4
 10
5.41992930E+01
 20
8.13730345E+01
 40
6.00000048E+00
 50
9.99995192E+00
 51
8.99999956E+01
  0
ARC
  8
0
 62
4
 10
5.81256846E+01
 20
7.06230345E+01
 40
4.00000000E+00
 50
2.98955027E+02
 51
1.00000612E+01
  0
LINE
  8
0
 62
7
 10
-7.33999939E+01
 20
9.45000000E+01
 11
-7.33999939E+01
 21
8.45000000E+01
  0
TEXT
  8
0
 62
7
 10
-1.32642850E+02
 20
8.79000001E+01
 40
3.19999981E+00
  1
NEW DYNA CYLINDER
 41
1.07594937E+00
  7
MONOTXT
  0
LINE
  8
0
 62
7
 10
-1.38399994E+02
 20
8.45000000E+01
 11
-7.33999939E+01
 21
8.45000000E+01
  0
LINE
  8
0
 62
7
 10
7.33500061E+01
 20
-8.48000031E+01
 11
1.38350006E+02
 21
-8.48000031E+01
  0
LINE
  8
0
 62
7
 10
7.33500061E+01
 20
-8.48000031E+01
 11
7.33500061E+01
 21
-9.48000031E+01
  0
TEXT
  8
0
 62
7
 10
7.72426624E+01
 20
-9.20500031E+01
 40
4.50000000E+00
  1
KOGANEI CORP.
 41
1.04838710E+00
  7
MONOTXT
  0
LINE
  8
0
 62
7
 10
7.33500061E+01
 20
8.45000000E+01
 11
1.38350006E+02
 21
8.45000000E+01
  0
LINE
  8
0
 62
7
 10
7.33500061E+01
 20
9.45000000E+01
 11
7.33500061E+01
 21
8.45000000E+01
  0
TEXT
  8
0
 62
7
 10
9.35071493E+01
 20
8.79000001E+01
 40
3.19999981E+00
  1
Ver. 1.0
 41
1.08108108E+00
  7
MONOTXT
  0
LINE
  8
0
 62
7
 10
-1.38399994E+02
 20
9.45000000E+01
 11
1.38350006E+02
 21
9.45000000E+01
  0
LINE
  8
0
 62
7
 10
1.38350006E+02
 20
9.45000000E+01
 11
1.38350006E+02
 21
-9.48000031E+01
  0
LINE
  8
0
 62
7
 10
-1.38399994E+02
 20
-9.48000031E+01
 11
1.38350006E+02
 21
-9.48000031E+01
  0
LINE
  8
0
 62
7
 10
-1.38399994E+02
 20
9.45000000E+01
 11
-1.38399994E+02
 21
-9.48000031E+01
  0
TEXT
  8
0
 62
7
 10
-1.29085994E+02
 20
7.29000001E+01
 40
3.19999981E+00
  1
MODEL:DDA40-2
 41
1.00000000E+00
  7
MONOTXT
  0
ENDSEC
  0
EOF
