  0
SECTION
  2
HEADER
  9
$ACADVER
  1
AC1003
  9
$EXTMIN
 10
-2.81250000E+02
 20
-1.95000000E+02
  9
$EXTMAX
 10
2.82099854E+02
 20
1.95500000E+02
  9
$LIMMIN
 10
-2.81251000E+02
 20
-1.95001000E+02
  9
$LIMMAX
 10
2.82100854E+02
 20
1.95501000E+02
  9
$SNAPUNIT
 10
1
 20
1
  9
$SNAPBASE
 10
0
 20
0
  9
$GRIDMODE
 70
0
  9
$GRIDUNIT
 10
0
 20
0
  9
$LTSCALE
 40
9.38916423E+00
  9
$TEXTSIZE
 40
3.2
  9
$DIMTAD
 70
0
  9
$LUNITS
 70
2
  9
$LUPREC
 70
4
  9
$FILLETRAD
 40
0
  9
$AUNITS
 70
0
  9
$AUPREC
 70
0
  0
ENDSEC
  0
SECTION
  2
TABLES
  0
TABLE
  2
LTYPE
 70
2
  0
LTYPE
  2
CONTINUOUS
 70
64
  3
Solid-Line
 72
65
 73
0
 40
0
  0
LTYPE
  2
DASHED
 70
64
  3
DASHED
 72
65
 73
2
 40
.75
 49
.5
 49
-.25
  0
LTYPE
  2
HIDDEN
 70
64
  3
HIDDEN
 72
65
 73
2
 40
.375
 49
.25
 49
-.125
  0
LTYPE
  2
CENTER
 70
64
  3
CENTER
 72
65
 73
4
 40
2
 49
1.25
 49
-.25
 49
.25
 49
-.25
  0
LTYPE
  2
PHANTOM
 70
64
  3
PHANTOM
 72
65
 73
6
 40
2.5
 49
1.25
 49
-.25
 49
.25
 49
-.25
 49
.25
 49
-.25
  0
ENDTAB
  0
TABLE
  2
LAYER
 70
1
  0
LAYER
  2
1
 70
0
 62
7
  6
CONTINUOUS
 0
ENDTAB
  0
TABLE
  2
STYLE
 70
2
  0
STYLE
  2
MONOTXT
 70
0
 40
0
 41
1
 50
0
 71
0
 42
.2
  3
monotxt
  0
STYLE
  2
BIGFONT
 70
0
 40
0
 41
1
 50
0
 71
0
 42
.2
  3
txt
  4
bigfont
  0
ENDTAB
  0
ENDSEC
  0
SECTION
  2
ENTITIES
  0
CIRCLE
  8
0
 62
4
 10
7.10432633E+01
 20
-9.36043612E+01
 40
1.25000000E+01
  0
LINE
  8
0
  6
CENTER
 62
6
 10
7.10433011E+01
 20
-5.75381839E+01
 11
7.10432086E+01
 21
-1.45776557E+02
  0
ARC
  8
0
 62
4
 10
5.70432745E+01
 20
-6.82933970E+01
 40
1.00000000E+00
 50
8.99998352E+01
 51
1.79999871E+02
  0
ARC
  8
0
 62
4
 10
8.50432735E+01
 20
-6.82934688E+01
 40
1.00000000E+00
 50
3.59999853E+02
 51
8.99998352E+01
  0
LINE
  8
0
 62
4
 10
5.88319494E+01
 20
-7.24219105E+01
 11
5.87044685E+01
 21
-7.33902049E+01
  0
LINE
  8
0
 62
4
 10
5.60432745E+01
 20
-6.82933944E+01
 11
5.60432560E+01
 21
-7.55108401E+01
  0
LINE
  8
0
 62
4
 10
8.60432735E+01
 20
-6.82934714E+01
 11
8.60432550E+01
 21
-7.55109276E+01
  0
LINE
  8
0
 62
4
 10
8.25793588E+01
 20
-6.72934692E+01
 11
8.24333921E+01
 21
-6.61847195E+01
  0
LINE
  8
0
 62
4
 10
5.88319602E+01
 20
-7.24219111E+01
 11
5.60432639E+01
 21
-7.24219039E+01
  0
LINE
  8
0
 62
4
 10
5.95071442E+01
 20
-6.72934033E+01
 11
5.70432771E+01
 21
-6.72933970E+01
  0
LINE
  8
0
 62
4
 10
8.24333074E+01
 20
-6.61847339E+01
 11
7.10432044E+01
 21
-6.41044154E+01
  0
LINE
  8
0
 62
4
 10
7.10432736E+01
 20
-6.41043874E+01
 11
5.96531295E+01
 21
-6.61846530E+01
  0
LINE
  8
0
 62
4
 10
8.50432761E+01
 20
-6.72934688E+01
 11
8.25793480E+01
 21
-6.72934625E+01
  0
LINE
  8
0
 62
4
 10
5.96531116E+01
 20
-6.61846870E+01
 11
5.95071392E+01
 21
-6.72934360E+01
  0
LINE
  8
0
 62
4
 10
8.60432629E+01
 20
-7.24219809E+01
 11
8.32545059E+01
 21
-7.24219738E+01
  0
LINE
  8
0
 62
4
 10
8.33819977E+01
 20
-7.33902381E+01
 11
8.32545253E+01
 21
-7.24219698E+01
  0
LINE
  8
0
  6
CENTER
 62
6
 10
8.79451225E+01
 20
-7.51044046E+01
 11
5.27074950E+01
 21
-7.51043142E+01
  0
ARC
  8
0
 62
4
 10
1.00671932E+02
 20
-1.24604361E+02
 40
5.00000000E+00
 50
1.84415835E+02
 51
2.69999854E+02
  0
ARC
  8
0
 62
4
 10
1.24543207E+02
 20
-1.31604361E+02
 40
2.00000000E+00
 50
3.59721781E-05
 51
8.99999818E+01
  0
ARC
  8
0
 62
4
 10
4.14144230E+01
 20
-1.24604361E+02
 40
5.00000000E+00
 50
2.70000182E+02
 51
3.55584190E+02
  0
ARC
  8
0
 62
4
 10
7.10432086E+01
 20
-9.16043612E+01
 40
2.20000000E+01
 50
4.41582316E+00
 51
1.75584165E+02
  0
ARC
  8
0
 62
4
 10
1.75432072E+01
 20
-1.31604361E+02
 40
2.00000000E+00
 50
8.99999818E+01
 51
1.79999964E+02
  0
LINE
  8
0
 62
4
 10
1.55432072E+01
 20
-1.43604361E+02
 11
1.26543207E+02
 21
-1.43604361E+02
  0
LINE
  8
0
 62
4
 10
1.75432072E+01
 20
-1.29604361E+02
 11
4.14144230E+01
 21
-1.29604361E+02
  0
LINE
  8
0
 62
4
 10
4.91084868E+01
 20
-8.99104811E+01
 11
4.63995849E+01
 21
-1.24989323E+02
  0
LINE
  8
0
 62
4
 10
1.55432072E+01
 20
-1.43604361E+02
 11
1.55432072E+01
 21
-1.31604361E+02
  0
LINE
  8
0
 62
4
 10
9.56867729E+01
 20
-1.24989337E+02
 11
9.29778710E+01
 21
-8.99104954E+01
  0
LINE
  8
0
 62
4
 10
1.00671932E+02
 20
-1.29604361E+02
 11
1.24543207E+02
 21
-1.29604361E+02
  0
LINE
  8
0
 62
4
 10
1.26543207E+02
 20
-1.31604361E+02
 11
1.26543207E+02
 21
-1.43604361E+02
  0
LINE
  8
0
  6
CENTER
 62
6
 10
1.11043207E+02
 20
-1.47107154E+02
 11
1.11043207E+02
 21
-1.25428748E+02
  0
LINE
  8
0
  6
CENTER
 62
6
 10
4.60432091E+01
 20
-9.36043612E+01
 11
9.60432091E+01
 21
-9.36043612E+01
  0
LINE
  8
0
  6
CENTER
 62
6
 10
3.10432072E+01
 20
-1.25428748E+02
 11
3.10432072E+01
 21
-1.47107154E+02
  0
LINE
  8
0
 62
4
 10
-7.02860419E+01
 20
-1.06104361E+02
 11
-6.92860571E+01
 21
-1.06104361E+02
  0
LINE
  8
0
 62
4
 10
-7.02860419E+01
 20
-8.11043612E+01
 11
-6.92860571E+01
 21
-8.11043612E+01
  0
LINE
  8
0
  6
CENTER
 62
6
 10
-1.24786042E+02
 20
-5.46694552E+01
 11
-1.24786042E+02
 21
-1.46496360E+02
  0
CIRCLE
  8
0
 62
4
 10
-1.06286088E+02
 20
-1.12104346E+02
 40
2.75000000E+00
  0
CIRCLE
  8
0
 62
4
 10
-1.43286118E+02
 20
-1.12104346E+02
 40
2.75000000E+00
  0
CIRCLE
  8
0
 62
4
 10
-1.43286027E+02
 20
-7.51042850E+01
 40
2.75000000E+00
  0
CIRCLE
  8
0
 62
4
 10
-1.06285981E+02
 20
-7.51042850E+01
 40
2.75000000E+00
  0
ARC
  8
0
 62
4
 10
-1.06286088E+02
 20
-7.51043765E+01
 40
6.99998474E+00
 50
7.49183095E+01
 51
1.77934897E+02
  0
ARC
  8
0
 62
4
 10
-1.43286118E+02
 20
-7.51043765E+01
 40
6.99998474E+00
 50
1.47689017E+02
 51
2.67935781E+02
  0
ARC
  8
0
 62
4
 10
-1.06286088E+02
 20
-1.12104346E+02
 40
6.99998474E+00
 50
1.82065102E+02
 51
2.85081690E+02
  0
ARC
  8
0
 62
4
 10
-1.43286118E+02
 20
-1.12104346E+02
 40
6.99998474E+00
 50
9.20642222E+01
 51
2.12310980E+02
  0
ARC
  8
0
 62
4
 10
-1.43286118E+02
 20
-7.51043765E+01
 40
6.99998474E+00
 50
2.06450408E+00
 51
1.05079912E+02
  0
ARC
  8
0
 62
4
 10
-1.06286088E+02
 20
-7.51043765E+01
 40
6.99998474E+00
 50
2.72065201E+02
 51
3.23130752E+01
  0
ARC
  8
0
 62
4
 10
-1.43286118E+02
 20
-1.12104346E+02
 40
6.99998474E+00
 50
2.54920087E+02
 51
3.57935496E+02
  0
ARC
  8
0
 62
4
 10
-1.06286088E+02
 20
-1.12104346E+02
 40
6.99998474E+00
 50
3.27686925E+02
 51
8.79347990E+01
  0
CIRCLE
  8
0
 62
4
 10
-1.24786042E+02
 20
-9.36043612E+01
 40
2.20000000E+01
  0
ARC
  8
0
 62
4
 10
-1.22286042E+02
 20
-1.03604361E+02
 40
4.20000000E+01
 50
1.18705601E+02
 51
1.44049400E+02
  0
ARC
  8
0
 62
4
 10
-1.27286042E+02
 20
-8.36043612E+01
 40
4.20000000E+01
 50
2.98705609E+02
 51
3.24049433E+02
  0
ARC
  8
0
 62
4
 10
-1.22286042E+02
 20
-8.36043612E+01
 40
4.20000000E+01
 50
2.15950600E+02
 51
2.41294400E+02
  0
ARC
  8
0
 62
4
 10
-1.27286042E+02
 20
-1.03604361E+02
 40
4.20000000E+01
 50
3.59505675E+01
 51
6.12943907E+01
  0
ARC
  8
0
 62
4
 10
-1.24786042E+02
 20
-1.14576697E+02
 40
5.09723320E+01
 50
6.97133637E+01
 51
1.10286641E+02
  0
ARC
  8
0
 62
4
 10
-1.24786042E+02
 20
-7.26320254E+01
 40
5.09723320E+01
 50
2.49713359E+02
 51
2.90286636E+02
  0
LINE
  8
0
 62
4
 10
-1.02786042E+02
 20
-9.36043612E+01
 11
-9.32860419E+01
 21
-9.36043612E+01
  0
LINE
  8
0
 62
4
 10
-1.56286042E+02
 20
-9.36043612E+01
 11
-1.46786042E+02
 21
-9.36043612E+01
  0
LINE
  8
0
 62
4
 10
-1.24786039E+02
 20
-1.21023997E+02
 11
-1.06178708E+02
 21
-1.19915248E+02
  0
LINE
  8
0
 62
4
 10
-1.24786042E+02
 20
-1.21023995E+02
 11
-1.43393374E+02
 21
-1.19915245E+02
  0
LINE
  8
0
 62
4
 10
-1.24786043E+02
 20
-6.61847195E+01
 11
-1.43393374E+02
 21
-6.72934689E+01
  0
LINE
  8
0
 62
4
 10
-1.24786039E+02
 20
-6.61847210E+01
 11
-1.06178708E+02
 21
-6.72934704E+01
  0
LINE
  8
0
  6
CENTER
 62
6
 10
-1.06285981E+02
 20
-6.65977084E+01
 11
-1.06285981E+02
 21
-8.37650439E+01
  0
LINE
  8
0
  6
CENTER
 62
6
 10
-1.43286027E+02
 20
-6.67016971E+01
 11
-1.43286027E+02
 21
-8.29886996E+01
  0
LINE
  8
0
  6
CENTER
 62
6
 10
-1.51875916E+02
 20
-7.51042850E+01
 11
-1.34644181E+02
 21
-7.51042850E+01
  0
LINE
  8
0
  6
CENTER
 62
6
 10
-1.43286118E+02
 20
-1.20727336E+02
 11
-1.43286118E+02
 21
-1.04084861E+02
  0
LINE
  8
0
  6
CENTER
 62
6
 10
-1.51730713E+02
 20
-1.12104346E+02
 11
-1.34265229E+02
 21
-1.12104346E+02
  0
LINE
  8
0
  6
CENTER
 62
6
 10
-1.06286088E+02
 20
-1.20492404E+02
 11
-1.06286088E+02
 21
-1.04528006E+02
  0
LINE
  8
0
  6
CENTER
 62
6
 10
-1.14985535E+02
 20
-1.12104346E+02
 11
-9.81457526E+01
 21
-1.12104346E+02
  0
LINE
  8
0
  6
CENTER
 62
6
 10
-1.15122422E+02
 20
-7.51042850E+01
 11
-9.81457526E+01
 21
-7.51042850E+01
  0
LINE
  8
0
  6
CENTER
 62
6
 10
-6.16014334E+01
 20
-9.36043612E+01
 11
-1.87457245E+02
 21
-9.36043612E+01
  0
LINE
  8
0
 62
4
 10
-1.79286042E+02
 20
-1.06104361E+02
 11
-1.80286027E+02
 21
-1.06104361E+02
  0
LINE
  8
0
 62
4
 10
-1.81286042E+02
 20
-8.21043765E+01
 11
-1.81286042E+02
 21
-1.05104361E+02
  0
LINE
  8
0
 62
4
 10
-1.79286042E+02
 20
-8.11043612E+01
 11
-1.80286027E+02
 21
-8.11043612E+01
  0
LINE
  8
0
 62
4
 10
-6.92860408E+01
 20
-1.06104365E+02
 11
-6.82860457E+01
 21
-1.05104358E+02
  0
LINE
  8
0
 62
4
 10
-6.82860415E+01
 20
-8.21043658E+01
 11
-6.92860592E+01
 21
-8.11043599E+01
  0
LINE
  8
0
 62
4
 10
-1.80286014E+02
 20
-8.11043550E+01
 11
-1.81286009E+02
 21
-8.21043620E+01
  0
LINE
  8
0
 62
4
 10
-1.81286013E+02
 20
-1.05104354E+02
 11
-1.80285995E+02
 21
-1.06104360E+02
  0
LINE
  8
0
 62
4
 10
-1.80286042E+02
 20
-8.11043612E+01
 11
-1.80286042E+02
 21
-1.06104361E+02
  0
LINE
  8
0
 62
4
 10
-6.92860342E+01
 20
-8.11043612E+01
 11
-6.92860342E+01
 21
-1.06104361E+02
  0
LINE
  8
0
 62
4
 10
-6.82860342E+01
 20
-8.21043612E+01
 11
-6.82860342E+01
 21
-1.05104346E+02
  0
LINE
  8
0
 62
4
 10
-1.79286042E+02
 20
-6.96043765E+01
 11
-1.79286042E+02
 21
-1.43604361E+02
  0
LINE
  8
0
 62
4
 10
-1.56286042E+02
 20
-6.96043612E+01
 11
-1.56286042E+02
 21
-1.43604361E+02
  0
LINE
  8
0
  6
CENTER
 62
6
 10
-1.67786042E+02
 20
-6.38967502E+01
 11
-1.67786042E+02
 21
-1.46793997E+02
  0
LINE
  8
0
 62
4
 10
-1.79286042E+02
 20
-1.29604323E+02
 11
-1.56286042E+02
 21
-1.29604323E+02
  0
LINE
  8
0
 62
4
 10
-1.79286042E+02
 20
-1.43604361E+02
 11
-1.56286042E+02
 21
-1.43604361E+02
  0
LINE
  8
0
 62
4
 10
-7.02860419E+01
 20
-6.96043612E+01
 11
-9.32860419E+01
 21
-6.96043612E+01
  0
LINE
  8
0
 62
4
 10
-7.02860419E+01
 20
-1.29604323E+02
 11
-9.32860419E+01
 21
-1.29604323E+02
  0
LINE
  8
0
 62
4
 10
-9.32860419E+01
 20
-6.96043612E+01
 11
-9.32860419E+01
 21
-1.43604361E+02
  0
LINE
  8
0
 62
4
 10
-7.02860419E+01
 20
-6.96043765E+01
 11
-7.02860419E+01
 21
-1.43604361E+02
  0
LINE
  8
0
 62
4
 10
-7.02860419E+01
 20
-1.43604361E+02
 11
-9.32860419E+01
 21
-1.43604361E+02
  0
LINE
  8
0
  6
CENTER
 62
6
 10
-8.17860419E+01
 20
-6.38967502E+01
 11
-8.17860419E+01
 21
-1.46793997E+02
  0
LINE
  8
0
 62
4
 10
-1.79286042E+02
 20
-6.96043612E+01
 11
-1.56286042E+02
 21
-6.96043612E+01
  0
LINE
  8
0
  6
CENTER
 62
6
 10
7.10432633E+01
 20
1.88044827E+01
 11
7.10432633E+01
 21
1.42054803E+02
  0
ARC
  8
0
 62
4
 10
5.75389918E+01
 20
9.87144406E+01
 40
1.00000000E+00
 50
3.55368339E+00
 51
8.99995447E+01
  0
ARC
  8
0
 62
4
 10
5.60598048E+01
 20
7.21203092E+01
 40
1.29999924E+00
 50
2.70000018E+02
 51
6.83245232E-07
  0
ARC
  8
0
 62
4
 10
8.60267228E+01
 20
7.21203092E+01
 40
1.29999924E+00
 50
1.79999964E+02
 51
2.69999946E+02
  0
ARC
  8
0
 62
4
 10
8.60267838E+01
 20
8.94892819E+01
 40
1.29999924E+00
 50
8.99999818E+01
 51
1.79999964E+02
  0
ARC
  8
0
 62
4
 10
5.75389918E+01
 20
6.28951810E+01
 40
1.00000000E+00
 50
2.70000510E+02
 51
3.56446353E+02
  0
ARC
  8
0
 62
4
 10
8.45475360E+01
 20
6.28951505E+01
 40
1.00000000E+00
 50
1.83553647E+02
 51
2.70000838E+02
  0
ARC
  8
0
 62
4
 10
8.45475360E+01
 20
9.87144101E+01
 40
1.00000000E+00
 50
8.99992170E+01
 51
1.76446298E+02
  0
ARC
  8
0
 62
4
 10
5.60598658E+01
 20
8.94892819E+01
 40
1.29999924E+00
 50
1.79860890E-05
 51
8.99999818E+01
  0
LINE
  8
0
 62
4
 10
5.95432643E+01
 20
2.43048184E+01
 11
8.25432634E+01
 21
2.43048184E+01
  0
LINE
  8
0
 62
4
 10
5.85432643E+01
 20
2.53048184E+01
 11
8.35432635E+01
 21
2.53048184E+01
  0
LINE
  8
0
 62
4
 10
5.95432643E+01
 20
1.37304803E+02
 11
8.25432634E+01
 21
1.37304803E+02
  0
LINE
  8
0
 62
4
 10
5.85432643E+01
 20
1.36304803E+02
 11
8.35432635E+01
 21
1.36304803E+02
  0
LINE
  8
0
 62
4
 10
5.85432643E+01
 20
2.53048184E+01
 11
5.85432643E+01
 21
2.63048032E+01
  0
LINE
  8
0
 62
4
 10
8.35432635E+01
 20
2.53048184E+01
 11
8.35432635E+01
 21
2.63048032E+01
  0
LINE
  8
0
 62
4
 10
8.35432573E+01
 20
2.53047935E+01
 11
8.25432384E+01
 21
2.43047671E+01
  0
LINE
  8
0
 62
4
 10
5.95432383E+01
 20
2.43047858E+01
 11
5.85432421E+01
 21
2.53047917E+01
  0
LINE
  8
0
 62
4
 10
5.85432467E+01
 20
1.36304769E+02
 11
5.95432310E+01
 21
1.37304744E+02
  0
LINE
  8
0
 62
4
 10
8.25432616E+01
 20
1.37304768E+02
 11
8.35432664E+01
 21
1.36304771E+02
  0
LINE
  8
0
 62
4
 10
8.60432633E+01
 20
4.93048184E+01
 11
8.60432633E+01
 21
7.08203214E+01
  0
LINE
  8
0
 62
4
 10
5.60432643E+01
 20
4.93048184E+01
 11
5.60432643E+01
 21
7.08203214E+01
  0
LINE
  8
0
 62
4
 10
5.60432643E+01
 20
9.97144406E+01
 11
5.75389918E+01
 21
9.97144406E+01
  0
LINE
  8
0
 62
4
 10
8.35494061E+01
 20
9.87764021E+01
 11
8.24333429E+01
 21
8.08047975E+01
  0
LINE
  8
0
 62
4
 10
8.35432635E+01
 20
1.35304803E+02
 11
8.35432635E+01
 21
1.36304803E+02
  0
LINE
  8
0
 62
4
 10
5.85432643E+01
 20
1.35304803E+02
 11
5.85432643E+01
 21
1.36304803E+02
  0
LINE
  8
0
 62
4
 10
5.60432643E+01
 20
6.18951810E+01
 11
5.75389918E+01
 21
6.18951810E+01
  0
LINE
  8
0
 62
4
 10
8.24333813E+01
 20
8.08047921E+01
 11
8.35494445E+01
 21
6.28331876E+01
  0
LINE
  8
0
 62
4
 10
5.96531849E+01
 20
8.08047959E+01
 11
5.85370919E+01
 21
6.28331782E+01
  0
LINE
  8
0
 62
4
 10
8.47267237E+01
 20
1.12304785E+02
 11
8.45475096E+01
 21
1.07930586E+02
  0
LINE
  8
0
 62
4
 10
8.45475360E+01
 20
9.97144406E+01
 11
8.60432633E+01
 21
9.97144406E+01
  0
LINE
  8
0
 62
4
 10
8.45475360E+01
 20
6.18951810E+01
 11
8.60432633E+01
 21
6.18951810E+01
  0
LINE
  8
0
 62
4
 10
5.96532072E+01
 20
8.08047740E+01
 11
5.85371153E+01
 21
9.87763764E+01
  0
LINE
  8
0
 62
4
 10
8.45475366E+01
 20
5.36790404E+01
 11
8.47267508E+01
 21
4.93048413E+01
  0
LINE
  8
0
 62
4
 10
5.73597926E+01
 20
7.21203092E+01
 11
5.73597926E+01
 21
8.94892819E+01
  0
LINE
  8
0
 62
4
 10
8.60432633E+01
 20
5.36790250E+01
 11
8.45475360E+01
 21
5.36790250E+01
  0
LINE
  8
0
 62
4
 10
5.60432643E+01
 20
9.07893003E+01
 11
5.60432643E+01
 21
1.12304803E+02
  0
LINE
  8
0
 62
4
 10
8.47267350E+01
 20
7.21203092E+01
 11
8.47267350E+01
 21
8.94892819E+01
  0
LINE
  8
0
 62
4
 10
8.45475360E+01
 20
1.07930597E+02
 11
8.60432633E+01
 21
1.07930597E+02
  0
LINE
  8
0
 62
4
 10
8.60432633E+01
 20
9.07893003E+01
 11
8.60432633E+01
 21
1.12304803E+02
  0
LINE
  8
0
 62
4
 10
5.60432643E+01
 20
1.07930597E+02
 11
5.75389918E+01
 21
1.07930597E+02
  0
LINE
  8
0
 62
4
 10
5.73597757E+01
 20
4.93048347E+01
 11
5.75389899E+01
 21
5.36790337E+01
  0
LINE
  8
0
 62
4
 10
5.75389591E+01
 20
1.07930560E+02
 11
5.73597449E+01
 21
1.12304759E+02
  0
LINE
  8
0
 62
4
 10
5.75389918E+01
 20
5.36790250E+01
 11
5.60432643E+01
 21
5.36790250E+01
  0
LINE
  8
0
  6
CENTER
 62
6
 10
5.16026934E+01
 20
9.93048337E+01
 11
9.14474057E+01
 21
9.93048337E+01
  0
LINE
  8
0
  6
CENTER
 62
6
 10
5.20428771E+01
 20
6.23047879E+01
 11
9.20078028E+01
 21
6.23047879E+01
  0
CIRCLE
  8
0
 62
4
 10
1.11043262E+02
 20
3.78048032E+01
 40
6.00000000E+00
  0
ARC
  8
0
 62
4
 10
1.11043262E+02
 20
3.78048032E+01
 40
1.20000000E+01
 50
1.06597833E+02
 51
2.53402149E+02
  0
CIRCLE
  8
0
 62
4
 10
7.10432633E+01
 20
3.78048032E+01
 40
2.00000000E+00
  0
CIRCLE
  8
0
 62
4
 10
7.10432633E+01
 20
3.78048032E+01
 40
4.00000000E+00
  0
ARC
  8
0
 62
4
 10
1.11043262E+02
 20
3.78048032E+01
 40
1.20000000E+01
 50
2.86597869E+02
 51
7.34021308E+01
  0
CIRCLE
  8
0
 62
4
 10
3.10432619E+01
 20
3.78048032E+01
 40
6.00000000E+00
  0
ARC
  8
0
 62
4
 10
3.10432619E+01
 20
3.78048032E+01
 40
1.20000000E+01
 50
2.86597869E+02
 51
7.34021308E+01
  0
ARC
  8
0
 62
4
 10
3.10432619E+01
 20
3.78048032E+01
 40
1.20000000E+01
 50
1.06597833E+02
 51
2.53402094E+02
  0
CIRCLE
  8
0
 62
4
 10
1.11043262E+02
 20
1.23804803E+02
 40
6.00000000E+00
  0
ARC
  8
0
 62
4
 10
1.11043262E+02
 20
1.23804803E+02
 40
1.20000000E+01
 50
1.06597833E+02
 51
2.53402149E+02
  0
CIRCLE
  8
0
 62
4
 10
7.10432633E+01
 20
1.23804803E+02
 40
2.00000000E+00
  0
CIRCLE
  8
0
 62
4
 10
7.10432633E+01
 20
1.23804803E+02
 40
4.00000000E+00
  0
ARC
  8
0
 62
4
 10
1.11043262E+02
 20
1.23804803E+02
 40
1.20000000E+01
 50
2.86597924E+02
 51
7.34021308E+01
  0
CIRCLE
  8
0
 62
4
 10
3.10432619E+01
 20
1.23804803E+02
 40
6.00000000E+00
  0
ARC
  8
0
 62
4
 10
3.10432619E+01
 20
1.23804803E+02
 40
1.20000000E+01
 50
2.86597924E+02
 51
7.34021308E+01
  0
ARC
  8
0
 62
4
 10
3.10432619E+01
 20
1.23804803E+02
 40
1.20000000E+01
 50
1.06597888E+02
 51
2.53402149E+02
  0
LINE
  8
0
 62
4
 10
1.60432619E+01
 20
2.63048032E+01
 11
1.26043262E+02
 21
2.63048032E+01
  0
LINE
  8
0
  6
CENTER
 62
6
 10
1.32719287E+02
 20
1.23804803E+02
 11
9.29582409E+01
 21
1.23804803E+02
  0
LINE
  8
0
 62
4
 10
9.60432638E+01
 20
4.61097501E+01
 11
9.60432638E+01
 21
2.85725492E+01
  0
LINE
  8
0
  6
CENTER
 62
6
 10
1.11043262E+02
 20
5.65413449E+01
 11
1.11043262E+02
 21
1.87456754E+01
  0
LINE
  8
0
 62
4
 10
1.26043262E+02
 20
4.93048032E+01
 11
1.26043262E+02
 21
2.63048032E+01
  0
LINE
  8
0
 62
4
 10
1.60432619E+01
 20
4.93048032E+01
 11
1.26043262E+02
 21
4.93048032E+01
  0
LINE
  8
0
  6
CENTER
 62
6
 10
9.29582409E+01
 20
3.78048032E+01
 11
1.32719287E+02
 21
3.78048032E+01
  0
LINE
  8
0
  6
CENTER
 62
6
 10
9.36717926E+00
 20
3.78048032E+01
 11
4.91282247E+01
 21
3.78048032E+01
  0
LINE
  8
0
  6
CENTER
 62
6
 10
6.35432628E+01
 20
3.78048032E+01
 11
7.85432631E+01
 21
3.78048032E+01
  0
LINE
  8
0
  6
CENTER
 62
6
 10
3.10432619E+01
 20
1.87456754E+01
 11
3.10432619E+01
 21
5.65413449E+01
  0
LINE
  8
0
 62
4
 10
1.60432619E+01
 20
2.63048032E+01
 11
1.60432619E+01
 21
4.93048032E+01
  0
LINE
  8
0
 62
4
 10
1.26043262E+02
 20
1.35304803E+02
 11
1.60432619E+01
 21
1.35304803E+02
  0
LINE
  8
0
 62
4
 10
1.26043262E+02
 20
1.35304803E+02
 11
1.26043262E+02
 21
1.12304803E+02
  0
LINE
  8
0
  6
CENTER
 62
6
 10
1.11043262E+02
 20
1.42863916E+02
 11
1.11043262E+02
 21
1.05068261E+02
  0
LINE
  8
0
 62
4
 10
4.60432638E+01
 20
2.85725492E+01
 11
4.60432638E+01
 21
4.61097501E+01
  0
LINE
  8
0
  6
CENTER
 62
6
 10
4.91282247E+01
 20
1.23804803E+02
 11
9.36717926E+00
 21
1.23804803E+02
  0
LINE
  8
0
 62
4
 10
9.60432638E+01
 20
1.33037072E+02
 11
9.60432638E+01
 21
1.15499841E+02
  0
LINE
  8
0
  6
CENTER
 62
6
 10
7.85432631E+01
 20
1.23804803E+02
 11
6.35432628E+01
 21
1.23804803E+02
  0
LINE
  8
0
 62
4
 10
1.26043262E+02
 20
1.12304803E+02
 11
1.60432619E+01
 21
1.12304803E+02
  0
LINE
  8
0
 62
4
 10
1.60432619E+01
 20
1.12304803E+02
 11
1.60432619E+01
 21
1.35304803E+02
  0
LINE
  8
0
  6
CENTER
 62
6
 10
3.10432619E+01
 20
1.05068261E+02
 11
3.10432619E+01
 21
1.42863916E+02
  0
LINE
  8
0
 62
4
 10
4.60432638E+01
 20
1.15499841E+02
 11
4.60432638E+01
 21
1.33037072E+02
  0
LINE
  8
0
  6
CENTER
 62
6
 10
9.04326569E+00
 20
8.08048032E+01
 11
1.33309894E+02
 21
8.08048032E+01
  0
TEXT
  8
0
 62
7
 10
-2.67600562E+02
 20
1.57350000E+02
 40
6.30000019E+00
  1
MODEL:DDA40-11T
 41
1.00000015E+00
  7
MONOTXT
  0
TEXT
  8
0
 62
7
 10
-2.73900291E+02
 20
1.82350000E+02
 40
6.30000019E+00
  1
NEW DYNA CYLINDER
 41
1.07594953E+00
  7
MONOTXT
  0
LINE
  8
0
 62
7
 10
2.82099854E+02
 20
1.95500000E+02
 11
2.82099854E+02
 21
-1.95000000E+02
  0
LINE
  8
0
 62
7
 10
-2.81250000E+02
 20
1.95500000E+02
 11
2.82099854E+02
 21
1.95500000E+02
  0
LINE
  8
0
 62
7
 10
-2.81250000E+02
 20
1.95500000E+02
 11
-2.81250000E+02
 21
-1.95000000E+02
  0
LINE
  8
0
 62
7
 10
-2.81250000E+02
 20
-1.95000000E+02
 11
2.82099854E+02
 21
-1.95000000E+02
  0
LINE
  8
0
 62
7
 10
1.62099976E+02
 20
-1.75000000E+02
 11
1.62099976E+02
 21
-1.95000000E+02
  0
LINE
  8
0
 62
7
 10
1.62099976E+02
 20
-1.75000000E+02
 11
2.82099854E+02
 21
-1.75000000E+02
  0
LINE
  8
0
 62
7
 10
1.62099976E+02
 20
1.75500000E+02
 11
2.82099854E+02
 21
1.75500000E+02
  0
LINE
  8
0
 62
7
 10
-2.81250000E+02
 20
1.75500000E+02
 11
-1.61250000E+02
 21
1.75500000E+02
  0
LINE
  8
0
 62
7
 10
1.62099976E+02
 20
1.95500000E+02
 11
1.62099976E+02
 21
1.75500000E+02
  0
LINE
  8
0
 62
7
 10
-1.61250000E+02
 20
1.95500000E+02
 11
-1.61250000E+02
 21
1.75500000E+02
  0
TEXT
  8
0
 62
7
 10
1.97799690E+02
 20
1.82350000E+02
 40
6.30000019E+00
  1
Ver. 1.0
 41
1.08108124E+00
  7
MONOTXT
  0
TEXT
  8
0
 62
7
 10
1.69885289E+02
 20
-1.89500000E+02
 40
9.00000000E+00
  1
KOGANEI CORP.
 41
1.04838710E+00
  7
MONOTXT
  0
ENDSEC
  0
EOF
