  0
SECTION
  2
HEADER
  9
$ACADVER
  1
AC1003
  9
$EXTMIN
 10
-1.94250000E+02
 20
-1.49776107E+02
  9
$EXTMAX
 10
1.94800003E+02
 20
1.32600006E+02
  9
$LIMMIN
 10
-1.94251000E+02
 20
-1.49777107E+02
  9
$LIMMAX
 10
1.94801003E+02
 20
1.32601006E+02
  9
$SNAPUNIT
 10
1
 20
1
  9
$SNAPBASE
 10
0
 20
0
  9
$GRIDMODE
 70
0
  9
$GRIDUNIT
 10
0
 20
0
  9
$LTSCALE
 40
6.48416672E+00
  9
$TEXTSIZE
 40
3.2
  9
$DIMTAD
 70
0
  9
$LUNITS
 70
2
  9
$LUPREC
 70
4
  9
$FILLETRAD
 40
0
  9
$AUNITS
 70
0
  9
$AUPREC
 70
0
  0
ENDSEC
  0
SECTION
  2
TABLES
  0
TABLE
  2
LTYPE
 70
2
  0
LTYPE
  2
CONTINUOUS
 70
64
  3
Solid-Line
 72
65
 73
0
 40
0
  0
LTYPE
  2
DASHED
 70
64
  3
DASHED
 72
65
 73
2
 40
.75
 49
.5
 49
-.25
  0
LTYPE
  2
HIDDEN
 70
64
  3
HIDDEN
 72
65
 73
2
 40
.375
 49
.25
 49
-.125
  0
LTYPE
  2
CENTER
 70
64
  3
CENTER
 72
65
 73
4
 40
2
 49
1.25
 49
-.25
 49
.25
 49
-.25
  0
LTYPE
  2
PHANTOM
 70
64
  3
PHANTOM
 72
65
 73
6
 40
2.5
 49
1.25
 49
-.25
 49
.25
 49
-.25
 49
.25
 49
-.25
  0
ENDTAB
  0
TABLE
  2
LAYER
 70
1
  0
LAYER
  2
1
 70
0
 62
7
  6
CONTINUOUS
 0
ENDTAB
  0
TABLE
  2
STYLE
 70
2
  0
STYLE
  2
MONOTXT
 70
0
 40
0
 41
1
 50
0
 71
0
 42
.2
  3
monotxt
  0
STYLE
  2
BIGFONT
 70
0
 40
0
 41
1
 50
0
 71
0
 42
.2
  3
txt
  4
bigfont
  0
ENDTAB
  0
ENDSEC
  0
SECTION
  2
ENTITIES
  0
LINE
  8
0
  6
CENTER
 62
6
 10
9.02803230E+01
 20
-5.93314831E+01
 11
5.50426955E+01
 21
-5.93313926E+01
  0
LINE
  8
0
  6
CENTER
 62
6
 10
4.93759706E+01
 20
-7.78313781E+01
 11
9.62980344E+01
 21
-7.78314985E+01
  0
LINE
  8
0
  6
CENTER
 62
6
 10
9.18315696E+01
 20
-9.63314870E+01
 11
5.58928775E+01
 21
-9.63313948E+01
  0
LINE
  8
0
 62
4
 10
8.47684727E+01
 20
-1.05251141E+02
 11
8.49144451E+01
 21
-1.04142392E+02
  0
LINE
  8
0
 62
4
 10
5.83783869E+01
 20
-7.78313919E+01
 11
6.11670521E+01
 21
-9.90138287E+01
  0
LINE
  8
0
 62
4
 10
8.83784386E+01
 20
-6.63314782E+01
 11
8.68644008E+01
 21
-6.63314743E+01
  0
LINE
  8
0
  6
CENTER
 62
6
 10
7.33785017E+01
 20
-4.17652623E+01
 11
7.33783271E+01
 21
-1.09792267E+02
  0
LINE
  8
0
 62
4
 10
8.83783796E+01
 20
-8.93314782E+01
 11
8.83783442E+01
 21
-1.03142403E+02
  0
LINE
  8
0
 62
4
 10
5.83783805E+01
 20
-8.93314012E+01
 11
5.83783451E+01
 21
-1.03142326E+02
  0
LINE
  8
0
 62
4
 10
7.33783148E+01
 20
-1.07331393E+02
 11
8.47683989E+01
 21
-1.05251138E+02
  0
LINE
  8
0
 62
4
 10
6.19881929E+01
 20
-1.05251081E+02
 11
7.33782959E+01
 21
-1.07331400E+02
  0
LINE
  8
0
 62
4
 10
5.93783425E+01
 20
-1.04142328E+02
 11
6.18422097E+01
 21
-1.04142335E+02
  0
LINE
  8
0
 62
4
 10
5.83783557E+01
 20
-9.90138200E+01
 11
6.11670520E+01
 21
-9.90138272E+01
  0
LINE
  8
0
 62
4
 10
8.49144135E+01
 20
-1.04142394E+02
 11
8.73783416E+01
 21
-1.04142400E+02
  0
LINE
  8
0
 62
4
 10
8.83783851E+01
 20
-7.78314397E+01
 11
8.55897258E+01
 21
-5.66490483E+01
  0
LINE
  8
0
 62
4
 10
5.98924166E+01
 20
-6.63314051E+01
 11
5.83784396E+01
 21
-6.63314012E+01
  0
LINE
  8
0
 62
4
 10
8.83784635E+01
 20
-5.66490594E+01
 11
8.55897064E+01
 21
-5.66490522E+01
  0
LINE
  8
0
 62
4
 10
6.19883122E+01
 20
-5.04117655E+01
 11
6.18423397E+01
 21
-5.15205144E+01
  0
LINE
  8
0
 62
4
 10
8.73784766E+01
 20
-5.15205473E+01
 11
8.49145485E+01
 21
-5.15205410E+01
  0
LINE
  8
0
 62
4
 10
7.33784742E+01
 20
-4.83314659E+01
 11
6.19883300E+01
 21
-5.04117315E+01
  0
LINE
  8
0
 62
4
 10
8.47685080E+01
 20
-5.04118124E+01
 11
7.33784050E+01
 21
-4.83314939E+01
  0
LINE
  8
0
 62
4
 10
6.18423448E+01
 20
-5.15204817E+01
 11
5.93784776E+01
 21
-5.15204754E+01
  0
LINE
  8
0
 62
4
 10
6.11671607E+01
 20
-5.66489895E+01
 11
5.83784644E+01
 21
-5.66489824E+01
  0
LINE
  8
0
 62
4
 10
8.49145594E+01
 20
-5.15205476E+01
 11
8.47685926E+01
 21
-5.04117979E+01
  0
LINE
  8
0
 62
4
 10
8.83784741E+01
 20
-5.25205498E+01
 11
8.83784386E+01
 21
-6.63314782E+01
  0
LINE
  8
0
 62
4
 10
5.83784750E+01
 20
-5.25204729E+01
 11
5.83784396E+01
 21
-6.63314012E+01
  0
LINE
  8
0
 62
4
 10
8.68643417E+01
 20
-8.93314743E+01
 11
8.83783796E+01
 21
-8.93314782E+01
  0
LINE
  8
0
 62
4
 10
5.83783805E+01
 20
-8.93314012E+01
 11
5.98923576E+01
 21
-8.93314051E+01
  0
LINE
  8
0
 62
4
 10
8.55895977E+01
 20
-9.90138899E+01
 11
8.83783547E+01
 21
-9.90138970E+01
  0
LINE
  8
0
 62
4
 10
6.18422166E+01
 20
-1.04142314E+02
 11
6.19881833E+01
 21
-1.05251064E+02
  0
LINE
  8
0
 62
4
 10
6.03081333E+01
 20
-6.31737523E+01
 11
8.64487106E+01
 21
-6.31738194E+01
  0
LINE
  8
0
 62
4
 10
6.03080676E+01
 20
-9.24890600E+01
 11
8.64486571E+01
 21
-9.24891270E+01
  0
LINE
  8
0
 62
4
 10
6.11671499E+01
 20
-5.66489889E+01
 11
5.83783790E+01
 21
-7.78313887E+01
  0
LINE
  8
0
 62
4
 10
8.55896384E+01
 20
-9.90138912E+01
 11
8.83784083E+01
 21
-7.78314990E+01
  0
ARC
  8
0
 62
4
 10
8.73783442E+01
 20
-1.03142400E+02
 40
1.00000000E+00
 50
2.69999871E+02
 51
3.59999853E+02
  0
CIRCLE
  8
0
 62
4
 10
7.33784091E+01
 20
-7.78314397E+01
 40
1.25000000E+01
  0
ARC
  8
0
 62
4
 10
5.93783451E+01
 20
-1.03142328E+02
 40
1.00000000E+00
 50
1.79999817E+02
 51
2.69999854E+02
  0
CIRCLE
  8
0
 62
4
 10
7.33784091E+01
 20
-7.78314397E+01
 40
1.15000000E+01
  0
ARC
  8
0
 62
4
 10
8.73784741E+01
 20
-5.25205473E+01
 40
1.00000000E+00
 50
3.59999853E+02
 51
8.99998352E+01
  0
ARC
  8
0
 62
4
 10
5.93784750E+01
 20
-5.25204754E+01
 40
1.00000000E+00
 50
8.99998352E+01
 51
1.79999871E+02
  0
LINE
  8
0
 62
4
 10
-2.36216491E+01
 20
-6.63314397E+01
 11
-2.36216491E+01
 21
-8.93314244E+01
  0
LINE
  8
0
 62
4
 10
-2.46216491E+01
 20
-6.53314397E+01
 11
-2.46216491E+01
 21
-9.03314397E+01
  0
LINE
  8
0
 62
4
 10
-1.35621657E+02
 20
-6.53314397E+01
 11
-1.35621657E+02
 21
-9.03314397E+01
  0
LINE
  8
0
 62
4
 10
-4.86216567E+01
 20
-6.31737859E+01
 11
-4.86216567E+01
 21
-9.24890935E+01
  0
LINE
  8
0
 62
4
 10
-1.36621628E+02
 20
-8.93314324E+01
 11
-1.35621610E+02
 21
-9.03314384E+01
  0
LINE
  8
0
 62
4
 10
-4.70216506E+01
 20
-9.03314397E+01
 11
-2.46216643E+01
 21
-9.03314397E+01
  0
LINE
  8
0
 62
4
 10
-4.70216506E+01
 20
-6.53314397E+01
 11
-2.46216643E+01
 21
-6.53314397E+01
  0
LINE
  8
0
 62
4
 10
-1.35621628E+02
 20
-6.53314334E+01
 11
-1.36621624E+02
 21
-6.63314404E+01
  0
LINE
  8
0
 62
4
 10
-2.36216563E+01
 20
-6.63314443E+01
 11
-2.46216740E+01
 21
-6.53314383E+01
  0
LINE
  8
0
 62
4
 10
-2.46216557E+01
 20
-9.03314429E+01
 11
-2.36216605E+01
 21
-8.93314360E+01
  0
LINE
  8
0
 62
4
 10
-1.11621657E+02
 20
-6.31737859E+01
 11
-1.11621657E+02
 21
-9.24890935E+01
  0
LINE
  8
0
 62
4
 10
-1.13221648E+02
 20
-6.53314397E+01
 11
-1.35621641E+02
 21
-6.53314397E+01
  0
LINE
  8
0
 62
4
 10
-1.36621657E+02
 20
-6.63314549E+01
 11
-1.36621657E+02
 21
-8.93314397E+01
  0
LINE
  8
0
 62
4
 10
-1.13221648E+02
 20
-9.03314397E+01
 11
-1.35621641E+02
 21
-9.03314397E+01
  0
LINE
  8
0
  6
CENTER
 62
6
 10
-1.69370482E+01
 20
-7.78314397E+01
 11
-1.42792860E+02
 21
-7.78314397E+01
  0
LINE
  8
0
  6
CENTER
 62
6
 10
-7.04580367E+01
 20
-5.93313634E+01
 11
-5.34813674E+01
 21
-5.93313634E+01
  0
LINE
  8
0
  6
CENTER
 62
6
 10
-7.03211501E+01
 20
-9.63314244E+01
 11
-5.34813674E+01
 21
-9.63314244E+01
  0
LINE
  8
0
  6
CENTER
 62
6
 10
-6.16217025E+01
 20
-1.04719482E+02
 11
-6.16217025E+01
 21
-8.87550847E+01
  0
LINE
  8
0
  6
CENTER
 62
6
 10
-8.01216567E+01
 20
-3.88965337E+01
 11
-8.01216567E+01
 21
-1.13175338E+02
  0
LINE
  8
0
  6
CENTER
 62
6
 10
-1.07066328E+02
 20
-9.63314244E+01
 11
-8.96008437E+01
 21
-9.63314244E+01
  0
LINE
  8
0
  6
CENTER
 62
6
 10
-9.86217330E+01
 20
-1.04954414E+02
 11
-9.86217330E+01
 21
-8.83119389E+01
  0
LINE
  8
0
  6
CENTER
 62
6
 10
-1.07211531E+02
 20
-5.93313634E+01
 11
-8.99797957E+01
 21
-5.93313634E+01
  0
LINE
  8
0
  6
CENTER
 62
6
 10
-9.86216414E+01
 20
-5.09287755E+01
 11
-9.86216414E+01
 21
-6.72157780E+01
  0
LINE
  8
0
  6
CENTER
 62
6
 10
-6.16215957E+01
 20
-5.08247868E+01
 11
-6.16215957E+01
 21
-6.79921223E+01
  0
LINE
  8
0
 62
4
 10
-8.01216537E+01
 20
-5.04117995E+01
 11
-6.15143223E+01
 21
-5.15205488E+01
  0
LINE
  8
0
 62
4
 10
-8.01216579E+01
 20
-5.04117979E+01
 11
-9.87289892E+01
 21
-5.15205473E+01
  0
LINE
  8
0
 62
4
 10
-8.01216571E+01
 20
-1.05251073E+02
 11
-9.87289884E+01
 21
-1.04142324E+02
  0
LINE
  8
0
 62
4
 10
-8.01216542E+01
 20
-1.05251076E+02
 11
-6.15143229E+01
 21
-1.04142326E+02
  0
LINE
  8
0
 62
4
 10
-1.11621657E+02
 20
-7.78314397E+01
 11
-1.02121657E+02
 21
-7.78314397E+01
  0
LINE
  8
0
 62
4
 10
-5.81216567E+01
 20
-7.78314397E+01
 11
-4.86216567E+01
 21
-7.78314397E+01
  0
ARC
  8
0
 62
4
 10
-1.13221648E+02
 20
-6.37314336E+01
 40
1.60000002E+00
 50
2.69999998E+02
 51
1.86538260E-09
  0
ARC
  8
0
 62
4
 10
-4.70216506E+01
 20
-6.37314336E+01
 40
1.60000002E+00
 50
1.79999991E+02
 51
2.70000001E+02
  0
ARC
  8
0
 62
4
 10
-8.01216567E+01
 20
-5.68591038E+01
 40
5.09723320E+01
 50
2.49713359E+02
 51
2.90286636E+02
  0
ARC
  8
0
 62
4
 10
-8.01216567E+01
 20
-9.88037755E+01
 40
5.09723320E+01
 50
6.97133637E+01
 51
1.10286641E+02
  0
ARC
  8
0
 62
4
 10
-8.26216567E+01
 20
-8.78314397E+01
 40
4.20000000E+01
 50
3.59505675E+01
 51
6.12943907E+01
  0
ARC
  8
0
 62
4
 10
-7.76216567E+01
 20
-6.78314397E+01
 40
4.20000000E+01
 50
2.15950600E+02
 51
2.41294400E+02
  0
ARC
  8
0
 62
4
 10
-8.26216567E+01
 20
-6.78314397E+01
 40
4.20000000E+01
 50
2.98705609E+02
 51
3.24049433E+02
  0
ARC
  8
0
 62
4
 10
-7.76216567E+01
 20
-8.78314397E+01
 40
4.20000000E+01
 50
1.18705601E+02
 51
1.44049400E+02
  0
ARC
  8
0
 62
4
 10
-4.70216506E+01
 20
-9.19314458E+01
 40
1.60000002E+00
 50
9.00000025E+01
 51
1.80000005E+02
  0
ARC
  8
0
 62
4
 10
-1.13221648E+02
 20
-9.19314458E+01
 40
1.60000002E+00
 50
1.86533171E-09
 51
9.00000025E+01
  0
CIRCLE
  8
0
 62
4
 10
-8.01216567E+01
 20
-7.78314397E+01
 40
2.20000000E+01
  0
ARC
  8
0
 62
4
 10
-6.16217025E+01
 20
-9.63314244E+01
 40
6.99998474E+00
 50
3.27686925E+02
 51
8.79347990E+01
  0
ARC
  8
0
 62
4
 10
-9.86217330E+01
 20
-9.63314244E+01
 40
6.99998474E+00
 50
2.54920087E+02
 51
3.57935496E+02
  0
ARC
  8
0
 62
4
 10
-6.16217025E+01
 20
-5.93314549E+01
 40
6.99998474E+00
 50
2.72065201E+02
 51
3.23130752E+01
  0
ARC
  8
0
 62
4
 10
-9.86217330E+01
 20
-5.93314549E+01
 40
6.99998474E+00
 50
2.06450408E+00
 51
1.05079912E+02
  0
ARC
  8
0
 62
4
 10
-9.86217330E+01
 20
-9.63314244E+01
 40
6.99998474E+00
 50
9.20642222E+01
 51
2.12310980E+02
  0
ARC
  8
0
 62
4
 10
-6.16217025E+01
 20
-9.63314244E+01
 40
6.99998474E+00
 50
1.82065102E+02
 51
2.85081690E+02
  0
ARC
  8
0
 62
4
 10
-9.86217330E+01
 20
-5.93314549E+01
 40
6.99998474E+00
 50
1.47689017E+02
 51
2.67935781E+02
  0
ARC
  8
0
 62
4
 10
-6.16217025E+01
 20
-5.93314549E+01
 40
6.99998474E+00
 50
7.49183095E+01
 51
1.77934897E+02
  0
CIRCLE
  8
0
 62
4
 10
-6.16215957E+01
 20
-5.93313634E+01
 40
2.75000000E+00
  0
CIRCLE
  8
0
 62
4
 10
-9.86216414E+01
 20
-5.93313634E+01
 40
2.75000000E+00
  0
CIRCLE
  8
0
 62
4
 10
-9.86217330E+01
 20
-9.63314244E+01
 40
2.75000000E+00
  0
CIRCLE
  8
0
 62
4
 10
-6.16217025E+01
 20
-9.63314244E+01
 40
2.75000000E+00
  0
LINE
  8
0
  6
CENTER
 62
6
 10
5.43780229E+01
 20
4.06685908E+01
 11
9.43429487E+01
 21
4.06685908E+01
  0
LINE
  8
0
  6
CENTER
 62
6
 10
5.39378393E+01
 20
7.76686366E+01
 11
9.37825515E+01
 21
7.76686366E+01
  0
LINE
  8
0
 62
4
 10
5.98741376E+01
 20
3.20428279E+01
 11
5.83784101E+01
 21
3.20428279E+01
  0
LINE
  8
0
 62
4
 10
5.98741049E+01
 20
8.62943631E+01
 11
5.96948908E+01
 21
9.06685621E+01
  0
LINE
  8
0
 62
4
 10
5.96949216E+01
 20
2.76686376E+01
 11
5.98741357E+01
 21
3.20428366E+01
  0
LINE
  8
0
 62
4
 10
5.83784101E+01
 20
8.62943995E+01
 11
5.98741376E+01
 21
8.62943995E+01
  0
LINE
  8
0
  6
CENTER
 62
6
 10
7.33784091E+01
 20
-2.83171435E+00
 11
7.33784091E+01
 21
1.19887265E+02
  0
LINE
  8
0
 62
4
 10
8.83784091E+01
 20
6.91531032E+01
 11
8.83784091E+01
 21
9.06686061E+01
  0
LINE
  8
0
 62
4
 10
8.68826818E+01
 20
8.62943995E+01
 11
8.83784091E+01
 21
8.62943995E+01
  0
LINE
  8
0
 62
4
 10
8.70618808E+01
 20
5.04841121E+01
 11
8.70618808E+01
 21
6.78530848E+01
  0
LINE
  8
0
 62
4
 10
5.83784101E+01
 20
6.91531032E+01
 11
5.83784101E+01
 21
9.06686061E+01
  0
LINE
  8
0
 62
4
 10
8.83784091E+01
 20
3.20428279E+01
 11
8.68826818E+01
 21
3.20428279E+01
  0
LINE
  8
0
 62
4
 10
5.96949384E+01
 20
5.04841121E+01
 11
5.96949384E+01
 21
6.78530848E+01
  0
LINE
  8
0
 62
4
 10
8.68826824E+01
 20
3.20428433E+01
 11
8.70618966E+01
 21
2.76686442E+01
  0
LINE
  8
0
 62
4
 10
6.19883531E+01
 20
5.91685769E+01
 11
6.08722611E+01
 21
7.71401793E+01
  0
LINE
  8
0
 62
4
 10
8.68826818E+01
 20
4.02589839E+01
 11
8.83784091E+01
 21
4.02589839E+01
  0
LINE
  8
0
 62
4
 10
8.68826818E+01
 20
7.80782435E+01
 11
8.83784091E+01
 21
7.80782435E+01
  0
LINE
  8
0
 62
4
 10
8.70618696E+01
 20
9.06685882E+01
 11
8.68826554E+01
 21
8.62943892E+01
  0
LINE
  8
0
 62
4
 10
6.19883307E+01
 20
5.91685988E+01
 11
6.08722377E+01
 21
4.11969811E+01
  0
LINE
  8
0
 62
4
 10
8.47685272E+01
 20
5.91685950E+01
 11
8.58845903E+01
 21
4.11969905E+01
  0
LINE
  8
0
 62
4
 10
5.83784101E+01
 20
4.02589839E+01
 11
5.98741376E+01
 21
4.02589839E+01
  0
LINE
  8
0
 62
4
 10
6.08784101E+01
 20
9.22686122E+01
 11
6.08784101E+01
 21
1.14668606E+02
  0
LINE
  8
0
 62
4
 10
8.58784094E+01
 20
9.22686122E+01
 11
8.58784094E+01
 21
1.14668606E+02
  0
LINE
  8
0
 62
4
 10
8.58845520E+01
 20
7.71402050E+01
 11
8.47684887E+01
 21
5.91686004E+01
  0
LINE
  8
0
 62
4
 10
5.83784101E+01
 20
7.80782435E+01
 11
5.98741376E+01
 21
7.80782435E+01
  0
LINE
  8
0
 62
4
 10
5.83784101E+01
 20
2.76686213E+01
 11
5.83784101E+01
 21
4.91841243E+01
  0
LINE
  8
0
 62
4
 10
8.83784091E+01
 20
2.76686213E+01
 11
8.83784091E+01
 21
4.91841243E+01
  0
LINE
  8
0
 62
4
 10
8.48784075E+01
 20
1.15668571E+02
 11
8.58784122E+01
 21
1.14668574E+02
  0
LINE
  8
0
 62
4
 10
6.08783925E+01
 20
1.14668572E+02
 11
6.18783768E+01
 21
1.15668547E+02
  0
LINE
  8
0
 62
4
 10
6.18783842E+01
 20
2.66858872E+00
 11
6.08783879E+01
 21
3.66859458E+00
  0
LINE
  8
0
 62
4
 10
8.58784031E+01
 20
3.66859639E+00
 11
8.48783842E+01
 21
2.66857004E+00
  0
LINE
  8
0
 62
4
 10
8.58784094E+01
 20
3.66862134E+00
 11
8.58784094E+01
 21
2.60686152E+01
  0
LINE
  8
0
 62
4
 10
6.08784101E+01
 20
3.66862134E+00
 11
6.08784101E+01
 21
2.60686152E+01
  0
LINE
  8
0
 62
4
 10
5.83784101E+01
 20
9.06686061E+01
 11
8.83784091E+01
 21
9.06686061E+01
  0
LINE
  8
0
 62
4
 10
5.83784101E+01
 20
2.76686213E+01
 11
8.83784091E+01
 21
2.76686213E+01
  0
LINE
  8
0
 62
4
 10
6.08784101E+01
 20
1.14668606E+02
 11
8.58784094E+01
 21
1.14668606E+02
  0
LINE
  8
0
 62
4
 10
6.18784101E+01
 20
1.15668606E+02
 11
8.48784093E+01
 21
1.15668606E+02
  0
LINE
  8
0
 62
4
 10
6.08784101E+01
 20
3.66862134E+00
 11
8.58784094E+01
 21
3.66862134E+00
  0
LINE
  8
0
 62
4
 10
6.18784101E+01
 20
2.66862134E+00
 11
8.48784093E+01
 21
2.66862134E+00
  0
LINE
  8
0
  6
CENTER
 62
6
 10
5.13310563E+01
 20
5.91686061E+01
 11
9.56463392E+01
 21
5.91686061E+01
  0
ARC
  8
0
 62
4
 10
5.92784345E+01
 20
9.22685817E+01
 40
1.59999943E+00
 50
2.70000018E+02
 51
6.83245232E-07
  0
ARC
  8
0
 62
4
 10
8.74783847E+01
 20
2.60686152E+01
 40
1.59999943E+00
 50
8.99999818E+01
 51
1.79999964E+02
  0
ARC
  8
0
 62
4
 10
5.92784345E+01
 20
2.60686152E+01
 40
1.59999943E+00
 50
1.79860890E-05
 51
8.99999818E+01
  0
ARC
  8
0
 62
4
 10
5.83950117E+01
 20
6.78530848E+01
 40
1.29999924E+00
 50
1.79860890E-05
 51
8.99999818E+01
  0
ARC
  8
0
 62
4
 10
8.74783847E+01
 20
9.22685817E+01
 40
1.59999943E+00
 50
1.79999964E+02
 51
2.69999946E+02
  0
ARC
  8
0
 62
4
 10
8.68826818E+01
 20
7.70782130E+01
 40
1.00000000E+00
 50
8.99992170E+01
 51
1.76446298E+02
  0
ARC
  8
0
 62
4
 10
8.68826818E+01
 20
4.12589534E+01
 40
1.00000000E+00
 50
1.83553647E+02
 51
2.70000838E+02
  0
ARC
  8
0
 62
4
 10
5.98741376E+01
 20
4.12589839E+01
 40
1.00000000E+00
 50
2.70000510E+02
 51
3.56446353E+02
  0
ARC
  8
0
 62
4
 10
8.83619296E+01
 20
6.78530848E+01
 40
1.29999924E+00
 50
8.99999818E+01
 51
1.79999964E+02
  0
ARC
  8
0
 62
4
 10
8.83618686E+01
 20
5.04841121E+01
 40
1.29999924E+00
 50
1.79999964E+02
 51
2.69999946E+02
  0
ARC
  8
0
 62
4
 10
5.83949506E+01
 20
5.04841121E+01
 40
1.29999924E+00
 50
2.70000018E+02
 51
6.83245232E-07
  0
ARC
  8
0
 62
4
 10
5.98741376E+01
 20
7.70782435E+01
 40
1.00000000E+00
 50
3.55368339E+00
 51
8.99995447E+01
  0
TEXT
  8
0
 62
7
 10
-1.89357136E+02
 20
1.22850006E+02
 40
4.50000000E+00
  1
NEW DYNA CYLINDER
 41
1.07594914E+00
  7
MONOTXT
  0
TEXT
  8
0
 62
7
 10
-1.85214688E+02
 20
1.05350006E+02
 40
4.50000000E+00
  1
MODEL:DDA40-11
 41
1.00000000E+00
  7
MONOTXT
  0
LINE
  8
0
 62
7
 10
-1.94250000E+02
 20
1.32600006E+02
 11
1.94800003E+02
 21
1.32600006E+02
  0
LINE
  8
0
 62
7
 10
1.94800003E+02
 20
1.32600006E+02
 11
1.94800003E+02
 21
-1.33500000E+02
  0
LINE
  8
0
 62
7
 10
-1.94250000E+02
 20
1.32600006E+02
 11
-1.94250000E+02
 21
-1.33500000E+02
  0
LINE
  8
0
 62
7
 10
-1.94250000E+02
 20
-1.33500000E+02
 11
1.94800003E+02
 21
-1.33500000E+02
  0
LINE
  8
0
 62
7
 10
1.09800003E+02
 20
-1.18500000E+02
 11
1.09800003E+02
 21
-1.33500000E+02
  0
LINE
  8
0
 62
7
 10
1.09800003E+02
 20
-1.18500000E+02
 11
1.94800003E+02
 21
-1.18500000E+02
  0
LINE
  8
0
 62
7
 10
1.09800003E+02
 20
1.32600006E+02
 11
1.09800003E+02
 21
1.17600006E+02
  0
LINE
  8
0
 62
7
 10
1.09800003E+02
 20
1.17600006E+02
 11
1.94800003E+02
 21
1.17600006E+02
  0
LINE
  8
0
 62
7
 10
-1.94250000E+02
 20
1.17600006E+02
 11
-1.09250000E+02
 21
1.17600006E+02
  0
LINE
  8
0
 62
7
 10
-1.09250000E+02
 20
1.32600006E+02
 11
-1.09250000E+02
 21
1.17600006E+02
  0
TEXT
  8
0
 62
7
 10
1.34942863E+02
 20
1.22850006E+02
 40
4.50000000E+00
  1
Ver. 1.0
 41
1.08108085E+00
  7
MONOTXT
  0
TEXT
  8
0
 62
7
 10
1.15249715E+02
 20
-1.29150000E+02
 40
6.30000019E+00
  1
KOGANEI CORP.
 41
1.04838725E+00
  7
MONOTXT
  0
ENDSEC
  0
EOF
