  0
SECTION
  2
HEADER
  9
$ACADVER
  1
AC1003
  9
$EXTMIN
 10
-1.38399994E+02
 20
-9.48000031E+01
  9
$EXTMAX
 10
1.38350006E+02
 20
9.45000000E+01
  9
$LIMMIN
 10
-1.38400994E+02
 20
-9.48010031E+01
  9
$LIMMAX
 10
1.38351006E+02
 20
9.45010000E+01
  9
$SNAPUNIT
 10
1
 20
1
  9
$SNAPBASE
 10
0
 20
0
  9
$GRIDMODE
 70
0
  9
$GRIDUNIT
 10
0
 20
0
  9
$LTSCALE
 40
4.61250000E+00
  9
$TEXTSIZE
 40
3.2
  9
$DIMTAD
 70
0
  9
$LUNITS
 70
2
  9
$LUPREC
 70
4
  9
$FILLETRAD
 40
0
  9
$AUNITS
 70
0
  9
$AUPREC
 70
0
  0
ENDSEC
  0
SECTION
  2
TABLES
  0
TABLE
  2
LTYPE
 70
2
  0
LTYPE
  2
CONTINUOUS
 70
64
  3
Solid-Line
 72
65
 73
0
 40
0
  0
LTYPE
  2
DASHED
 70
64
  3
DASHED
 72
65
 73
2
 40
.75
 49
.5
 49
-.25
  0
LTYPE
  2
HIDDEN
 70
64
  3
HIDDEN
 72
65
 73
2
 40
.375
 49
.25
 49
-.125
  0
LTYPE
  2
CENTER
 70
64
  3
CENTER
 72
65
 73
4
 40
2
 49
1.25
 49
-.25
 49
.25
 49
-.25
  0
LTYPE
  2
PHANTOM
 70
64
  3
PHANTOM
 72
65
 73
6
 40
2.5
 49
1.25
 49
-.25
 49
.25
 49
-.25
 49
.25
 49
-.25
  0
ENDTAB
  0
TABLE
  2
LAYER
 70
1
  0
LAYER
  2
1
 70
0
 62
7
  6
CONTINUOUS
 0
ENDTAB
  0
TABLE
  2
STYLE
 70
2
  0
STYLE
  2
MONOTXT
 70
0
 40
0
 41
1
 50
0
 71
0
 42
.2
  3
monotxt
  0
STYLE
  2
BIGFONT
 70
0
 40
0
 41
1
 50
0
 71
0
 42
.2
  3
txt
  4
bigfont
  0
ENDTAB
  0
ENDSEC
  0
SECTION
  2
ENTITIES
  0
LINE
  8
0
 62
4
 10
5.84132844E+01
 20
-5.66904815E+01
 11
5.84132844E+01
 21
-4.01904777E+01
  0
LINE
  8
0
  6
CENTER
 62
6
 10
5.98213349E+01
 20
-4.96904815E+01
 11
5.37586175E+01
 21
-4.96904815E+01
  0
LINE
  8
0
 62
4
 10
4.44132826E+01
 20
-5.79904912E+01
 11
5.52132724E+01
 21
-5.31904940E+01
  0
LINE
  8
0
  6
CENTER
 62
6
 10
3.49132844E+01
 20
-5.48490966E+01
 11
3.49132844E+01
 21
-6.37517303E+01
  0
LINE
  8
0
 62
4
 10
5.52132722E+01
 20
-4.01904777E+01
 11
5.84132844E+01
 21
-4.01904777E+01
  0
LINE
  8
0
 62
4
 10
2.24132882E+01
 20
-5.79904846E+01
 11
2.24132882E+01
 21
-6.11904815E+01
  0
LINE
  8
0
 62
4
 10
5.52132722E+01
 20
-4.01904777E+01
 11
5.52132722E+01
 21
-5.69904846E+01
  0
LINE
  8
0
 62
4
 10
2.24132882E+01
 20
-6.11904815E+01
 11
5.39132844E+01
 21
-6.11904815E+01
  0
LINE
  8
0
 62
4
 10
2.24132882E+01
 20
-5.79904846E+01
 11
5.42132722E+01
 21
-5.79904846E+01
  0
ARC
  8
0
 62
4
 10
5.42132722E+01
 20
-5.69904846E+01
 40
1.00000000E+00
 50
2.70000018E+02
 51
0.00000000E+00
  0
ARC
  8
0
 62
4
 10
5.39132844E+01
 20
-5.66904815E+01
 40
4.50000000E+00
 50
2.70000018E+02
 51
0.00000000E+00
  0
LINE
  8
0
  6
CENTER
 62
6
 10
-6.70867957E+01
 20
-5.83134292E+01
 11
-6.70867957E+01
 21
-4.16709503E+01
  0
LINE
  8
0
  6
CENTER
 62
6
 10
-7.55313910E+01
 20
-4.96904357E+01
 11
-6.07193030E+01
 21
-4.96904357E+01
  0
LINE
  8
0
 62
4
 10
-5.35867499E+01
 20
-5.31904739E+01
 11
-4.35866736E+01
 21
-5.31904739E+01
  0
LINE
  8
0
  6
CENTER
 62
6
 10
-4.85867194E+01
 20
-3.51268333E+01
 11
-4.85867194E+01
 21
-6.26611846E+01
  0
LINE
  8
0
  6
CENTER
 62
6
 10
-3.00867652E+01
 20
-5.80784973E+01
 11
-3.00867652E+01
 21
-4.21140960E+01
  0
LINE
  8
0
  6
CENTER
 62
6
 10
-3.64680823E+01
 20
-4.96904357E+01
 11
-2.19464225E+01
 21
-4.96904357E+01
  0
LINE
  8
0
 62
4
 10
-7.70867652E+01
 20
-6.11904357E+01
 11
-2.00867576E+01
 21
-6.11904357E+01
  0
LINE
  8
0
 62
4
 10
-7.70867652E+01
 20
-5.79904388E+01
 11
-2.00867576E+01
 21
-5.79904388E+01
  0
LINE
  8
0
 62
4
 10
-7.70867652E+01
 20
-5.79904388E+01
 11
-7.70867652E+01
 21
-6.11904357E+01
  0
LINE
  8
0
 62
4
 10
-2.00867576E+01
 20
-5.79904388E+01
 11
-2.00867576E+01
 21
-6.11904357E+01
  0
LINE
  8
0
  6
CENTER
 62
6
 10
-3.05867652E+01
 20
-5.49324707E+01
 11
-3.05867652E+01
 21
-6.43366607E+01
  0
LINE
  8
0
  6
CENTER
 62
6
 10
-6.65867652E+01
 20
-5.48020690E+01
 11
-6.65867652E+01
 21
-6.43366607E+01
  0
LINE
  8
0
 62
4
 10
-7.70867329E+01
 20
-5.79904515E+01
 11
-7.50669700E+01
 21
-4.65358104E+01
  0
LINE
  8
0
 62
4
 10
-7.02000402E+01
 20
-4.16688607E+01
 11
-6.18154850E+01
 21
-4.01904374E+01
  0
LINE
  8
0
 62
4
 10
-2.69735159E+01
 20
-4.16688564E+01
 11
-3.53579509E+01
 21
-4.01904542E+01
  0
LINE
  8
0
 62
4
 10
-2.00867817E+01
 20
-5.79904533E+01
 11
-2.21065446E+01
 21
-4.65358122E+01
  0
LINE
  8
0
 62
4
 10
-5.45867652E+01
 20
-5.43714660E+01
 11
-5.45867652E+01
 21
-5.79904388E+01
  0
LINE
  8
0
 62
4
 10
-4.25867652E+01
 20
-5.43714660E+01
 11
-4.25867652E+01
 21
-5.79904388E+01
  0
LINE
  8
0
 62
4
 10
-5.65867951E+01
 20
-5.79904163E+01
 11
-5.49714125E+01
 21
-5.41134958E+01
  0
LINE
  8
0
 62
4
 10
-4.22021780E+01
 20
-5.41135083E+01
 11
-4.05867896E+01
 21
-5.79904430E+01
  0
ARC
  8
0
 62
4
 10
-4.85867194E+01
 20
-3.11904472E+01
 40
1.60000000E+01
 50
2.14228791E+02
 51
3.25771115E+02
  0
ARC
  8
0
 62
4
 10
-6.91581611E+01
 20
-4.75776886E+01
 40
6.00000000E+00
 50
9.99999867E+01
 51
1.70000048E+02
  0
ARC
  8
0
 62
4
 10
-2.80153617E+01
 20
-4.75776886E+01
 40
6.00000000E+00
 50
9.99991605E+00
 51
7.99999770E+01
  0
ARC
  8
0
 62
4
 10
-5.35867652E+01
 20
-5.46904357E+01
 40
1.50000000E+00
 50
8.99999818E+01
 51
1.57380249E+02
  0
ARC
  8
0
 62
4
 10
-4.35867652E+01
 20
-5.46904357E+01
 40
1.50000000E+00
 50
2.26200446E+01
 51
8.99999818E+01
  0
CIRCLE
  8
0
 62
4
 10
-6.70867957E+01
 20
-4.96904357E+01
 40
2.75000000E+00
  0
CIRCLE
  8
0
 62
4
 10
-3.00867652E+01
 20
-4.96904357E+01
 40
2.75000000E+00
  0
LINE
  8
0
 62
4
 10
5.84133454E+01
 20
8.30952229E+00
 11
5.84133454E+01
 21
6.53095223E+01
  0
LINE
  8
0
  6
CENTER
 62
6
 10
6.18811265E+01
 20
3.68095223E+01
 11
1.50786935E+01
 21
3.68095223E+01
  0
LINE
  8
0
 62
4
 10
3.59133454E+01
 20
2.43095223E+01
 11
3.39133493E+01
 21
2.43095223E+01
  0
LINE
  8
0
  6
CENTER
 62
6
 10
3.49133454E+01
 20
6.37326180E+01
 11
3.49133454E+01
 21
4.63585335E+01
  0
LINE
  8
0
 62
4
 10
3.59133454E+01
 20
1.33095223E+01
 11
3.39133493E+01
 21
1.33095223E+01
  0
LINE
  8
0
  6
CENTER
 62
6
 10
4.41915589E+01
 20
5.48095223E+01
 11
2.60245553E+01
 21
5.48095223E+01
  0
LINE
  8
0
 62
4
 10
5.84133454E+01
 20
8.30952229E+00
 11
3.04133493E+01
 21
8.30952229E+00
  0
LINE
  8
0
  6
CENTER
 62
6
 10
4.46813890E+01
 20
1.88095223E+01
 11
2.60245553E+01
 21
1.88095223E+01
  0
LINE
  8
0
 62
4
 10
5.52133332E+01
 20
8.30952229E+00
 11
5.52133332E+01
 21
6.53095223E+01
  0
LINE
  8
0
  6
CENTER
 62
6
 10
3.49133454E+01
 20
9.88642659E+00
 11
3.49133454E+01
 21
2.72605111E+01
  0
LINE
  8
0
 62
4
 10
2.24133493E+01
 20
1.63095223E+01
 11
2.24133493E+01
 21
5.73095223E+01
  0
LINE
  8
0
 62
4
 10
3.59133454E+01
 20
6.03095223E+01
 11
3.39133493E+01
 21
6.03095223E+01
  0
LINE
  8
0
 62
4
 10
3.59133454E+01
 20
4.93095223E+01
 11
3.39133493E+01
 21
4.93095223E+01
  0
LINE
  8
0
 62
4
 10
5.84133454E+01
 20
6.53095223E+01
 11
3.04133493E+01
 21
6.53095223E+01
  0
LINE
  8
0
 62
4
 10
5.52133332E+01
 20
3.08095223E+01
 11
4.62146150E+01
 21
3.08095223E+01
  0
LINE
  8
0
 62
4
 10
5.52133332E+01
 20
4.28095223E+01
 11
4.62146150E+01
 21
4.28095223E+01
  0
LINE
  8
0
 62
4
 10
4.44133454E+01
 20
3.20572640E+01
 11
4.44133454E+01
 21
4.15617806E+01
  0
LINE
  8
0
 62
4
 10
5.52133615E+01
 20
2.88095101E+01
 11
4.56402289E+01
 21
3.05823119E+01
  0
LINE
  8
0
 62
4
 10
4.56401809E+01
 20
4.30366860E+01
 11
5.52133172E+01
 21
4.48094885E+01
  0
LINE
  8
0
  6
DASHED
 62
7
 10
5.52133332E+01
 20
5.22971932E+01
 11
5.52133332E+01
 21
5.00595528E+01
  0
LINE
  8
0
 62
4
 10
5.52133332E+01
 20
2.08095833E+01
 11
5.84132234E+01
 21
2.08095833E+01
  0
LINE
  8
0
 62
4
 10
5.52133332E+01
 20
5.28096138E+01
 11
5.84132234E+01
 21
5.28096138E+01
  0
LINE
  8
0
  6
CENTER
 62
6
 10
5.34983369E+01
 20
5.53095986E+01
 11
6.01110498E+01
 21
5.53095986E+01
  0
LINE
  8
0
  6
CENTER
 62
6
 10
5.33758813E+01
 20
1.83095681E+01
 11
6.01110498E+01
 21
1.83095681E+01
  0
ARC
  8
0
 62
4
 10
3.59133454E+01
 20
1.88095223E+01
 40
5.50000000E+00
 50
2.70000025E+02
 51
8.99999956E+01
  0
ARC
  8
0
 62
4
 10
3.39133493E+01
 20
1.88095223E+01
 40
5.50000000E+00
 50
8.99999956E+01
 51
2.70000028E+02
  0
ARC
  8
0
 62
4
 10
3.04133493E+01
 20
1.63095223E+01
 40
8.00000000E+00
 50
1.79999977E+02
 51
2.70000028E+02
  0
ARC
  8
0
 62
4
 10
3.59133454E+01
 20
5.48095223E+01
 40
5.50000000E+00
 50
2.70000025E+02
 51
8.99999956E+01
  0
ARC
  8
0
 62
4
 10
3.39133493E+01
 20
5.48095223E+01
 40
5.50000000E+00
 50
8.99999956E+01
 51
2.70000028E+02
  0
ARC
  8
0
 62
4
 10
3.04133493E+01
 20
5.73095223E+01
 40
8.00000000E+00
 50
8.99999956E+01
 51
1.80000032E+02
  0
ARC
  8
0
 62
4
 10
4.59133454E+01
 20
3.20572640E+01
 40
1.50000000E+00
 50
1.79999977E+02
 51
2.59508639E+02
  0
ARC
  8
0
 62
4
 10
4.59133454E+01
 20
4.15617806E+01
 40
1.50000000E+00
 50
1.00491371E+02
 51
1.79999977E+02
  0
TEXT
  8
0
 62
7
 10
-1.32642850E+02
 20
8.79000001E+01
 40
3.19999981E+00
  1
NEW DYNA CYLINDER
 41
1.07594937E+00
  7
MONOTXT
  0
LINE
  8
0
 62
7
 10
-1.38399994E+02
 20
8.45000000E+01
 11
-7.33999939E+01
 21
8.45000000E+01
  0
LINE
  8
0
 62
7
 10
-7.33999939E+01
 20
9.45000000E+01
 11
-7.33999939E+01
 21
8.45000000E+01
  0
LINE
  8
0
 62
7
 10
7.33500061E+01
 20
-8.48000031E+01
 11
1.38350006E+02
 21
-8.48000031E+01
  0
LINE
  8
0
 62
7
 10
7.33500061E+01
 20
-8.48000031E+01
 11
7.33500061E+01
 21
-9.48000031E+01
  0
TEXT
  8
0
 62
7
 10
7.72426624E+01
 20
-9.20500031E+01
 40
4.50000000E+00
  1
KOGANEI CORP.
 41
1.04838710E+00
  7
MONOTXT
  0
LINE
  8
0
 62
7
 10
7.33500061E+01
 20
8.45000000E+01
 11
1.38350006E+02
 21
8.45000000E+01
  0
LINE
  8
0
 62
7
 10
7.33500061E+01
 20
9.45000000E+01
 11
7.33500061E+01
 21
8.45000000E+01
  0
TEXT
  8
0
 62
7
 10
9.35071493E+01
 20
8.79000001E+01
 40
3.19999981E+00
  1
Ver. 1.0
 41
1.08108108E+00
  7
MONOTXT
  0
LINE
  8
0
 62
7
 10
-1.38399994E+02
 20
9.45000000E+01
 11
1.38350006E+02
 21
9.45000000E+01
  0
LINE
  8
0
 62
7
 10
1.38350006E+02
 20
9.45000000E+01
 11
1.38350006E+02
 21
-9.48000031E+01
  0
LINE
  8
0
 62
7
 10
-1.38399994E+02
 20
-9.48000031E+01
 11
1.38350006E+02
 21
-9.48000031E+01
  0
LINE
  8
0
 62
7
 10
-1.38399994E+02
 20
9.45000000E+01
 11
-1.38399994E+02
 21
-9.48000031E+01
  0
TEXT
  8
0
 62
7
 10
-1.29085994E+02
 20
7.29000001E+01
 40
3.19999981E+00
  1
MODEL:DDA40-1
 41
1.00000000E+00
  7
MONOTXT
  0
ENDSEC
  0
EOF
