  0
SECTION
  2
HEADER
  9
$ACADVER
  1
AC1003
  9
$EXTMIN
 10
-1.38399994E+02
 20
-9.48000031E+01
  9
$EXTMAX
 10
1.38350006E+02
 20
9.45000000E+01
  9
$LIMMIN
 10
-1.38400994E+02
 20
-9.48010031E+01
  9
$LIMMAX
 10
1.38351006E+02
 20
9.45010000E+01
  9
$SNAPUNIT
 10
1
 20
1
  9
$SNAPBASE
 10
0
 20
0
  9
$GRIDMODE
 70
0
  9
$GRIDUNIT
 10
0
 20
0
  9
$LTSCALE
 40
4.61250000E+00
  9
$TEXTSIZE
 40
3.2
  9
$DIMTAD
 70
0
  9
$LUNITS
 70
2
  9
$LUPREC
 70
4
  9
$FILLETRAD
 40
0
  9
$AUNITS
 70
0
  9
$AUPREC
 70
0
  0
ENDSEC
  0
SECTION
  2
TABLES
  0
TABLE
  2
LTYPE
 70
2
  0
LTYPE
  2
CONTINUOUS
 70
64
  3
Solid-Line
 72
65
 73
0
 40
0
  0
LTYPE
  2
DASHED
 70
64
  3
DASHED
 72
65
 73
2
 40
.75
 49
.5
 49
-.25
  0
LTYPE
  2
HIDDEN
 70
64
  3
HIDDEN
 72
65
 73
2
 40
.375
 49
.25
 49
-.125
  0
LTYPE
  2
CENTER
 70
64
  3
CENTER
 72
65
 73
4
 40
2
 49
1.25
 49
-.25
 49
.25
 49
-.25
  0
LTYPE
  2
PHANTOM
 70
64
  3
PHANTOM
 72
65
 73
6
 40
2.5
 49
1.25
 49
-.25
 49
.25
 49
-.25
 49
.25
 49
-.25
  0
ENDTAB
  0
TABLE
  2
LAYER
 70
1
  0
LAYER
  2
1
 70
0
 62
7
  6
CONTINUOUS
 0
ENDTAB
  0
TABLE
  2
STYLE
 70
2
  0
STYLE
  2
MONOTXT
 70
0
 40
0
 41
1
 50
0
 71
0
 42
.2
  3
monotxt
  0
STYLE
  2
BIGFONT
 70
0
 40
0
 41
1
 50
0
 71
0
 42
.2
  3
txt
  4
bigfont
  0
ENDTAB
  0
ENDSEC
  0
SECTION
  2
ENTITIES
  0
LINE
  8
0
  6
CENTER
 62
6
 10
-1.93999939E+01
 20
-2.23000183E+01
 11
-1.93999939E+01
 21
-6.73000183E+01
  0
LINE
  8
0
 62
4
 10
-3.33999939E+01
 20
-3.53000183E+01
 11
-3.83999939E+01
 21
-3.53000183E+01
  0
LINE
  8
0
 62
4
 10
-3.33999939E+01
 20
-5.43000183E+01
 11
-3.83999939E+01
 21
-5.43000183E+01
  0
LINE
  8
0
 62
4
 10
-3.23999939E+01
 20
-6.63000183E+01
 11
-3.83999939E+01
 21
-6.63000183E+01
  0
LINE
  8
0
 62
4
 10
-3.23999939E+01
 20
-2.33000183E+01
 11
-3.83999939E+01
 21
-2.33000183E+01
  0
LINE
  8
0
 62
4
 10
-3.33999990E+01
 20
-5.43000357E+01
 11
-3.03999737E+01
 21
-5.73000600E+01
  0
LINE
  8
0
 62
4
 10
-3.33999898E+01
 20
-3.53000196E+01
 11
-3.03999473E+01
 21
-3.22999693E+01
  0
LINE
  8
0
 62
4
 10
-3.03999504E+01
 20
-2.70786427E+01
 11
-9.75258028E+00
 21
-3.42839205E+01
  0
LINE
  8
0
 62
4
 10
-3.03999630E+01
 20
-6.25213771E+01
 11
-9.75257850E+00
 21
-5.53160942E+01
  0
LINE
  8
0
 62
4
 10
-3.83999939E+01
 20
-6.63000183E+01
 11
-3.83999939E+01
 21
-2.33000183E+01
  0
LINE
  8
0
  6
CENTER
 62
6
 10
-4.04586487E+01
 20
-2.83000031E+01
 11
-2.44973145E+01
 21
-2.83000031E+01
  0
LINE
  8
0
  6
CENTER
 62
6
 10
-4.59064178E+01
 20
-4.48000031E+01
 11
9.79064941E-01
 21
-4.48000031E+01
  0
LINE
  8
0
  6
CENTER
 62
6
 10
-4.35952454E+01
 20
-6.13000031E+01
 11
-2.44973145E+01
 21
-6.13000031E+01
  0
LINE
  8
0
 62
4
 10
-6.39999390E+00
 20
-5.05953064E+01
 11
-6.39999390E+00
 21
-3.90047150E+01
  0
LINE
  8
0
 62
4
 10
-3.03999634E+01
 20
-6.43000183E+01
 11
-3.03999634E+01
 21
-5.73000488E+01
  0
LINE
  8
0
 62
4
 10
-3.03999634E+01
 20
-3.22999725E+01
 11
-3.03999634E+01
 21
-2.53000183E+01
  0
CIRCLE
  8
0
 62
4
 10
-1.93999939E+01
 20
-4.48000183E+01
 40
1.10000000E+01
  0
CIRCLE
  8
0
 62
4
 10
-1.93999939E+01
 20
-4.48000183E+01
 40
6.00000000E+00
  0
ARC
  8
0
 62
4
 10
-3.23999939E+01
 20
-6.43000183E+01
 40
2.00000000E+00
 50
2.70000018E+02
 51
0.00000000E+00
  0
ARC
  8
0
 62
4
 10
-3.23999939E+01
 20
-2.53000183E+01
 40
2.00000000E+00
 50
3.59999964E+02
 51
8.99999818E+01
  0
ARC
  8
0
 62
4
 10
-1.13999939E+01
 20
-5.05953064E+01
 40
5.00000000E+00
 50
2.86927522E+02
 51
7.33108294E-05
  0
ARC
  8
0
 62
4
 10
-1.13999939E+01
 20
-3.90047150E+01
 40
5.00000000E+00
 50
9.06136586E-05
 51
7.30725328E+01
  0
LINE
  8
0
 62
4
 10
5.36000042E+01
 20
-5.57999878E+01
 11
5.46000042E+01
 21
-5.57999878E+01
  0
LINE
  8
0
 62
4
 10
6.86000061E+01
 20
-3.14343262E+01
 11
6.86000061E+01
 21
-5.81656647E+01
  0
LINE
  8
0
 62
4
 10
5.46000042E+01
 20
-5.42999878E+01
 11
6.86000061E+01
 21
-5.42999878E+01
  0
LINE
  8
0
 62
4
 10
4.49255091E+01
 20
-6.57177028E+01
 11
6.16000398E+01
 21
-6.62999903E+01
  0
LINE
  8
0
 62
4
 10
5.36000042E+01
 20
-3.37999878E+01
 11
5.36000042E+01
 21
-5.57999878E+01
  0
LINE
  8
0
 62
4
 10
6.15999928E+01
 20
-6.62999962E+01
 11
7.82745034E+01
 21
-6.57177094E+01
  0
LINE
  8
0
 62
4
 10
4.49255064E+01
 20
-2.38822788E+01
 11
6.16000466E+01
 21
-2.32999910E+01
  0
LINE
  8
0
 62
4
 10
8.30292110E+01
 20
-3.23000183E+01
 11
6.86000061E+01
 21
-3.23000183E+01
  0
LINE
  8
0
 62
4
 10
5.46000042E+01
 20
-3.37999878E+01
 11
5.36000042E+01
 21
-3.37999878E+01
  0
LINE
  8
0
 62
4
 10
5.46000042E+01
 20
-3.23000183E+01
 11
4.01708012E+01
 21
-3.23000183E+01
  0
LINE
  8
0
 62
4
 10
5.66000061E+01
 20
-2.94343262E+01
 11
6.66000061E+01
 21
-2.94343262E+01
  0
LINE
  8
0
 62
4
 10
4.01000042E+01
 20
-5.79478760E+01
 11
4.01000042E+01
 21
-6.07207489E+01
  0
LINE
  8
0
 62
4
 10
6.96000061E+01
 20
-3.37999878E+01
 11
6.86000061E+01
 21
-3.37999878E+01
  0
LINE
  8
0
 62
4
 10
5.66000061E+01
 20
-6.01656647E+01
 11
6.66000061E+01
 21
-6.01656647E+01
  0
LINE
  8
0
 62
4
 10
6.96000235E+01
 20
-3.50206116E+01
 11
8.02047041E+01
 21
-3.46502880E+01
  0
LINE
  8
0
 62
4
 10
5.36000162E+01
 20
-5.45793831E+01
 11
4.29953351E+01
 21
-5.49497068E+01
  0
LINE
  8
0
 62
4
 10
4.01000042E+01
 20
-5.72999878E+01
 11
5.46000042E+01
 21
-5.72999878E+01
  0
LINE
  8
0
 62
4
 10
8.31000061E+01
 20
-5.79478760E+01
 11
8.31000061E+01
 21
-6.07207565E+01
  0
LINE
  8
0
 62
4
 10
8.02046962E+01
 20
-5.49497085E+01
 11
6.96000161E+01
 21
-5.45793849E+01
  0
LINE
  8
0
  6
CENTER
 62
6
 10
7.44493046E+01
 20
-2.83000031E+01
 11
8.21104922E+01
 21
-2.83000031E+01
  0
LINE
  8
0
  6
CENTER
 62
6
 10
7.44493046E+01
 20
-6.13000031E+01
 11
8.17114720E+01
 21
-6.13000031E+01
  0
LINE
  8
0
  6
CENTER
 62
6
 10
4.51000042E+01
 20
-5.75505600E+01
 11
4.51000042E+01
 21
-6.50521393E+01
  0
LINE
  8
0
  6
CENTER
 62
6
 10
7.81000061E+01
 20
-2.42722778E+01
 11
7.81000061E+01
 21
-3.17738571E+01
  0
LINE
  8
0
 62
4
 10
4.01000042E+01
 20
-2.88792343E+01
 11
4.01000042E+01
 21
-3.16521301E+01
  0
LINE
  8
0
  6
CENTER
 62
6
 10
4.51000042E+01
 20
-2.47510986E+01
 11
4.51000042E+01
 21
-3.19334641E+01
  0
LINE
  8
0
  6
CENTER
 62
6
 10
4.10114117E+01
 20
-2.83000031E+01
 11
4.89918156E+01
 21
-2.83000031E+01
  0
LINE
  8
0
  6
CENTER
 62
6
 10
4.11710186E+01
 20
-6.13000031E+01
 11
4.88322086E+01
 21
-6.13000031E+01
  0
LINE
  8
0
 62
4
 10
8.31000061E+01
 20
-2.88792343E+01
 11
8.31000061E+01
 21
-3.16521301E+01
  0
LINE
  8
0
  6
CENTER
 62
6
 10
7.81000061E+01
 20
-5.77101746E+01
 11
7.81000061E+01
 21
-6.49723358E+01
  0
LINE
  8
0
 62
4
 10
4.29953258E+01
 20
-3.46502896E+01
 11
5.36000069E+01
 21
-3.50206133E+01
  0
LINE
  8
0
 62
4
 10
6.86000061E+01
 20
-5.72999878E+01
 11
8.31000061E+01
 21
-5.72999878E+01
  0
LINE
  8
0
 62
4
 10
5.46000042E+01
 20
-3.52999878E+01
 11
6.86000061E+01
 21
-3.52999878E+01
  0
LINE
  8
0
 62
4
 10
6.86000061E+01
 20
-5.57999878E+01
 11
6.96000061E+01
 21
-5.57999878E+01
  0
LINE
  8
0
 62
4
 10
6.15999856E+01
 20
-2.32999927E+01
 11
7.82745030E+01
 21
-2.38822797E+01
  0
LINE
  8
0
 62
4
 10
5.46000042E+01
 20
-3.14343262E+01
 11
5.46000042E+01
 21
-5.81656647E+01
  0
LINE
  8
0
 62
4
 10
6.96000061E+01
 20
-3.37999878E+01
 11
6.96000061E+01
 21
-5.57999878E+01
  0
LINE
  8
0
  6
CENTER
 62
6
 10
6.16000061E+01
 20
-2.04699554E+01
 11
6.16000061E+01
 21
-6.96670990E+01
  0
LINE
  8
0
  6
CENTER
 62
6
 10
8.59990538E+01
 20
-4.48000031E+01
 11
3.66401653E+01
 21
-4.48000031E+01
  0
ARC
  8
0
 62
4
 10
5.66000061E+01
 20
-5.81656647E+01
 40
2.00000000E+00
 50
1.79999964E+02
 51
2.70000001E+02
  0
ARC
  8
0
 62
4
 10
6.66000061E+01
 20
-5.81656647E+01
 40
2.00000000E+00
 50
2.70000018E+02
 51
0.00000000E+00
  0
ARC
  8
0
 62
4
 10
5.66000061E+01
 20
-3.14343262E+01
 40
2.00000000E+00
 50
8.99999818E+01
 51
1.79999964E+02
  0
ARC
  8
0
 62
4
 10
4.31000042E+01
 20
-3.16521301E+01
 40
3.00000000E+00
 50
1.80000036E+02
 51
2.68000029E+02
  0
ARC
  8
0
 62
4
 10
8.01000061E+01
 20
-3.16521301E+01
 40
3.00000000E+00
 50
2.72000007E+02
 51
3.59999994E+02
  0
ARC
  8
0
 62
4
 10
4.31000042E+01
 20
-5.79478760E+01
 40
3.00000000E+00
 50
9.19999707E+01
 51
1.79999964E+02
  0
ARC
  8
0
 62
4
 10
8.01000061E+01
 20
-5.79478760E+01
 40
3.00000000E+00
 50
6.15678199E-06
 51
8.79999936E+01
  0
ARC
  8
0
 62
4
 10
6.66000061E+01
 20
-3.14343262E+01
 40
2.00000000E+00
 50
0.00000000E+00
 51
8.99999818E+01
  0
ARC
  8
0
 62
4
 10
4.51000042E+01
 20
-6.07207489E+01
 40
5.00000000E+00
 50
1.79999995E+02
 51
2.68000002E+02
  0
ARC
  8
0
 62
4
 10
7.81000061E+01
 20
-6.07207565E+01
 40
5.00000000E+00
 50
2.72000000E+02
 51
0.00000000E+00
  0
ARC
  8
0
 62
4
 10
4.51000042E+01
 20
-2.88792343E+01
 40
5.00000000E+00
 50
9.19999982E+01
 51
1.80000005E+02
  0
ARC
  8
0
 62
4
 10
7.81000061E+01
 20
-2.88792343E+01
 40
5.00000000E+00
 50
0.00000000E+00
 51
8.79999999E+01
  0
CIRCLE
  8
0
 62
4
 10
4.51000042E+01
 20
-2.83000031E+01
 40
2.75000000E+00
  0
CIRCLE
  8
0
 62
4
 10
7.81000061E+01
 20
-2.83000031E+01
 40
2.75000000E+00
  0
CIRCLE
  8
0
 62
4
 10
4.51000042E+01
 20
-6.13000031E+01
 40
2.75000000E+00
  0
CIRCLE
  8
0
 62
4
 10
7.81000061E+01
 20
-6.13000031E+01
 40
2.75000000E+00
  0
LINE
  8
0
 62
4
 10
-8.89999390E+00
 20
3.71999969E+01
 11
-2.90457458E+01
 21
3.71999969E+01
  0
LINE
  8
0
 62
4
 10
-8.39999390E+00
 20
3.84679413E+01
 11
-8.39999390E+00
 21
3.76999969E+01
  0
LINE
  8
0
 62
4
 10
-8.40003685E+00
 20
3.76999899E+01
 11
-8.90002853E+00
 21
3.72000020E+01
  0
LINE
  8
0
 62
4
 10
-8.90001078E+00
 20
5.32000110E+01
 11
-8.40000452E+00
 21
5.26999946E+01
  0
LINE
  8
0
 62
4
 10
-3.83999939E+01
 20
2.36999969E+01
 11
-3.83999939E+01
 21
6.66999664E+01
  0
LINE
  8
0
 62
4
 10
-8.39999390E+00
 20
5.26999664E+01
 11
-8.39999390E+00
 21
5.19320221E+01
  0
LINE
  8
0
  6
CENTER
 62
6
 10
-4.27162476E+01
 20
6.16999969E+01
 11
-2.41515503E+01
 21
6.16999969E+01
  0
LINE
  8
0
  6
CENTER
 62
6
 10
-4.37460938E+01
 20
2.87000275E+01
 11
-2.41515503E+01
 21
2.87000275E+01
  0
LINE
  8
0
  6
CENTER
 62
6
 10
-4.37460938E+01
 20
4.51999969E+01
 11
-1.52236938E+00
 21
4.51999969E+01
  0
LINE
  8
0
  6
CENTER
 62
6
 10
-1.93999939E+01
 20
5.51999969E+01
 11
-1.93999939E+01
 21
3.51999969E+01
  0
LINE
  8
0
 62
4
 10
-8.39999390E+00
 20
5.21999969E+01
 11
-2.63999939E+01
 21
5.21999969E+01
  0
LINE
  8
0
 62
4
 10
-6.39999390E+00
 20
5.01999969E+01
 11
-6.39999390E+00
 21
4.01999969E+01
  0
LINE
  8
0
 62
4
 10
-8.39999390E+00
 20
3.81999969E+01
 11
-2.63999939E+01
 21
3.81999969E+01
  0
LINE
  8
0
 62
4
 10
-8.89999390E+00
 20
5.31999969E+01
 11
-2.90457458E+01
 21
5.31999969E+01
  0
LINE
  8
0
 62
4
 10
-3.23999939E+01
 20
2.36999969E+01
 11
-3.83999939E+01
 21
2.36999969E+01
  0
LINE
  8
0
 62
4
 10
-3.23999939E+01
 20
6.66999664E+01
 11
-3.83999939E+01
 21
6.66999664E+01
  0
LINE
  8
0
 62
4
 10
-3.03999939E+01
 20
6.46999969E+01
 11
-3.03999939E+01
 21
2.57000275E+01
  0
ARC
  8
0
 62
4
 10
-2.63999939E+01
 20
3.41999969E+01
 40
4.00000000E+00
 50
8.99999274E+01
 51
1.79999964E+02
  0
ARC
  8
0
 62
4
 10
-2.63999939E+01
 20
5.61999969E+01
 40
4.00000000E+00
 50
1.80000036E+02
 51
2.70000018E+02
  0
ARC
  8
0
 62
4
 10
-3.23999939E+01
 20
2.57000275E+01
 40
2.00000000E+00
 50
2.70000018E+02
 51
3.59999982E+02
  0
ARC
  8
0
 62
4
 10
-3.23999939E+01
 20
6.46999969E+01
 40
2.00000000E+00
 50
3.59999982E+02
 51
8.99999274E+01
  0
ARC
  8
0
 62
4
 10
-8.39999390E+00
 20
4.01999969E+01
 40
2.00000000E+00
 50
2.70000018E+02
 51
3.59999982E+02
  0
ARC
  8
0
 62
4
 10
-8.39999390E+00
 20
5.01999969E+01
 40
2.00000000E+00
 50
6.36106081E-15
 51
8.99999274E+01
  0
LINE
  8
0
 62
7
 10
7.33500061E+01
 20
-8.48000031E+01
 11
1.38350006E+02
 21
-8.48000031E+01
  0
LINE
  8
0
 62
7
 10
7.33500061E+01
 20
-8.48000031E+01
 11
7.33500061E+01
 21
-9.48000031E+01
  0
TEXT
  8
0
 62
7
 10
7.72426624E+01
 20
-9.20500031E+01
 40
4.50000000E+00
  1
KOGANEI CORP.
 41
1.04838710E+00
  7
MONOTXT
  0
TEXT
  8
0
 62
7
 10
9.35071493E+01
 20
8.79000001E+01
 40
3.19999981E+00
  1
Ver. 1.0
 41
1.08108108E+00
  7
MONOTXT
  0
LINE
  8
0
 62
7
 10
7.33500061E+01
 20
8.45000000E+01
 11
1.38350006E+02
 21
8.45000000E+01
  0
LINE
  8
0
 62
7
 10
7.33500061E+01
 20
9.45000000E+01
 11
7.33500061E+01
 21
8.45000000E+01
  0
LINE
  8
0
 62
7
 10
-1.38399994E+02
 20
8.45000000E+01
 11
-7.33999939E+01
 21
8.45000000E+01
  0
LINE
  8
0
 62
7
 10
-7.33999939E+01
 20
9.45000000E+01
 11
-7.33999939E+01
 21
8.45000000E+01
  0
TEXT
  8
0
 62
7
 10
-1.32642850E+02
 20
8.79000001E+01
 40
3.19999981E+00
  1
NEW DYNA CYLINDER
 41
1.07594937E+00
  7
MONOTXT
  0
LINE
  8
0
 62
7
 10
-1.38399994E+02
 20
9.45000000E+01
 11
1.38350006E+02
 21
9.45000000E+01
  0
LINE
  8
0
 62
7
 10
1.38350006E+02
 20
9.45000000E+01
 11
1.38350006E+02
 21
-9.48000031E+01
  0
LINE
  8
0
 62
7
 10
-1.38399994E+02
 20
-9.48000031E+01
 11
1.38350006E+02
 21
-9.48000031E+01
  0
LINE
  8
0
 62
7
 10
-1.38399994E+02
 20
9.45000000E+01
 11
-1.38399994E+02
 21
-9.48000031E+01
  0
TEXT
  8
0
 62
7
 10
-1.29085994E+02
 20
7.29000001E+01
 40
3.19999981E+00
  1
MODEL:DDA32-8
 41
1.00000000E+00
  7
MONOTXT
  0
ENDSEC
  0
EOF
