  0
SECTION
  2
HEADER
  9
$ACADVER
  1
AC1003
  9
$EXTMIN
 10
-1.94250000E+02
 20
-1.33500000E+02
  9
$EXTMAX
 10
1.94800003E+02
 20
1.32600006E+02
  9
$LIMMIN
 10
-1.94251000E+02
 20
-1.33501000E+02
  9
$LIMMAX
 10
1.94801003E+02
 20
1.32601006E+02
  9
$SNAPUNIT
 10
1
 20
1
  9
$SNAPBASE
 10
0
 20
0
  9
$GRIDMODE
 70
0
  9
$GRIDUNIT
 10
0
 20
0
  9
$LTSCALE
 40
6.48416672E+00
  9
$TEXTSIZE
 40
3.2
  9
$DIMTAD
 70
0
  9
$LUNITS
 70
2
  9
$LUPREC
 70
4
  9
$FILLETRAD
 40
0
  9
$AUNITS
 70
0
  9
$AUPREC
 70
0
  0
ENDSEC
  0
SECTION
  2
TABLES
  0
TABLE
  2
LTYPE
 70
2
  0
LTYPE
  2
CONTINUOUS
 70
64
  3
Solid-Line
 72
65
 73
0
 40
0
  0
LTYPE
  2
DASHED
 70
64
  3
DASHED
 72
65
 73
2
 40
.75
 49
.5
 49
-.25
  0
LTYPE
  2
HIDDEN
 70
64
  3
HIDDEN
 72
65
 73
2
 40
.375
 49
.25
 49
-.125
  0
LTYPE
  2
CENTER
 70
64
  3
CENTER
 72
65
 73
4
 40
2
 49
1.25
 49
-.25
 49
.25
 49
-.25
  0
LTYPE
  2
PHANTOM
 70
64
  3
PHANTOM
 72
65
 73
6
 40
2.5
 49
1.25
 49
-.25
 49
.25
 49
-.25
 49
.25
 49
-.25
  0
ENDTAB
  0
TABLE
  2
LAYER
 70
1
  0
LAYER
  2
1
 70
0
 62
7
  6
CONTINUOUS
 0
ENDTAB
  0
TABLE
  2
STYLE
 70
2
  0
STYLE
  2
MONOTXT
 70
0
 40
0
 41
1
 50
0
 71
0
 42
.2
  3
monotxt
  0
STYLE
  2
BIGFONT
 70
0
 40
0
 41
1
 50
0
 71
0
 42
.2
  3
txt
  4
bigfont
  0
ENDTAB
  0
ENDSEC
  0
SECTION
  2
ENTITIES
  0
LINE
  8
0
  6
CENTER
 62
6
 10
1.60945516E+01
 20
6.01222733E+01
 11
1.07529423E+02
 21
6.01220857E+01
  0
LINE
  8
0
  6
CENTER
 62
6
 10
3.20691074E+01
 20
1.08401141E+02
 11
3.20690566E+01
 21
8.36413445E+01
  0
LINE
  8
0
 62
4
 10
4.20690357E+01
 20
8.92498140E+01
 11
4.20690600E+01
 21
1.01084958E+02
  0
LINE
  8
0
 62
4
 10
1.02569061E+02
 20
1.02622096E+02
 11
2.15690651E+01
 21
1.02622262E+02
  0
LINE
  8
0
 62
4
 10
2.15690343E+01
 20
8.76222926E+01
 11
2.15690651E+01
 21
1.02622293E+02
  0
LINE
  8
0
  6
CENTER
 62
6
 10
9.20689937E+01
 20
8.36411909E+01
 11
9.20690445E+01
 21
1.08401018E+02
  0
LINE
  8
0
 62
4
 10
8.20690590E+01
 20
1.01084876E+02
 11
8.20690348E+01
 21
8.92497319E+01
  0
LINE
  8
0
  6
CENTER
 62
6
 10
1.07529495E+02
 20
9.51220857E+01
 11
1.60946234E+01
 21
9.51222733E+01
  0
LINE
  8
0
 62
4
 10
1.02569030E+02
 20
8.76220958E+01
 11
2.15690343E+01
 21
8.76222621E+01
  0
LINE
  8
0
 62
4
 10
4.20688919E+01
 20
1.91594667E+01
 11
4.20689162E+01
 21
3.09946107E+01
  0
LINE
  8
0
 62
4
 10
1.02569061E+02
 20
1.02622096E+02
 11
1.02569030E+02
 21
8.76220958E+01
  0
LINE
  8
0
  6
CENTER
 62
6
 10
3.20689601E+01
 20
3.66031365E+01
 11
3.20689093E+01
 21
1.18433404E+01
  0
LINE
  8
0
 62
4
 10
2.15688906E+01
 20
1.76222468E+01
 11
2.15689214E+01
 21
3.26222468E+01
  0
LINE
  8
0
  6
CENTER
 62
6
 10
9.20688769E+01
 20
1.18432325E+01
 11
9.20689277E+01
 21
3.66030286E+01
  0
LINE
  8
0
 62
4
 10
8.20689152E+01
 20
3.09945439E+01
 11
8.20688909E+01
 21
1.91593999E+01
  0
LINE
  8
0
  6
CENTER
 62
6
 10
1.60944797E+01
 20
2.51222733E+01
 11
1.07529351E+02
 21
2.51220857E+01
  0
LINE
  8
0
 62
4
 10
2.15688906E+01
 20
1.76222621E+01
 11
1.02568887E+02
 21
1.76220958E+01
  0
LINE
  8
0
 62
4
 10
2.15689214E+01
 20
3.26222621E+01
 11
1.02568918E+02
 21
3.26220958E+01
  0
LINE
  8
0
 62
4
 10
1.02568918E+02
 20
3.26220958E+01
 11
1.02568887E+02
 21
1.76220958E+01
  0
ARC
  8
0
 62
4
 10
3.20690497E+01
 20
9.51222405E+01
 40
8.50000000E+00
 50
1.18072433E+02
 51
2.41927423E+02
  0
ARC
  8
0
 62
4
 10
3.20690497E+01
 20
9.51222405E+01
 40
8.50000000E+00
 50
2.98072415E+02
 51
6.19273497E+01
  0
CIRCLE
  8
0
 62
4
 10
3.20690497E+01
 20
9.51222405E+01
 40
4.50000000E+00
  0
CIRCLE
  8
0
 62
4
 10
6.20690478E+01
 20
9.51221789E+01
 40
4.00000000E+00
  0
CIRCLE
  8
0
 62
4
 10
6.20690478E+01
 20
9.51221789E+01
 40
2.00000000E+00
  0
ARC
  8
0
 62
4
 10
9.20690478E+01
 20
9.51221174E+01
 40
8.50000000E+00
 50
2.98072415E+02
 51
6.19273497E+01
  0
ARC
  8
0
 62
4
 10
9.20690478E+01
 20
9.51221174E+01
 40
8.50000000E+00
 50
1.18072379E+02
 51
2.41927423E+02
  0
CIRCLE
  8
0
 62
4
 10
9.20690478E+01
 20
9.51221174E+01
 40
4.50000000E+00
  0
ARC
  8
0
 62
4
 10
3.20689060E+01
 20
2.51222405E+01
 40
8.50000000E+00
 50
1.18072325E+02
 51
2.41927314E+02
  0
ARC
  8
0
 62
4
 10
3.20689060E+01
 20
2.51222405E+01
 40
8.50000000E+00
 50
2.98072415E+02
 51
6.19274042E+01
  0
CIRCLE
  8
0
 62
4
 10
3.20689060E+01
 20
2.51222405E+01
 40
4.50000000E+00
  0
CIRCLE
  8
0
 62
4
 10
6.20689041E+01
 20
2.51221789E+01
 40
4.00000000E+00
  0
CIRCLE
  8
0
 62
4
 10
6.20689041E+01
 20
2.51221789E+01
 40
2.00000000E+00
  0
ARC
  8
0
 62
4
 10
9.20689041E+01
 20
2.51221174E+01
 40
8.50000000E+00
 50
2.98072415E+02
 51
6.19274042E+01
  0
ARC
  8
0
 62
4
 10
9.20689041E+01
 20
2.51221174E+01
 40
8.50000000E+00
 50
1.18072325E+02
 51
2.41927368E+02
  0
CIRCLE
  8
0
 62
4
 10
9.20689041E+01
 20
2.51221174E+01
 40
4.50000000E+00
  0
LINE
  8
0
 62
4
 10
6.90690110E+01
 20
1.03622143E+02
 11
5.50690100E+01
 21
1.03622154E+02
  0
LINE
  8
0
 62
4
 10
7.00689436E+01
 20
1.02622131E+02
 11
6.90689437E+01
 21
1.03622133E+02
  0
LINE
  8
0
  6
CENTER
 62
6
 10
4.33486571E+01
 20
7.66221940E+01
 11
8.08711891E+01
 21
7.66221638E+01
  0
LINE
  8
0
  6
CENTER
 62
6
 10
4.28355957E+01
 20
4.36222250E+01
 11
8.07087272E+01
 21
4.36221944E+01
  0
LINE
  8
0
 62
4
 10
4.85978022E+01
 20
8.32145055E+01
 11
4.70689936E+01
 21
8.32145067E+01
  0
LINE
  8
0
 62
4
 10
4.70689971E+01
 20
8.76221605E+01
 11
4.70689824E+01
 21
6.93702684E+01
  0
LINE
  8
0
 62
4
 10
4.81006048E+01
 20
7.70595376E+01
 11
4.70689886E+01
 21
7.70595385E+01
  0
LINE
  8
0
 62
4
 10
7.70689980E+01
 20
8.76221363E+01
 11
7.70689833E+01
 21
6.93702443E+01
  0
LINE
  8
0
 62
4
 10
5.40690050E+01
 20
1.02622172E+02
 11
5.50689848E+01
 21
1.03622151E+02
  0
LINE
  8
0
 62
4
 10
4.82864695E+01
 20
8.76221538E+01
 11
4.85977516E+01
 21
8.32144918E+01
  0
LINE
  8
0
 62
4
 10
4.90980797E+01
 20
7.61299948E+01
 11
5.02285975E+01
 21
6.01221968E+01
  0
LINE
  8
0
 62
4
 10
4.92940321E+01
 20
6.01221594E+01
 11
4.82763487E+01
 21
6.82321404E+01
  0
LINE
  8
0
 62
4
 10
4.70689613E+01
 20
4.31848436E+01
 11
4.81005775E+01
 21
4.31848428E+01
  0
LINE
  8
0
 62
4
 10
4.70689564E+01
 20
3.70298754E+01
 11
4.85977650E+01
 21
3.70298741E+01
  0
LINE
  8
0
 62
4
 10
4.85977348E+01
 20
3.70298932E+01
 11
4.82864459E+01
 21
3.26222317E+01
  0
LINE
  8
0
 62
4
 10
5.02286166E+01
 20
6.01221856E+01
 11
4.90980739E+01
 21
4.41143894E+01
  0
LINE
  8
0
 62
4
 10
4.82763738E+01
 20
5.20122342E+01
 11
4.92940660E+01
 21
6.01221838E+01
  0
LINE
  8
0
 62
4
 10
7.70689895E+01
 20
7.70595143E+01
 11
7.60373733E+01
 21
7.70595151E+01
  0
LINE
  8
0
 62
4
 10
7.70689944E+01
 20
8.32144825E+01
 11
7.55401857E+01
 21
8.32144838E+01
  0
LINE
  8
0
 62
4
 10
7.55400988E+01
 20
8.32144765E+01
 11
7.58513877E+01
 21
8.76221380E+01
  0
LINE
  8
0
 62
4
 10
7.39092149E+01
 20
6.01221537E+01
 11
7.50397576E+01
 21
7.61299498E+01
  0
LINE
  8
0
 62
4
 10
7.58614977E+01
 20
6.82321086E+01
 11
7.48438055E+01
 21
6.01221590E+01
  0
LINE
  8
0
 62
4
 10
7.60373460E+01
 20
4.31848203E+01
 11
7.70689622E+01
 21
4.31848194E+01
  0
LINE
  8
0
 62
4
 10
7.55401485E+01
 20
3.70298524E+01
 11
7.70689572E+01
 21
3.70298512E+01
  0
LINE
  8
0
 62
4
 10
7.58513878E+01
 20
3.26222241E+01
 11
7.55401057E+01
 21
3.70298861E+01
  0
LINE
  8
0
 62
4
 10
7.50397777E+01
 20
4.41143832E+01
 11
7.39092587E+01
 21
6.01221964E+01
  0
LINE
  8
0
 62
4
 10
7.48437984E+01
 20
6.01221789E+01
 11
7.58614780E+01
 21
5.20122282E+01
  0
LINE
  8
0
 62
4
 10
5.50689399E+01
 20
1.66221846E+01
 11
6.90689409E+01
 21
1.66221733E+01
  0
LINE
  8
0
 62
4
 10
6.90688387E+01
 20
1.66222214E+01
 11
7.00688616E+01
 21
1.76222438E+01
  0
LINE
  8
0
 62
4
 10
5.50688814E+01
 20
1.66222036E+01
 11
5.40688816E+01
 21
1.76222058E+01
  0
LINE
  8
0
 62
4
 10
4.70689675E+01
 20
5.08740831E+01
 11
4.70689528E+01
 21
3.26221910E+01
  0
LINE
  8
0
 62
4
 10
7.70689684E+01
 20
5.08740590E+01
 11
7.70689537E+01
 21
3.26221669E+01
  0
LINE
  8
0
  6
CENTER
 62
6
 10
6.20690162E+01
 20
1.10122148E+02
 11
6.20689356E+01
 21
1.01221790E+01
  0
ARC
  8
0
 62
4
 10
4.69864619E+01
 20
6.80702807E+01
 40
1.29999924E+00
 50
7.15234348E+00
 51
8.63704827E+01
  0
ARC
  8
0
 62
4
 10
4.81006040E+01
 20
7.60595376E+01
 40
1.00000000E+00
 50
4.03968969E+00
 51
9.00006459E+01
  0
ARC
  8
0
 62
4
 10
4.69865101E+01
 20
5.21741015E+01
 40
1.29999924E+00
 50
2.73629425E+02
 51
3.52847527E+02
  0
ARC
  8
0
 62
4
 10
4.81005783E+01
 20
4.41848428E+01
 40
1.00000000E+00
 50
2.69999261E+02
 51
3.55960180E+02
  0
ARC
  8
0
 62
4
 10
7.71513797E+01
 20
6.80702564E+01
 40
1.29999924E+00
 50
9.36293893E+01
 51
1.72847563E+02
  0
ARC
  8
0
 62
4
 10
7.60373114E+01
 20
7.60595151E+01
 40
1.00000000E+00
 50
8.99991711E+01
 51
1.75960161E+02
  0
ARC
  8
0
 62
4
 10
7.71514279E+01
 20
5.21740772E+01
 40
1.29999924E+00
 50
1.87152455E+02
 51
2.66370573E+02
  0
ARC
  8
0
 62
4
 10
7.60373468E+01
 20
4.41848203E+01
 40
1.00000000E+00
 50
1.84039801E+02
 51
2.70000737E+02
  0
LINE
  8
0
 62
4
 10
-1.37753673E+02
 20
-8.97395459E+01
 11
-1.22753673E+02
 21
-8.97395459E+01
  0
LINE
  8
0
 62
4
 10
-6.77536731E+01
 20
-1.01739546E+02
 11
-6.77536731E+01
 21
-4.57395459E+01
  0
LINE
  8
0
 62
4
 10
-5.27536731E+01
 20
-1.01739546E+02
 11
-5.27536731E+01
 21
-4.57395459E+01
  0
LINE
  8
0
 62
4
 10
-6.77536731E+01
 20
-4.57395459E+01
 11
-5.27536731E+01
 21
-4.57395459E+01
  0
LINE
  8
0
  6
CENTER
 62
6
 10
-1.44072612E+02
 20
-6.17395459E+01
 11
-4.69747882E+01
 21
-6.17395459E+01
  0
LINE
  8
0
 62
4
 10
-6.77536731E+01
 20
-1.01739546E+02
 11
-5.27536731E+01
 21
-1.01739546E+02
  0
LINE
  8
0
  6
CENTER
 62
6
 10
-6.02536731E+01
 20
-1.04225905E+02
 11
-6.02536731E+01
 21
-4.17395459E+01
  0
LINE
  8
0
 62
4
 10
-6.77536731E+01
 20
-8.97395459E+01
 11
-5.27536731E+01
 21
-8.97395459E+01
  0
LINE
  8
0
 62
4
 10
-1.22753673E+02
 20
-4.57395459E+01
 11
-1.22753673E+02
 21
-1.01739546E+02
  0
LINE
  8
0
 62
4
 10
-1.37753673E+02
 20
-1.01739546E+02
 11
-1.22753673E+02
 21
-1.01739546E+02
  0
LINE
  8
0
 62
4
 10
-1.37753673E+02
 20
-4.57395459E+01
 11
-1.37753673E+02
 21
-1.01739546E+02
  0
LINE
  8
0
 62
4
 10
-1.37753673E+02
 20
-4.57395459E+01
 11
-1.22753673E+02
 21
-4.57395459E+01
  0
LINE
  8
0
  6
CENTER
 62
6
 10
-1.30253673E+02
 20
-4.17395459E+01
 11
-1.30253673E+02
 21
-1.04225905E+02
  0
LINE
  8
0
  6
CENTER
 62
6
 10
-1.16266796E+02
 20
-4.52395459E+01
 11
-1.07441967E+02
 21
-4.52395459E+01
  0
LINE
  8
0
  6
CENTER
 62
6
 10
-1.11753673E+02
 20
-4.07910901E+01
 11
-1.11753673E+02
 21
-5.03978482E+01
  0
LINE
  8
0
  6
CENTER
 62
6
 10
-7.87536731E+01
 20
-4.12379132E+01
 11
-7.87536731E+01
 21
-4.95041943E+01
  0
LINE
  8
0
  6
CENTER
 62
6
 10
-7.42651324E+01
 20
-4.52395001E+01
 11
-8.29782519E+01
 21
-4.52395001E+01
  0
LINE
  8
0
  6
CENTER
 62
6
 10
-7.49353747E+01
 20
-7.82395001E+01
 11
-8.32016558E+01
 21
-7.82395001E+01
  0
LINE
  8
0
  6
CENTER
 62
6
 10
-7.87536120E+01
 20
-8.18990842E+01
 11
-7.87536120E+01
 21
-7.41913358E+01
  0
LINE
  8
0
  6
CENTER
 62
6
 10
-1.16043376E+02
 20
-7.82395459E+01
 11
-1.07777095E+02
 21
-7.82395459E+01
  0
LINE
  8
0
  6
CENTER
 62
6
 10
-1.11753612E+02
 20
-8.21224957E+01
 11
-1.11753612E+02
 21
-7.37445088E+01
  0
LINE
  8
0
 62
4
 10
-5.27536910E+01
 20
-6.97395322E+01
 11
-5.17537005E+01
 21
-6.87395421E+01
  0
LINE
  8
0
 62
4
 10
-5.17536731E+01
 20
-5.47395459E+01
 11
-5.17536731E+01
 21
-6.87395459E+01
  0
LINE
  8
0
 62
4
 10
-5.27537065E+01
 20
-5.37395500E+01
 11
-5.17537049E+01
 21
-5.47395507E+01
  0
LINE
  8
0
 62
4
 10
-1.38753673E+02
 20
-5.47395459E+01
 11
-1.38753673E+02
 21
-6.87395459E+01
  0
LINE
  8
0
 62
4
 10
-1.37753667E+02
 20
-5.37395403E+01
 11
-1.38753668E+02
 21
-5.47395410E+01
  0
LINE
  8
0
 62
4
 10
-1.37753642E+02
 20
-6.97395424E+01
 11
-1.38753643E+02
 21
-6.87395417E+01
  0
LINE
  8
0
 62
4
 10
-1.22753673E+02
 20
-6.17395459E+01
 11
-1.13253673E+02
 21
-6.17395459E+01
  0
LINE
  8
0
 62
4
 10
-7.72536731E+01
 20
-6.17395459E+01
 11
-6.77536731E+01
 21
-6.17395459E+01
  0
LINE
  8
0
 62
4
 10
-9.52536794E+01
 20
-3.77392826E+01
 11
-7.82968206E+01
 21
-3.86378874E+01
  0
LINE
  8
0
 62
4
 10
-9.52536812E+01
 20
-3.77392797E+01
 11
-1.12210540E+02
 21
-3.86378845E+01
  0
LINE
  8
0
 62
4
 10
-9.52536713E+01
 20
-8.57398048E+01
 11
-7.82968125E+01
 21
-8.48412000E+01
  0
LINE
  8
0
 62
4
 10
-9.52536740E+01
 20
-8.57398085E+01
 11
-1.12210533E+02
 21
-8.48412037E+01
  0
ARC
  8
0
 62
4
 10
-8.70155139E+01
 20
-6.97057324E+01
 40
4.00000000E+01
 50
1.27811267E+02
 51
1.53310535E+02
  0
ARC
  8
0
 62
4
 10
-1.03491832E+02
 20
-5.37733594E+01
 40
4.00000000E+01
 50
3.08203349E+02
 51
3.33310585E+02
  0
ARC
  8
0
 62
4
 10
-8.70155139E+01
 20
-5.37733594E+01
 40
4.00000000E+01
 50
2.06689410E+02
 51
2.32188733E+02
  0
ARC
  8
0
 62
4
 10
-1.03491832E+02
 20
-6.97057324E+01
 40
4.00000000E+01
 50
2.66894150E+01
 51
5.17966508E+01
  0
ARC
  8
0
 62
4
 10
-9.53725085E+01
 20
-8.22787000E+01
 40
4.70393066E+01
 50
6.93108540E+01
 51
1.10100013E+02
  0
ARC
  8
0
 62
4
 10
-9.53725085E+01
 20
-4.12003919E+01
 40
4.70393066E+01
 50
2.49899987E+02
 51
2.90689146E+02
  0
CIRCLE
  8
0
 62
4
 10
-1.11753673E+02
 20
-4.52395459E+01
 40
2.75000000E+00
  0
CIRCLE
  8
0
 62
4
 10
-7.87536731E+01
 20
-4.52395001E+01
 40
2.75000000E+00
  0
CIRCLE
  8
0
 62
4
 10
-7.87536120E+01
 20
-7.82395001E+01
 40
2.75000000E+00
  0
CIRCLE
  8
0
 62
4
 10
-1.11753612E+02
 20
-7.82395459E+01
 40
2.75000000E+00
  0
ARC
  8
0
 62
4
 10
-7.87536731E+01
 20
-4.52395001E+01
 40
6.61740112E+00
 50
8.60411838E+01
 51
1.93846984E+02
  0
ARC
  8
0
 62
4
 10
-1.11753673E+02
 20
-4.52395001E+01
 40
6.61740112E+00
 50
1.79999995E+02
 51
2.83846826E+02
  0
ARC
  8
0
 62
4
 10
-1.11753673E+02
 20
-7.82395917E+01
 40
6.61740112E+00
 50
2.66041179E+02
 51
1.38469817E+01
  0
ARC
  8
0
 62
4
 10
-7.87536731E+01
 20
-7.82395917E+01
 40
6.61740112E+00
 50
3.56674463E+02
 51
1.03846825E+02
  0
CIRCLE
  8
0
 62
4
 10
-9.52536731E+01
 20
-6.17395459E+01
 40
1.80000000E+01
  0
ARC
  8
0
 62
4
 10
-7.87536731E+01
 20
-7.82395917E+01
 40
6.61740112E+00
 50
1.66153012E+02
 51
2.73958805E+02
  0
ARC
  8
0
 62
4
 10
-1.11753673E+02
 20
-7.82395917E+01
 40
6.61740112E+00
 50
7.61531739E+01
 51
1.80000005E+02
  0
ARC
  8
0
 62
4
 10
-1.11753673E+02
 20
-4.52395001E+01
 40
6.61740112E+00
 50
3.46153019E+02
 51
9.39588211E+01
  0
ARC
  8
0
 62
4
 10
-7.87536731E+01
 20
-4.52395001E+01
 40
6.61740112E+00
 50
2.56153175E+02
 51
0.00000000E+00
  0
LINE
  8
0
  6
CENTER
 62
6
 10
-9.52536731E+01
 20
-3.12960339E+01
 11
-9.52536731E+01
 21
-1.04225905E+02
  0
LINE
  8
0
  6
CENTER
 62
6
 10
9.20689759E+01
 20
-1.04417341E+02
 11
9.20689759E+01
 21
-8.71556226E+01
  0
LINE
  8
0
 62
4
 10
8.14751787E+01
 20
-8.54205209E+01
 11
7.79198693E+01
 21
-5.95603411E+01
  0
LINE
  8
0
 62
4
 10
1.02568974E+02
 20
-1.01739546E+02
 11
1.02568974E+02
 21
-9.17395459E+01
  0
LINE
  8
0
 62
4
 10
8.64285951E+01
 20
-8.97395459E+01
 11
1.00568974E+02
 21
-8.97395459E+01
  0
LINE
  8
0
  6
CENTER
 62
6
 10
3.20689778E+01
 20
-8.71556226E+01
 11
3.20689778E+01
 21
-1.04417341E+02
  0
LINE
  8
0
 62
4
 10
2.15689778E+01
 20
-9.17395459E+01
 11
2.15689778E+01
 21
-1.01739546E+02
  0
LINE
  8
0
 62
4
 10
4.62180703E+01
 20
-5.95603325E+01
 11
4.26627577E+01
 21
-8.54205351E+01
  0
LINE
  8
0
 62
4
 10
2.35689778E+01
 20
-8.97395459E+01
 11
3.77093587E+01
 21
-8.97395459E+01
  0
LINE
  8
0
 62
4
 10
2.15689778E+01
 20
-1.01739546E+02
 11
1.02568974E+02
 21
-1.01739546E+02
  0
ARC
  8
0
 62
4
 10
8.64285951E+01
 20
-8.47395459E+01
 40
5.00000000E+00
 50
1.87828088E+02
 51
2.69999963E+02
  0
ARC
  8
0
 62
4
 10
1.00568974E+02
 20
-9.17395459E+01
 40
2.00000000E+00
 50
3.59721781E-05
 51
8.99999818E+01
  0
ARC
  8
0
 62
4
 10
3.77093587E+01
 20
-8.47395459E+01
 40
5.00000000E+00
 50
2.70000073E+02
 51
3.52171941E+02
  0
ARC
  8
0
 62
4
 10
2.35689778E+01
 20
-9.17395459E+01
 40
2.00000000E+00
 50
8.99999818E+01
 51
1.79999964E+02
  0
ARC
  8
0
 62
4
 10
6.20689759E+01
 20
-6.17395459E+01
 40
1.60000000E+01
 50
7.82806275E+00
 51
1.72171912E+02
  0
LINE
  8
0
  6
CENTER
 62
6
 10
4.53028140E+01
 20
-4.52395459E+01
 11
7.92869875E+01
 21
-4.52395459E+01
  0
LINE
  8
0
  6
CENTER
 62
6
 10
3.66631312E+01
 20
-6.17395459E+01
 11
8.79480290E+01
 21
-6.17395459E+01
  0
LINE
  8
0
 62
4
 10
4.70689750E+01
 20
-3.86220990E+01
 11
5.01124320E+01
 21
-3.86220990E+01
  0
LINE
  8
0
 62
4
 10
6.20689733E+01
 20
-3.57395593E+01
 11
7.39092585E+01
 21
-3.77392795E+01
  0
LINE
  8
0
 62
4
 10
4.70689750E+01
 20
-3.86220990E+01
 11
4.70689750E+01
 21
-5.24914533E+01
  0
LINE
  8
0
 62
4
 10
4.80948223E+01
 20
-5.39470477E+01
 11
4.92940349E+01
 21
-4.48380859E+01
  0
LINE
  8
0
 62
4
 10
5.02286530E+01
 20
-3.77392808E+01
 11
6.20689684E+01
 21
-3.57395555E+01
  0
LINE
  8
0
 62
4
 10
4.70689750E+01
 20
-4.48380872E+01
 11
4.92940726E+01
 21
-4.48380872E+01
  0
LINE
  8
0
 62
4
 10
4.70689750E+01
 20
-5.24914533E+01
 11
4.82865043E+01
 21
-5.24914533E+01
  0
LINE
  8
0
 62
4
 10
5.01123796E+01
 20
-3.86221152E+01
 11
5.02286051E+01
 21
-3.77392911E+01
  0
LINE
  8
0
 62
4
 10
7.60430005E+01
 20
-5.39468161E+01
 11
7.48438180E+01
 21
-4.48380872E+01
  0
LINE
  8
0
 62
4
 10
7.70689758E+01
 20
-5.24914533E+01
 11
7.58514465E+01
 21
-5.24914533E+01
  0
LINE
  8
0
 62
4
 10
7.70689758E+01
 20
-3.86220990E+01
 11
7.70689758E+01
 21
-5.24914533E+01
  0
LINE
  8
0
 62
4
 10
7.70689758E+01
 20
-4.48380872E+01
 11
7.48438780E+01
 21
-4.48380872E+01
  0
LINE
  8
0
 62
4
 10
7.70689758E+01
 20
-3.86220990E+01
 11
7.40255187E+01
 21
-3.86220990E+01
  0
LINE
  8
0
 62
4
 10
7.40254808E+01
 20
-3.86221021E+01
 11
7.39092536E+01
 21
-3.77392782E+01
  0
LINE
  8
0
 62
4
 10
4.83854442E+01
 20
-5.17395459E+01
 11
4.95789799E+01
 21
-5.17395459E+01
  0
CIRCLE
  8
0
 62
4
 10
6.20689759E+01
 20
-6.17395459E+01
 40
7.00000000E+00
  0
CIRCLE
  8
0
 62
4
 10
6.20689759E+01
 20
-6.17395459E+01
 40
8.00000000E+00
  0
LINE
  8
0
  6
CENTER
 62
6
 10
6.20689759E+01
 20
-3.39436475E+01
 11
6.20689759E+01
 21
-1.04225905E+02
  0
LINE
  8
0
 62
4
 10
7.45589719E+01
 20
-5.17395459E+01
 11
7.57524085E+01
 21
-5.17395459E+01
  0
TEXT
  8
0
 62
7
 10
-1.89357136E+02
 20
1.22850006E+02
 40
4.50000000E+00
  1
NEW DYNA CYLINDER
 41
1.07594914E+00
  7
MONOTXT
  0
TEXT
  8
0
 62
7
 10
-1.85214688E+02
 20
1.05350006E+02
 40
4.50000000E+00
  1
MODEL:DDA32-11T
 41
1.00000000E+00
  7
MONOTXT
  0
LINE
  8
0
 62
7
 10
-1.94250000E+02
 20
1.32600006E+02
 11
1.94800003E+02
 21
1.32600006E+02
  0
LINE
  8
0
 62
7
 10
1.94800003E+02
 20
1.32600006E+02
 11
1.94800003E+02
 21
-1.33500000E+02
  0
LINE
  8
0
 62
7
 10
-1.94250000E+02
 20
1.32600006E+02
 11
-1.94250000E+02
 21
-1.33500000E+02
  0
LINE
  8
0
 62
7
 10
-1.94250000E+02
 20
-1.33500000E+02
 11
1.94800003E+02
 21
-1.33500000E+02
  0
LINE
  8
0
 62
7
 10
1.09800003E+02
 20
-1.18500000E+02
 11
1.09800003E+02
 21
-1.33500000E+02
  0
LINE
  8
0
 62
7
 10
1.09800003E+02
 20
-1.18500000E+02
 11
1.94800003E+02
 21
-1.18500000E+02
  0
LINE
  8
0
 62
7
 10
1.09800003E+02
 20
1.32600006E+02
 11
1.09800003E+02
 21
1.17600006E+02
  0
LINE
  8
0
 62
7
 10
1.09800003E+02
 20
1.17600006E+02
 11
1.94800003E+02
 21
1.17600006E+02
  0
LINE
  8
0
 62
7
 10
-1.94250000E+02
 20
1.17600006E+02
 11
-1.09250000E+02
 21
1.17600006E+02
  0
LINE
  8
0
 62
7
 10
-1.09250000E+02
 20
1.32600006E+02
 11
-1.09250000E+02
 21
1.17600006E+02
  0
TEXT
  8
0
 62
7
 10
1.34942863E+02
 20
1.22850006E+02
 40
4.50000000E+00
  1
Ver. 1.0
 41
1.08108085E+00
  7
MONOTXT
  0
TEXT
  8
0
 62
7
 10
1.15249715E+02
 20
-1.29150000E+02
 40
6.30000019E+00
  1
KOGANEI CORP.
 41
1.04838725E+00
  7
MONOTXT
  0
ENDSEC
  0
EOF
