  0
SECTION
  2
HEADER
  9
$ACADVER
  1
AC1003
  9
$EXTMIN
 10
-1.94250000E+02
 20
-1.33500000E+02
  9
$EXTMAX
 10
1.94800003E+02
 20
1.32600006E+02
  9
$LIMMIN
 10
-1.94251000E+02
 20
-1.33501000E+02
  9
$LIMMAX
 10
1.94801003E+02
 20
1.32601006E+02
  9
$SNAPUNIT
 10
1
 20
1
  9
$SNAPBASE
 10
0
 20
0
  9
$GRIDMODE
 70
0
  9
$GRIDUNIT
 10
0
 20
0
  9
$LTSCALE
 40
6.48416672E+00
  9
$TEXTSIZE
 40
3.2
  9
$DIMTAD
 70
0
  9
$LUNITS
 70
2
  9
$LUPREC
 70
4
  9
$FILLETRAD
 40
0
  9
$AUNITS
 70
0
  9
$AUPREC
 70
0
  0
ENDSEC
  0
SECTION
  2
TABLES
  0
TABLE
  2
LTYPE
 70
2
  0
LTYPE
  2
CONTINUOUS
 70
64
  3
Solid-Line
 72
65
 73
0
 40
0
  0
LTYPE
  2
DASHED
 70
64
  3
DASHED
 72
65
 73
2
 40
.75
 49
.5
 49
-.25
  0
LTYPE
  2
HIDDEN
 70
64
  3
HIDDEN
 72
65
 73
2
 40
.375
 49
.25
 49
-.125
  0
LTYPE
  2
CENTER
 70
64
  3
CENTER
 72
65
 73
4
 40
2
 49
1.25
 49
-.25
 49
.25
 49
-.25
  0
LTYPE
  2
PHANTOM
 70
64
  3
PHANTOM
 72
65
 73
6
 40
2.5
 49
1.25
 49
-.25
 49
.25
 49
-.25
 49
.25
 49
-.25
  0
ENDTAB
  0
TABLE
  2
LAYER
 70
1
  0
LAYER
  2
1
 70
0
 62
7
  6
CONTINUOUS
 0
ENDTAB
  0
TABLE
  2
STYLE
 70
2
  0
STYLE
  2
MONOTXT
 70
0
 40
0
 41
1
 50
0
 71
0
 42
.2
  3
monotxt
  0
STYLE
  2
BIGFONT
 70
0
 40
0
 41
1
 50
0
 71
0
 42
.2
  3
txt
  4
bigfont
  0
ENDTAB
  0
ENDSEC
  0
SECTION
  2
ENTITIES
  0
LINE
  8
0
  6
CENTER
 62
6
 10
3.95386584E+01
 20
-2.96855015E+01
 11
7.35228319E+01
 21
-2.96855015E+01
  0
LINE
  8
0
  6
CENTER
 62
6
 10
3.08989756E+01
 20
-4.61855015E+01
 11
8.21838734E+01
 21
-4.61855015E+01
  0
LINE
  8
0
  6
CENTER
 62
6
 10
3.94218714E+01
 20
-6.26855015E+01
 11
7.29389114E+01
 21
-6.26855015E+01
  0
LINE
  8
0
 62
4
 10
4.13048193E+01
 20
-2.30680546E+01
 11
4.43482763E+01
 21
-2.30680546E+01
  0
LINE
  8
0
 62
4
 10
5.63048177E+01
 20
-2.01855149E+01
 11
6.81451028E+01
 21
-2.21852352E+01
  0
LINE
  8
0
 62
4
 10
4.13048193E+01
 20
-2.30680546E+01
 11
4.13048193E+01
 21
-3.69374089E+01
  0
LINE
  8
0
 62
4
 10
4.13047688E+01
 20
-4.61855032E+01
 11
4.35298792E+01
 21
-2.92840415E+01
  0
LINE
  8
0
 62
4
 10
4.44644974E+01
 20
-2.21852364E+01
 11
5.63048127E+01
 21
-2.01855111E+01
  0
LINE
  8
0
 62
4
 10
4.13048193E+01
 20
-2.92840428E+01
 11
4.35299170E+01
 21
-2.92840428E+01
  0
LINE
  8
0
 62
4
 10
4.13048193E+01
 20
-3.69374089E+01
 11
4.25223486E+01
 21
-3.69374089E+01
  0
LINE
  8
0
 62
4
 10
4.43482239E+01
 20
-2.30680708E+01
 11
4.44644494E+01
 21
-2.21852467E+01
  0
LINE
  8
0
 62
4
 10
7.13047740E+01
 20
-4.61855062E+01
 11
6.89350369E+01
 21
-2.81854992E+01
  0
LINE
  8
0
 62
4
 10
7.13048202E+01
 20
-3.69374089E+01
 11
7.00872909E+01
 21
-3.69374089E+01
  0
LINE
  8
0
 62
4
 10
7.13048202E+01
 20
-2.30680546E+01
 11
7.13048202E+01
 21
-3.69374089E+01
  0
LINE
  8
0
 62
4
 10
7.13048202E+01
 20
-2.92840428E+01
 11
6.90797224E+01
 21
-2.92840428E+01
  0
LINE
  8
0
 62
4
 10
7.13048202E+01
 20
-2.30680546E+01
 11
6.82613630E+01
 21
-2.30680546E+01
  0
LINE
  8
0
 62
4
 10
6.82613251E+01
 20
-2.30680577E+01
 11
6.81450980E+01
 21
-2.21852338E+01
  0
LINE
  8
0
 62
4
 10
6.82613682E+01
 20
-6.93029490E+01
 11
6.81451411E+01
 21
-7.01857729E+01
  0
LINE
  8
0
 62
4
 10
4.13048193E+01
 20
-6.93029484E+01
 11
4.13048193E+01
 21
-5.54335942E+01
  0
LINE
  8
0
 62
4
 10
4.44644922E+01
 20
-7.01857615E+01
 11
5.63048075E+01
 21
-7.21854862E+01
  0
LINE
  8
0
 62
4
 10
5.63047845E+01
 20
-7.21854759E+01
 11
6.81450997E+01
 21
-7.01857511E+01
  0
LINE
  8
0
 62
4
 10
4.13047739E+01
 20
-4.61855063E+01
 11
4.35298844E+01
 21
-6.30869604E+01
  0
LINE
  8
0
 62
4
 10
4.13048193E+01
 20
-6.93029484E+01
 11
4.43482763E+01
 21
-6.93029484E+01
  0
LINE
  8
0
 62
4
 10
4.13048193E+01
 20
-6.30869603E+01
 11
4.35299170E+01
 21
-6.30869603E+01
  0
LINE
  8
0
 62
4
 10
4.13048193E+01
 20
-5.54335942E+01
 11
4.25223486E+01
 21
-5.54335942E+01
  0
LINE
  8
0
 62
4
 10
4.43482574E+01
 20
-6.93029503E+01
 11
4.44644825E+01
 21
-7.01857590E+01
  0
LINE
  8
0
 62
4
 10
7.13047805E+01
 20
-4.61855018E+01
 11
6.90796695E+01
 21
-6.30869597E+01
  0
LINE
  8
0
 62
4
 10
7.13048202E+01
 20
-5.54335942E+01
 11
7.00872909E+01
 21
-5.54335942E+01
  0
LINE
  8
0
 62
4
 10
7.13048202E+01
 20
-6.93029484E+01
 11
7.13048202E+01
 21
-5.54335942E+01
  0
LINE
  8
0
 62
4
 10
7.13048202E+01
 20
-6.30869603E+01
 11
6.90797224E+01
 21
-6.30869603E+01
  0
LINE
  8
0
 62
4
 10
7.13048202E+01
 20
-6.93029484E+01
 11
6.82613630E+01
 21
-6.93029484E+01
  0
LINE
  8
0
  6
CENTER
 62
6
 10
5.63048203E+01
 20
-1.83896031E+01
 11
5.63048203E+01
 21
-7.35906224E+01
  0
LINE
  8
0
 62
4
 10
4.26212885E+01
 20
-3.61855015E+01
 11
6.99882529E+01
 21
-3.61855015E+01
  0
LINE
  8
0
 62
4
 10
4.26212942E+01
 20
-5.61855054E+01
 11
6.99882600E+01
 21
-5.61855054E+01
  0
CIRCLE
  8
0
 62
4
 10
5.63048203E+01
 20
-4.61855015E+01
 40
7.00000000E+00
  0
CIRCLE
  8
0
 62
4
 10
5.63048203E+01
 20
-4.61855015E+01
 40
8.00000000E+00
  0
LINE
  8
0
 62
4
 10
6.43047673E+01
 20
1.16314478E+02
 11
4.83047664E+01
 21
1.16314458E+02
  0
LINE
  8
0
 62
4
 10
6.43047673E+01
 20
1.16314478E+02
 11
6.43047848E+01
 21
1.02314478E+02
  0
LINE
  8
0
 62
4
 10
6.33047661E+01
 20
1.17314477E+02
 11
4.93047651E+01
 21
1.17314459E+02
  0
LINE
  8
0
 62
4
 10
6.43047007E+01
 20
1.16314467E+02
 11
6.33046988E+01
 21
1.17314467E+02
  0
LINE
  8
0
  6
CENTER
 62
6
 10
3.75844676E+01
 20
9.03144751E+01
 11
7.51069996E+01
 21
9.03145219E+01
  0
LINE
  8
0
  6
CENTER
 62
6
 10
3.70714739E+01
 20
5.73145050E+01
 11
7.49446054E+01
 21
5.73145522E+01
  0
LINE
  8
0
  6
CENTER
 62
6
 10
3.41733477E+01
 20
7.38144709E+01
 11
7.85181596E+01
 21
7.38145261E+01
  0
LINE
  8
0
 62
4
 10
4.28335991E+01
 20
9.69067973E+01
 11
4.13047905E+01
 21
9.69067954E+01
  0
LINE
  8
0
 62
4
 10
4.13047851E+01
 20
1.01314449E+02
 11
4.13048078E+01
 21
8.30625572E+01
  0
LINE
  8
0
 62
4
 10
4.83047664E+01
 20
1.16314458E+02
 11
4.83047838E+01
 21
1.02314458E+02
  0
LINE
  8
0
 62
4
 10
4.23364144E+01
 20
9.07518285E+01
 11
4.13047982E+01
 21
9.07518272E+01
  0
LINE
  8
0
 62
4
 10
7.13047859E+01
 20
1.01314487E+02
 11
7.13048086E+01
 21
8.30625945E+01
  0
LINE
  8
0
 62
4
 10
4.83047622E+01
 20
1.16314475E+02
 11
4.93047399E+01
 21
1.17314456E+02
  0
LINE
  8
0
 62
4
 10
7.13047859E+01
 20
1.01314487E+02
 11
4.13047851E+01
 21
1.01314449E+02
  0
LINE
  8
0
 62
4
 10
4.25222574E+01
 20
1.01314445E+02
 11
4.28335486E+01
 21
9.69067837E+01
  0
LINE
  8
0
 62
4
 10
4.33338912E+01
 20
8.98222877E+01
 11
4.44644419E+01
 21
7.38144920E+01
  0
LINE
  8
0
 62
4
 10
4.35298764E+01
 20
7.38144527E+01
 11
4.25121764E+01
 21
8.19244316E+01
  0
LINE
  8
0
 62
4
 10
4.13048404E+01
 20
5.68771323E+01
 11
4.23364566E+01
 21
5.68771336E+01
  0
LINE
  8
0
 62
4
 10
4.13048481E+01
 20
5.07221641E+01
 11
4.28336567E+01
 21
5.07221660E+01
  0
LINE
  8
0
 62
4
 10
4.28336265E+01
 20
5.07221850E+01
 11
4.25223467E+01
 21
4.63145229E+01
  0
LINE
  8
0
 62
4
 10
4.44644609E+01
 20
7.38144808E+01
 11
4.33339510E+01
 21
5.78066823E+01
  0
LINE
  8
0
 62
4
 10
4.25122348E+01
 20
6.57045254E+01
 11
4.35299104E+01
 21
7.38144771E+01
  0
LINE
  8
0
 62
4
 10
7.13047990E+01
 20
9.07518646E+01
 11
7.02731828E+01
 21
9.07518633E+01
  0
LINE
  8
0
 62
4
 10
7.13047914E+01
 20
9.69068328E+01
 11
6.97759827E+01
 21
9.69068309E+01
  0
LINE
  8
0
 62
4
 10
6.97758957E+01
 20
9.69068237E+01
 11
7.00871756E+01
 21
1.01314486E+02
  0
LINE
  8
0
 62
4
 10
6.81450592E+01
 20
7.38144975E+01
 11
6.92755691E+01
 21
8.98222960E+01
  0
LINE
  8
0
 62
4
 10
7.00973254E+01
 20
8.19244564E+01
 11
6.90796499E+01
 21
7.38145047E+01
  0
LINE
  8
0
 62
4
 10
7.02732250E+01
 20
5.68771684E+01
 11
7.13048413E+01
 21
5.68771697E+01
  0
LINE
  8
0
 62
4
 10
6.97760402E+01
 20
5.07221996E+01
 11
7.13048489E+01
 21
5.07222015E+01
  0
LINE
  8
0
 62
4
 10
7.00872886E+01
 20
4.63145719E+01
 11
6.97759974E+01
 21
5.07222333E+01
  0
LINE
  8
0
 62
4
 10
6.92756548E+01
 20
5.78067293E+01
 11
6.81451031E+01
 21
7.38145402E+01
  0
LINE
  8
0
 62
4
 10
6.90796428E+01
 20
7.38145247E+01
 11
7.00973390E+01
 21
6.57045760E+01
  0
LINE
  8
0
 62
4
 10
4.93048735E+01
 20
3.03144897E+01
 11
6.33048745E+01
 21
3.03145072E+01
  0
LINE
  8
0
 62
4
 10
6.43048558E+01
 20
4.53145084E+01
 11
6.43048732E+01
 21
3.13145084E+01
  0
LINE
  8
0
 62
4
 10
6.33047723E+01
 20
3.03145553E+01
 11
6.43047932E+01
 21
3.13145797E+01
  0
LINE
  8
0
 62
4
 10
4.83048723E+01
 20
3.13144885E+01
 11
6.43048732E+01
 21
3.13145084E+01
  0
LINE
  8
0
 62
4
 10
4.83048548E+01
 20
4.53144885E+01
 11
4.83048723E+01
 21
3.13144885E+01
  0
LINE
  8
0
 62
4
 10
4.93048150E+01
 20
3.03145087E+01
 11
4.83048132E+01
 21
3.13145089E+01
  0
LINE
  8
0
 62
4
 10
4.13048536E+01
 20
4.63144798E+01
 11
7.13048544E+01
 21
4.63145171E+01
  0
LINE
  8
0
 62
4
 10
4.13048308E+01
 20
6.45663718E+01
 11
4.13048536E+01
 21
4.63144798E+01
  0
LINE
  8
0
 62
4
 10
7.13048317E+01
 20
6.45664092E+01
 11
7.13048544E+01
 21
4.63145171E+01
  0
LINE
  8
0
  6
CENTER
 62
6
 10
5.63047580E+01
 20
1.23814468E+02
 11
5.63048826E+01
 21
2.38144985E+01
  0
ARC
  8
0
 62
4
 10
6.53047848E+01
 20
1.02314510E+02
 40
1.00000000E+00
 50
1.80000108E+02
 51
2.70000089E+02
  0
ARC
  8
0
 62
4
 10
4.73047838E+01
 20
1.02314457E+02
 40
1.00000000E+00
 50
2.70000035E+02
 51
3.59999999E+02
  0
ARC
  8
0
 62
4
 10
4.12222899E+01
 20
8.17625693E+01
 40
1.29999924E+00
 50
7.15246105E+00
 51
8.63706002E+01
  0
ARC
  8
0
 62
4
 10
4.23364157E+01
 20
8.97518285E+01
 40
1.00000000E+00
 50
4.03980727E+00
 51
9.00007639E+01
  0
ARC
  8
0
 62
4
 10
4.12223707E+01
 20
6.58663901E+01
 40
1.29999924E+00
 50
2.73629543E+02
 51
3.52847644E+02
  0
ARC
  8
0
 62
4
 10
4.23364554E+01
 20
5.78771336E+01
 40
1.00000000E+00
 50
2.69999379E+02
 51
3.55960298E+02
  0
ARC
  8
0
 62
4
 10
7.13872077E+01
 20
8.17626068E+01
 40
1.29999924E+00
 50
9.36295068E+01
 51
1.72847680E+02
  0
ARC
  8
0
 62
4
 10
7.02731230E+01
 20
8.97518633E+01
 40
1.00000000E+00
 50
8.99992886E+01
 51
1.75960279E+02
  0
ARC
  8
0
 62
4
 10
7.13872886E+01
 20
6.58664276E+01
 40
1.29999924E+00
 50
1.87152572E+02
 51
2.66370690E+02
  0
ARC
  8
0
 62
4
 10
7.02732238E+01
 20
5.78771684E+01
 40
1.00000000E+00
 50
1.84039918E+02
 51
2.70000854E+02
  0
ARC
  8
0
 62
4
 10
6.53048558E+01
 20
4.53145402E+01
 40
1.00000000E+00
 50
9.00000535E+01
 51
1.80000035E+02
  0
ARC
  8
0
 62
4
 10
4.73048548E+01
 20
4.53144872E+01
 40
1.00000000E+00
 50
1.08052140E-04
 51
9.00000535E+01
  0
LINE
  8
0
  6
CENTER
 62
6
 10
-1.08208362E+02
 20
-2.96855015E+01
 11
-9.93835333E+01
 21
-2.96855015E+01
  0
LINE
  8
0
  6
CENTER
 62
6
 10
-1.03695240E+02
 20
-2.52370457E+01
 11
-1.03695240E+02
 21
-3.48438039E+01
  0
LINE
  8
0
  6
CENTER
 62
6
 10
-7.06952398E+01
 20
-2.56838689E+01
 11
-7.06952398E+01
 21
-3.39501500E+01
  0
LINE
  8
0
  6
CENTER
 62
6
 10
-6.62066992E+01
 20
-2.96854558E+01
 11
-7.49198187E+01
 21
-2.96854558E+01
  0
LINE
  8
0
  6
CENTER
 62
6
 10
-6.68769415E+01
 20
-6.26854558E+01
 11
-7.51432226E+01
 21
-6.26854558E+01
  0
LINE
  8
0
  6
CENTER
 62
6
 10
-7.06951788E+01
 20
-6.63450398E+01
 11
-7.06951788E+01
 21
-5.86372914E+01
  0
LINE
  8
0
  6
CENTER
 62
6
 10
-1.07984943E+02
 20
-6.26855015E+01
 11
-9.97186621E+01
 21
-6.26855015E+01
  0
LINE
  8
0
  6
CENTER
 62
6
 10
-1.03695179E+02
 20
-6.65684514E+01
 11
-1.03695179E+02
 21
-5.81904645E+01
  0
LINE
  8
0
  6
CENTER
 62
6
 10
-8.71952398E+01
 20
-1.57419896E+01
 11
-8.71952398E+01
 21
-7.60635075E+01
  0
LINE
  8
0
  6
CENTER
 62
6
 10
-1.34235966E+02
 20
-4.61855015E+01
 11
-4.05142096E+01
 21
-4.61855015E+01
  0
LINE
  8
0
 62
4
 10
-1.14695240E+02
 20
-3.61854863E+01
 11
-1.14695240E+02
 21
-5.61855168E+01
  0
LINE
  8
0
 62
4
 10
-5.96952398E+01
 20
-3.61854863E+01
 11
-5.96952398E+01
 21
-5.61855168E+01
  0
LINE
  8
0
 62
4
 10
-4.46952398E+01
 20
-3.81855015E+01
 11
-5.86952398E+01
 21
-3.81855015E+01
  0
LINE
  8
0
 62
4
 10
-4.46952398E+01
 20
-5.41855015E+01
 11
-5.86952398E+01
 21
-5.41855015E+01
  0
LINE
  8
0
 62
4
 10
-4.46952578E+01
 20
-5.41854878E+01
 11
-4.36952673E+01
 21
-5.31854977E+01
  0
LINE
  8
0
 62
4
 10
-4.46952398E+01
 20
-3.81855015E+01
 11
-4.46952398E+01
 21
-5.41855015E+01
  0
LINE
  8
0
 62
4
 10
-4.36952398E+01
 20
-3.91855015E+01
 11
-4.36952398E+01
 21
-5.31855015E+01
  0
LINE
  8
0
 62
4
 10
-4.46952733E+01
 20
-3.81855057E+01
 11
-4.36952717E+01
 21
-3.91855063E+01
  0
LINE
  8
0
 62
4
 10
-1.30695240E+02
 20
-3.91855015E+01
 11
-1.30695240E+02
 21
-5.31855015E+01
  0
LINE
  8
0
 62
4
 10
-1.29695240E+02
 20
-3.81855015E+01
 11
-1.15695240E+02
 21
-3.81855015E+01
  0
LINE
  8
0
 62
4
 10
-1.29695234E+02
 20
-3.81854960E+01
 11
-1.30695235E+02
 21
-3.91854966E+01
  0
LINE
  8
0
 62
4
 10
-1.29695240E+02
 20
-3.81855015E+01
 11
-1.29695240E+02
 21
-5.41855015E+01
  0
LINE
  8
0
 62
4
 10
-1.29695240E+02
 20
-5.41855015E+01
 11
-1.15695240E+02
 21
-5.41855015E+01
  0
LINE
  8
0
 62
4
 10
-1.29695209E+02
 20
-5.41854980E+01
 11
-1.30695210E+02
 21
-5.31854974E+01
  0
LINE
  8
0
 62
4
 10
-1.14695240E+02
 20
-4.61855015E+01
 11
-1.05195240E+02
 21
-4.61855015E+01
  0
LINE
  8
0
 62
4
 10
-6.91952398E+01
 20
-4.61855015E+01
 11
-5.96952398E+01
 21
-4.61855015E+01
  0
LINE
  8
0
 62
4
 10
-8.71952461E+01
 20
-2.21852382E+01
 11
-7.02383873E+01
 21
-2.30838430E+01
  0
LINE
  8
0
 62
4
 10
-8.71952480E+01
 20
-2.21852353E+01
 11
-1.04152107E+02
 21
-2.30838401E+01
  0
LINE
  8
0
 62
4
 10
-8.71952381E+01
 20
-7.01857604E+01
 11
-7.02383793E+01
 21
-6.92871556E+01
  0
LINE
  8
0
 62
4
 10
-8.71952408E+01
 20
-7.01857641E+01
 11
-1.04152100E+02
 21
-6.92871593E+01
  0
ARC
  8
0
 62
4
 10
-7.89570807E+01
 20
-5.41516881E+01
 40
4.00000000E+01
 50
1.27811267E+02
 51
1.53310535E+02
  0
ARC
  8
0
 62
4
 10
-9.54333990E+01
 20
-3.82193150E+01
 40
4.00000000E+01
 50
3.08203349E+02
 51
3.33310585E+02
  0
ARC
  8
0
 62
4
 10
-7.89570807E+01
 20
-3.82193150E+01
 40
4.00000000E+01
 50
2.06689410E+02
 51
2.32188733E+02
  0
ARC
  8
0
 62
4
 10
-5.86952398E+01
 20
-3.71855015E+01
 40
1.00000000E+00
 50
1.79999964E+02
 51
2.69999946E+02
  0
ARC
  8
0
 62
4
 10
-5.86952398E+01
 20
-5.51855015E+01
 40
1.00000000E+00
 50
9.00000369E+01
 51
1.80000019E+02
  0
ARC
  8
0
 62
4
 10
-9.54333990E+01
 20
-5.41516881E+01
 40
4.00000000E+01
 50
2.66894150E+01
 51
5.17966508E+01
  0
ARC
  8
0
 62
4
 10
-1.15695240E+02
 20
-3.71855015E+01
 40
1.00000000E+00
 50
2.70000018E+02
 51
0.00000000E+00
  0
ARC
  8
0
 62
4
 10
-1.15695240E+02
 20
-5.51855015E+01
 40
1.00000000E+00
 50
3.59999945E+02
 51
8.99999274E+01
  0
ARC
  8
0
 62
4
 10
-8.73140753E+01
 20
-6.67246556E+01
 40
4.70393066E+01
 50
6.93108540E+01
 51
1.10100013E+02
  0
ARC
  8
0
 62
4
 10
-8.73140753E+01
 20
-2.56463475E+01
 40
4.70393066E+01
 50
2.49899987E+02
 51
2.90689146E+02
  0
CIRCLE
  8
0
 62
4
 10
-1.03695240E+02
 20
-2.96855015E+01
 40
2.75000000E+00
  0
CIRCLE
  8
0
 62
4
 10
-7.06952398E+01
 20
-2.96854558E+01
 40
2.75000000E+00
  0
CIRCLE
  8
0
 62
4
 10
-7.06951788E+01
 20
-6.26854558E+01
 40
2.75000000E+00
  0
CIRCLE
  8
0
 62
4
 10
-1.03695179E+02
 20
-6.26855015E+01
 40
2.75000000E+00
  0
ARC
  8
0
 62
4
 10
-7.06952398E+01
 20
-2.96854558E+01
 40
6.61740112E+00
 50
8.60411838E+01
 51
1.93846984E+02
  0
ARC
  8
0
 62
4
 10
-1.03695240E+02
 20
-2.96854558E+01
 40
6.61740112E+00
 50
1.79999995E+02
 51
2.83846826E+02
  0
ARC
  8
0
 62
4
 10
-1.03695240E+02
 20
-6.26855473E+01
 40
6.61740112E+00
 50
2.66041179E+02
 51
1.38469817E+01
  0
ARC
  8
0
 62
4
 10
-7.06952398E+01
 20
-6.26855473E+01
 40
6.61740112E+00
 50
3.56674463E+02
 51
1.03846825E+02
  0
CIRCLE
  8
0
 62
4
 10
-8.71952398E+01
 20
-4.61855015E+01
 40
1.80000000E+01
  0
ARC
  8
0
 62
4
 10
-7.06952398E+01
 20
-6.26855473E+01
 40
6.61740112E+00
 50
1.66153012E+02
 51
2.73958805E+02
  0
ARC
  8
0
 62
4
 10
-1.03695240E+02
 20
-6.26855473E+01
 40
6.61740112E+00
 50
7.61531739E+01
 51
1.80000005E+02
  0
ARC
  8
0
 62
4
 10
-1.03695240E+02
 20
-2.96854558E+01
 40
6.61740112E+00
 50
3.46153019E+02
 51
9.39588211E+01
  0
ARC
  8
0
 62
4
 10
-7.06952398E+01
 20
-2.96854558E+01
 40
6.61740112E+00
 50
2.56153175E+02
 51
0.00000000E+00
  0
TEXT
  8
0
 62
7
 10
-1.89357136E+02
 20
1.22850006E+02
 40
4.50000000E+00
  1
NEW DYNA CYLINDER
 41
1.07594914E+00
  7
MONOTXT
  0
LINE
  8
0
 62
7
 10
-1.94250000E+02
 20
1.17600006E+02
 11
-1.09250000E+02
 21
1.17600006E+02
  0
LINE
  8
0
 62
7
 10
-1.09250000E+02
 20
1.32600006E+02
 11
-1.09250000E+02
 21
1.17600006E+02
  0
LINE
  8
0
 62
7
 10
1.09800003E+02
 20
-1.18500000E+02
 11
1.09800003E+02
 21
-1.33500000E+02
  0
LINE
  8
0
 62
7
 10
1.09800003E+02
 20
-1.18500000E+02
 11
1.94800003E+02
 21
-1.18500000E+02
  0
TEXT
  8
0
 62
7
 10
1.15249715E+02
 20
-1.29150000E+02
 40
6.30000019E+00
  1
KOGANEI CORP.
 41
1.04838725E+00
  7
MONOTXT
  0
TEXT
  8
0
 62
7
 10
1.34942863E+02
 20
1.22850006E+02
 40
4.50000000E+00
  1
Ver. 1.0
 41
1.08108085E+00
  7
MONOTXT
  0
LINE
  8
0
 62
7
 10
1.09800003E+02
 20
1.32600006E+02
 11
1.09800003E+02
 21
1.17600006E+02
  0
LINE
  8
0
 62
7
 10
1.09800003E+02
 20
1.17600006E+02
 11
1.94800003E+02
 21
1.17600006E+02
  0
TEXT
  8
0
 62
7
 10
-1.85214688E+02
 20
1.05350006E+02
 40
4.50000000E+00
  1
MODEL:DDA32-11
 41
1.00000000E+00
  7
MONOTXT
  0
LINE
  8
0
 62
7
 10
-1.94250000E+02
 20
1.32600006E+02
 11
1.94800003E+02
 21
1.32600006E+02
  0
LINE
  8
0
 62
7
 10
1.94800003E+02
 20
1.32600006E+02
 11
1.94800003E+02
 21
-1.33500000E+02
  0
LINE
  8
0
 62
7
 10
-1.94250000E+02
 20
1.32600006E+02
 11
-1.94250000E+02
 21
-1.33500000E+02
  0
LINE
  8
0
 62
7
 10
-1.94250000E+02
 20
-1.33500000E+02
 11
1.94800003E+02
 21
-1.33500000E+02
  0
ENDSEC
  0
EOF
