  0
SECTION
  2
HEADER
  9
$ACADVER
  1
AC1003
  9
$EXTMIN
 10
-2.81250000E+02
 20
-1.95000000E+02
  9
$EXTMAX
 10
2.82099854E+02
 20
1.95500000E+02
  9
$LIMMIN
 10
-2.81251000E+02
 20
-1.95001000E+02
  9
$LIMMAX
 10
2.82100854E+02
 20
1.95501000E+02
  9
$SNAPUNIT
 10
1
 20
1
  9
$SNAPBASE
 10
0
 20
0
  9
$GRIDMODE
 70
0
  9
$GRIDUNIT
 10
0
 20
0
  9
$LTSCALE
 40
9.38916423E+00
  9
$TEXTSIZE
 40
3.2
  9
$DIMTAD
 70
0
  9
$LUNITS
 70
2
  9
$LUPREC
 70
4
  9
$FILLETRAD
 40
0
  9
$AUNITS
 70
0
  9
$AUPREC
 70
0
  0
ENDSEC
  0
SECTION
  2
TABLES
  0
TABLE
  2
LTYPE
 70
2
  0
LTYPE
  2
CONTINUOUS
 70
64
  3
Solid-Line
 72
65
 73
0
 40
0
  0
LTYPE
  2
DASHED
 70
64
  3
DASHED
 72
65
 73
2
 40
.75
 49
.5
 49
-.25
  0
LTYPE
  2
HIDDEN
 70
64
  3
HIDDEN
 72
65
 73
2
 40
.375
 49
.25
 49
-.125
  0
LTYPE
  2
CENTER
 70
64
  3
CENTER
 72
65
 73
4
 40
2
 49
1.25
 49
-.25
 49
.25
 49
-.25
  0
LTYPE
  2
PHANTOM
 70
64
  3
PHANTOM
 72
65
 73
6
 40
2.5
 49
1.25
 49
-.25
 49
.25
 49
-.25
 49
.25
 49
-.25
  0
ENDTAB
  0
TABLE
  2
LAYER
 70
1
  0
LAYER
  2
1
 70
0
 62
7
  6
CONTINUOUS
 0
ENDTAB
  0
TABLE
  2
STYLE
 70
2
  0
STYLE
  2
MONOTXT
 70
0
 40
0
 41
1
 50
0
 71
0
 42
.2
  3
monotxt
  0
STYLE
  2
BIGFONT
 70
0
 40
0
 41
1
 50
0
 71
0
 42
.2
  3
txt
  4
bigfont
  0
ENDTAB
  0
ENDSEC
  0
SECTION
  2
ENTITIES
  0
LINE
  8
0
  6
CENTER
 62
6
 10
8.80685743E+00
 20
-2.33250418E+00
 11
8.80685743E+00
 21
-9.57096404E+01
  0
ARC
  8
0
 62
4
 10
2.88068574E+01
 20
-6.28633575E+01
 40
3.00000000E+00
 50
2.21810356E+02
 51
2.70000073E+02
  0
ARC
  8
0
 62
4
 10
2.88068574E+01
 20
-8.28633575E+01
 40
3.00000000E+00
 50
8.99999818E+01
 51
1.38189698E+02
  0
ARC
  8
0
 62
4
 10
2.88068574E+01
 20
-3.48633575E+01
 40
3.00000000E+00
 50
8.99999818E+01
 51
1.38189698E+02
  0
ARC
  8
0
 62
4
 10
2.88068574E+01
 20
-1.48633575E+01
 40
3.00000000E+00
 50
2.21810301E+02
 51
2.70000018E+02
  0
ARC
  8
0
 62
4
 10
4.58260835E+01
 20
-4.88633727E+01
 40
3.00000000E+00
 50
3.44999873E+02
 51
1.49998911E+01
  0
ARC
  8
0
 62
4
 10
4.20748018E+01
 20
-3.48633575E+01
 40
3.00000000E+00
 50
1.49999936E+01
 51
9.00001457E+01
  0
ARC
  8
0
 62
4
 10
4.20748018E+01
 20
-6.28633575E+01
 40
3.00000000E+00
 50
2.69999854E+02
 51
3.45000003E+02
  0
ARC
  8
0
 62
4
 10
1.10429109E+01
 20
-3.48633575E+01
 40
3.00000000E+00
 50
8.99999274E+01
 51
1.38189590E+02
  0
ARC
  8
0
 62
4
 10
1.10429109E+01
 20
-1.48633575E+01
 40
3.00000000E+00
 50
2.21810411E+02
 51
2.70000073E+02
  0
ARC
  8
0
 62
4
 10
1.10429109E+01
 20
-6.28633575E+01
 40
3.00000000E+00
 50
2.21810411E+02
 51
2.70000073E+02
  0
ARC
  8
0
 62
4
 10
1.10429109E+01
 20
-8.28633575E+01
 40
3.00000000E+00
 50
8.99999818E+01
 51
1.38189644E+02
  0
ARC
  8
0
 62
4
 10
7.08068574E+01
 20
-2.08633575E+01
 40
3.00000000E+00
 50
2.54444375E-14
 51
8.99999818E+01
  0
ARC
  8
0
 62
4
 10
7.08068574E+01
 20
-7.68633575E+01
 40
3.00000000E+00
 50
2.70000018E+02
 51
0.00000000E+00
  0
ARC
  8
0
 62
4
 10
7.88068574E+01
 20
-2.38633575E+01
 40
5.00000000E+00
 50
1.80000091E+02
 51
2.70000073E+02
  0
ARC
  8
0
 62
4
 10
7.88068574E+01
 20
-7.38633575E+01
 40
5.00000000E+00
 50
8.99999818E+01
 51
1.79999964E+02
  0
LINE
  8
0
 62
4
 10
7.35684523E+00
 20
-8.48133544E+01
 11
7.35684523E+00
 21
-8.19133605E+01
  0
LINE
  8
0
 62
4
 10
1.02568696E+01
 20
-8.48133544E+01
 11
1.02568696E+01
 21
-8.19133605E+01
  0
LINE
  8
0
 62
4
 10
8.80685743E+00
 20
-8.48133544E+01
 11
8.80685743E+00
 21
-8.19133605E+01
  0
LINE
  8
0
 62
4
 10
7.35684523E+00
 20
-1.58133544E+01
 11
7.35684523E+00
 21
-1.29133605E+01
  0
LINE
  8
0
 62
4
 10
1.02568696E+01
 20
-1.58133544E+01
 11
1.02568696E+01
 21
-1.29133605E+01
  0
LINE
  8
0
 62
4
 10
8.80685743E+00
 20
-1.58133544E+01
 11
8.80685743E+00
 21
-1.29133605E+01
  0
LINE
  8
0
 62
6
 10
8.88068599E+01
 20
-6.08633489E+01
 11
1.07806851E+02
 21
-3.68633590E+01
  0
LINE
  8
0
 62
6
 10
8.88068476E+01
 20
-3.68633668E+01
 11
1.07806839E+02
 21
-6.08633567E+01
  0
LINE
  8
0
 62
4
 10
1.07806857E+02
 20
-2.88633575E+01
 11
1.07806857E+02
 21
-6.88633575E+01
  0
LINE
  8
0
 62
4
 10
1.07806857E+02
 20
-6.08633575E+01
 11
8.88068574E+01
 21
-6.08633575E+01
  0
LINE
  8
0
 62
4
 10
1.17068513E+01
 20
-8.48133544E+01
 11
1.17068513E+01
 21
-8.19133605E+01
  0
LINE
  8
0
 62
4
 10
5.90686354E+00
 20
-8.48133544E+01
 11
1.17068513E+01
 21
-8.48133544E+01
  0
LINE
  8
0
 62
4
 10
5.90686354E+00
 20
-8.48133544E+01
 11
5.90686354E+00
 21
-8.19133605E+01
  0
LINE
  8
0
 62
4
 10
5.90686354E+00
 20
-8.19133605E+01
 11
1.17068513E+01
 21
-8.19133605E+01
  0
LINE
  8
0
 62
4
 10
1.17068513E+01
 20
-1.58133544E+01
 11
1.17068513E+01
 21
-1.29133605E+01
  0
LINE
  8
0
 62
4
 10
5.90686354E+00
 20
-1.58133544E+01
 11
1.17068513E+01
 21
-1.58133544E+01
  0
LINE
  8
0
 62
4
 10
5.90686354E+00
 20
-1.58133544E+01
 11
5.90686354E+00
 21
-1.29133605E+01
  0
LINE
  8
0
 62
4
 10
5.90686354E+00
 20
-1.29133605E+01
 11
1.17068513E+01
 21
-1.29133605E+01
  0
LINE
  8
0
 62
4
 10
-1.11931426E+01
 20
-6.48633575E+01
 11
2.65707734E+01
 21
-6.48633575E+01
  0
LINE
  8
0
 62
4
 10
2.65707734E+01
 20
-8.08633575E+01
 11
-1.11931426E+01
 21
-8.08633575E+01
  0
LINE
  8
0
 62
4
 10
2.65707734E+01
 20
-3.28633575E+01
 11
-1.11931426E+01
 21
-3.28633575E+01
  0
LINE
  8
0
 62
4
 10
4.49725709E+01
 20
-3.40869088E+01
 11
4.87238625E+01
 21
-4.80869228E+01
  0
LINE
  8
0
 62
4
 10
4.49725848E+01
 20
-6.36398382E+01
 11
4.87238704E+01
 21
-4.96398500E+01
  0
LINE
  8
0
 62
4
 10
4.38027376E+01
 20
-3.24109649E+01
 11
4.38027376E+01
 21
-6.58633575E+01
  0
LINE
  8
0
 62
4
 10
-1.11931426E+01
 20
-1.68633575E+01
 11
2.65707734E+01
 21
-1.68633575E+01
  0
LINE
  8
0
 62
4
 10
1.10429109E+01
 20
-3.18633575E+01
 11
4.20748018E+01
 21
-3.18633575E+01
  0
LINE
  8
0
 62
4
 10
7.08068574E+01
 20
-1.78633575E+01
 11
1.10429109E+01
 21
-1.78633575E+01
  0
LINE
  8
0
 62
4
 10
4.20748018E+01
 20
-6.58633575E+01
 11
1.10429109E+01
 21
-6.58633575E+01
  0
LINE
  8
0
 62
4
 10
1.10429109E+01
 20
-7.98633575E+01
 11
7.08068574E+01
 21
-7.98633575E+01
  0
LINE
  8
0
 62
4
 10
1.88068574E+01
 20
-9.86335745E+00
 11
1.88068574E+01
 21
-1.68633575E+01
  0
LINE
  8
0
 62
4
 10
-1.19314257E+00
 20
-9.86335745E+00
 11
-1.19314257E+00
 21
-1.68633575E+01
  0
LINE
  8
0
 62
4
 10
1.88068574E+01
 20
-9.86335745E+00
 11
-1.19314257E+00
 21
-9.86335745E+00
  0
LINE
  8
0
 62
4
 10
-1.11931426E+01
 20
-1.68633575E+01
 11
-1.11931426E+01
 21
-3.28633575E+01
  0
LINE
  8
0
 62
4
 10
-1.19314257E+00
 20
-3.28633575E+01
 11
-1.19314257E+00
 21
-6.48633575E+01
  0
LINE
  8
0
 62
4
 10
1.88068574E+01
 20
-3.28633575E+01
 11
1.88068574E+01
 21
-6.48633575E+01
  0
LINE
  8
0
 62
4
 10
1.88068574E+01
 20
-8.08633575E+01
 11
1.88068574E+01
 21
-8.78633575E+01
  0
LINE
  8
0
 62
4
 10
-1.19314257E+00
 20
-8.08633575E+01
 11
-1.19314257E+00
 21
-8.78633575E+01
  0
LINE
  8
0
 62
4
 10
-1.19314257E+00
 20
-8.78633575E+01
 11
1.88068574E+01
 21
-8.78633575E+01
  0
LINE
  8
0
  6
CENTER
 62
6
 10
-2.36376616E+01
 20
-4.88633575E+01
 11
1.23850986E+02
 21
-4.88633575E+01
  0
LINE
  8
0
 62
4
 10
-1.11931426E+01
 20
-6.48633575E+01
 11
-1.11931426E+01
 21
-8.08633575E+01
  0
LINE
  8
0
 62
4
 10
7.38068574E+01
 20
-2.08633575E+01
 11
7.38068574E+01
 21
-7.68633575E+01
  0
LINE
  8
0
 62
4
 10
1.07806857E+02
 20
-3.68633575E+01
 11
8.88068574E+01
 21
-3.68633575E+01
  0
LINE
  8
0
 62
4
 10
1.07806864E+02
 20
-2.88633769E+01
 11
1.08806844E+02
 21
-2.98633740E+01
  0
LINE
  8
0
 62
4
 10
1.07806857E+02
 20
-2.88633575E+01
 11
7.88068574E+01
 21
-2.88633575E+01
  0
LINE
  8
0
 62
4
 10
1.08806857E+02
 20
-2.98633575E+01
 11
1.08806857E+02
 21
-6.78633803E+01
  0
LINE
  8
0
 62
4
 10
8.88068574E+01
 20
-6.08633575E+01
 11
8.88068574E+01
 21
-3.68633575E+01
  0
LINE
  8
0
 62
4
 10
1.08806868E+02
 20
-6.78633717E+01
 11
1.07806875E+02
 21
-6.88633810E+01
  0
LINE
  8
0
 62
4
 10
7.88068574E+01
 20
-6.88633575E+01
 11
1.07806857E+02
 21
-6.88633575E+01
  0
LINE
  8
0
 62
4
 10
-1.73711636E+02
 20
-1.29133681E+01
 11
-1.73711636E+02
 21
-1.58133925E+01
  0
LINE
  8
0
 62
4
 10
-1.67394009E+02
 20
-1.29133529E+01
 11
-1.73711636E+02
 21
-1.29133529E+01
  0
LINE
  8
0
 62
4
 10
-1.67394009E+02
 20
-1.58133773E+01
 11
-1.73711636E+02
 21
-1.58133773E+01
  0
LINE
  8
0
 62
4
 10
-1.73711652E+02
 20
-8.19133529E+01
 11
-1.73711652E+02
 21
-8.48133773E+01
  0
LINE
  8
0
 62
4
 10
-1.39111676E+02
 20
-1.29133529E+01
 11
-1.39111676E+02
 21
-1.58133773E+01
  0
LINE
  8
0
 62
4
 10
-1.47394009E+02
 20
-1.58133773E+01
 11
-1.39111676E+02
 21
-1.58133773E+01
  0
LINE
  8
0
 62
4
 10
-1.47394009E+02
 20
-1.29133529E+01
 11
-1.39111676E+02
 21
-1.29133529E+01
  0
LINE
  8
0
 62
4
 10
-1.39111676E+02
 20
-8.19133529E+01
 11
-1.39111676E+02
 21
-8.48133773E+01
  0
LINE
  8
0
 62
4
 10
-1.47499692E+02
 20
-8.48133773E+01
 11
-1.39111676E+02
 21
-8.48133773E+01
  0
LINE
  8
0
 62
4
 10
-1.47499692E+02
 20
-8.19133529E+01
 11
-1.39111676E+02
 21
-8.19133529E+01
  0
LINE
  8
0
 62
4
 10
-1.73711652E+02
 20
-8.48133773E+01
 11
-1.67394009E+02
 21
-8.48133773E+01
  0
LINE
  8
0
 62
4
 10
-1.73711652E+02
 20
-8.19133529E+01
 11
-1.67394009E+02
 21
-8.19133529E+01
  0
LINE
  8
0
 62
4
 10
-1.77393994E+02
 20
-8.08633651E+01
 11
-1.77393994E+02
 21
-1.68633803E+01
  0
LINE
  8
0
 62
4
 10
-1.37394009E+02
 20
-3.28633651E+01
 11
-1.77393979E+02
 21
-3.28633651E+01
  0
LINE
  8
0
 62
4
 10
-1.37394009E+02
 20
-1.68633651E+01
 11
-1.77393979E+02
 21
-1.68633651E+01
  0
LINE
  8
0
 62
4
 10
-1.67394009E+02
 20
-9.86336508E+00
 11
-1.67394009E+02
 21
-1.68633651E+01
  0
LINE
  8
0
 62
4
 10
-1.47394009E+02
 20
-9.86336508E+00
 11
-1.47394009E+02
 21
-1.68633651E+01
  0
LINE
  8
0
 62
4
 10
-1.67394009E+02
 20
-9.86336508E+00
 11
-1.47394009E+02
 21
-9.86336508E+00
  0
LINE
  8
0
 62
4
 10
-1.37394009E+02
 20
-1.68633651E+01
 11
-1.37394009E+02
 21
-8.08633651E+01
  0
LINE
  8
0
 62
4
 10
-1.47394009E+02
 20
-3.28633651E+01
 11
-1.47394009E+02
 21
-6.48633651E+01
  0
LINE
  8
0
 62
4
 10
-1.67394009E+02
 20
-3.28633651E+01
 11
-1.67394009E+02
 21
-6.48633651E+01
  0
LINE
  8
0
 62
4
 10
-1.67394009E+02
 20
-8.08633651E+01
 11
-1.67394009E+02
 21
-8.78633651E+01
  0
LINE
  8
0
 62
4
 10
-1.47394009E+02
 20
-8.08633651E+01
 11
-1.47394009E+02
 21
-8.78633651E+01
  0
LINE
  8
0
 62
4
 10
-1.47394009E+02
 20
-8.78633651E+01
 11
-1.67394009E+02
 21
-8.78633651E+01
  0
LINE
  8
0
 62
4
 10
-1.37394009E+02
 20
-8.08633651E+01
 11
-1.77393979E+02
 21
-8.08633651E+01
  0
LINE
  8
0
 62
4
 10
-1.37394009E+02
 20
-6.48633651E+01
 11
-1.77393979E+02
 21
-6.48633651E+01
  0
LINE
  8
0
  6
CENTER
 62
6
 10
-1.24949490E+02
 20
-4.88633651E+01
 11
-1.89350491E+02
 21
-4.88633651E+01
  0
LINE
  8
0
  6
CENTER
 62
6
 10
-1.57394009E+02
 20
-2.33250418E+00
 11
-1.57394009E+02
 21
-9.57096480E+01
  0
ARC
  8
0
 62
4
 10
8.73096040E+01
 20
1.30983933E+02
 40
1.50000000E+00
 50
2.70000018E+02
 51
0.00000000E+00
  0
ARC
  8
0
 62
4
 10
8.73082307E+01
 20
9.89831849E+01
 40
1.50000000E+00
 50
0.00000000E+00
 51
8.99999818E+01
  0
ARC
  8
0
 62
4
 10
1.32568696E+01
 20
1.24525070E+02
 40
3.00000000E+00
 50
1.38958724E+02
 51
1.73345775E+02
  0
ARC
  8
0
 62
4
 10
8.80685743E+00
 20
1.28399033E+02
 40
2.89999962E+00
 50
3.18958725E+02
 51
2.21041232E+02
  0
ARC
  8
0
 62
4
 10
8.80685743E+00
 20
1.28399033E+02
 40
1.59999943E+00
 50
3.10705552E+02
 51
2.29294314E+02
  0
ARC
  8
0
 62
4
 10
1.18068574E+01
 20
1.24911911E+02
 40
3.00000000E+00
 50
1.30705779E+02
 51
1.79999964E+02
  0
ARC
  8
0
 62
4
 10
5.80685743E+00
 20
1.24911911E+02
 40
3.00000000E+00
 50
0.00000000E+00
 51
4.92941583E+01
  0
ARC
  8
0
 62
4
 10
4.35684523E+00
 20
1.24525070E+02
 40
3.00000000E+00
 50
6.65420595E+00
 51
4.10412714E+01
  0
ARC
  8
0
 62
4
 10
7.09599336E+01
 20
1.31981369E+02
 40
3.00000000E+00
 50
3.00000371E+00
 51
9.00000369E+01
  0
ARC
  8
0
 62
4
 10
7.09599336E+01
 20
9.79813691E+01
 40
3.00000000E+00
 50
2.69999963E+02
 51
3.56999996E+02
  0
CIRCLE
  8
0
 62
4
 10
8.80685743E+00
 20
1.14981369E+02
 40
2.00000000E+01
  0
CIRCLE
  8
0
 62
4
 10
8.80685743E+00
 20
1.14981369E+02
 40
1.00000000E+01
  0
LINE
  8
0
 62
4
 10
1.07806857E+02
 20
1.34981369E+02
 11
1.07806857E+02
 21
9.49813691E+01
  0
LINE
  8
0
 62
4
 10
8.80685743E+00
 20
1.04981369E+02
 11
8.80685743E+00
 21
9.79547425E+01
  0
LINE
  8
0
 62
4
 10
9.53195137E+00
 20
9.98990174E+01
 11
1.02569423E+01
 21
1.01154738E+02
  0
LINE
  8
0
 62
4
 10
8.80688237E+00
 20
1.01154773E+02
 11
9.53188856E+00
 21
9.98990255E+01
  0
LINE
  8
0
 62
4
 10
8.08186371E+00
 20
9.66990379E+01
 11
8.80686990E+00
 21
9.79547852E+01
  0
LINE
  8
0
 62
4
 10
7.35688378E+00
 20
9.79547574E+01
 11
8.08187471E+00
 21
9.66990364E+01
  0
LINE
  8
0
 62
4
 10
7.35684523E+00
 20
1.05087051E+02
 11
7.35684523E+00
 21
9.79547425E+01
  0
LINE
  8
0
 62
4
 10
1.02568696E+01
 20
1.05087051E+02
 11
1.02568696E+01
 21
1.01154739E+02
  0
LINE
  8
0
 62
4
 10
7.39558179E+01
 20
1.32138371E+02
 11
7.48467574E+01
 21
1.15138234E+02
  0
LINE
  8
0
 62
4
 10
7.48467502E+01
 20
1.14824216E+02
 11
7.39558252E+01
 21
9.78243526E+01
  0
LINE
  8
0
 62
4
 10
8.88068574E+01
 20
1.34981369E+02
 11
8.88068574E+01
 21
1.30893082E+02
  0
LINE
  8
0
 62
4
 10
8.88068574E+01
 20
9.90471803E+01
 11
8.88068574E+01
 21
9.49813691E+01
  0
LINE
  8
0
 62
4
 10
1.07806820E+02
 20
1.34981357E+02
 11
1.08806821E+02
 21
1.33981356E+02
  0
LINE
  8
0
 62
4
 10
1.08806817E+02
 20
9.59813792E+01
 11
1.07806817E+02
 21
9.49813776E+01
  0
LINE
  8
0
 62
4
 10
8.80685743E+00
 20
9.49813691E+01
 11
1.07806857E+02
 21
9.49813691E+01
  0
LINE
  8
0
 62
4
 10
8.80685743E+00
 20
1.34981369E+02
 11
1.07806857E+02
 21
1.34981369E+02
  0
LINE
  8
0
 62
4
 10
1.08806857E+02
 20
1.33981369E+02
 11
1.08806857E+02
 21
9.59813691E+01
  0
LINE
  8
0
  6
CENTER
 62
6
 10
8.80685743E+00
 20
1.39981369E+02
 11
8.80685743E+00
 21
8.99813691E+01
  0
LINE
  8
0
  6
CENTER
 62
6
 10
-2.36376616E+01
 20
1.14981369E+02
 11
1.23850986E+02
 21
1.14981369E+02
  0
LINE
  8
0
 62
7
 10
2.82099854E+02
 20
1.95500000E+02
 11
2.82099854E+02
 21
-1.95000000E+02
  0
LINE
  8
0
 62
7
 10
-2.81250000E+02
 20
1.95500000E+02
 11
2.82099854E+02
 21
1.95500000E+02
  0
LINE
  8
0
 62
7
 10
-2.81250000E+02
 20
1.95500000E+02
 11
-2.81250000E+02
 21
-1.95000000E+02
  0
LINE
  8
0
 62
7
 10
-2.81250000E+02
 20
-1.95000000E+02
 11
2.82099854E+02
 21
-1.95000000E+02
  0
LINE
  8
0
 62
7
 10
1.62099976E+02
 20
-1.75000000E+02
 11
1.62099976E+02
 21
-1.95000000E+02
  0
LINE
  8
0
 62
7
 10
1.62099976E+02
 20
-1.75000000E+02
 11
2.82099854E+02
 21
-1.75000000E+02
  0
LINE
  8
0
 62
7
 10
1.62099976E+02
 20
1.75500000E+02
 11
2.82099854E+02
 21
1.75500000E+02
  0
LINE
  8
0
 62
7
 10
-2.81250000E+02
 20
1.75500000E+02
 11
-1.61250000E+02
 21
1.75500000E+02
  0
LINE
  8
0
 62
7
 10
1.62099976E+02
 20
1.95500000E+02
 11
1.62099976E+02
 21
1.75500000E+02
  0
LINE
  8
0
 62
7
 10
-1.61250000E+02
 20
1.95500000E+02
 11
-1.61250000E+02
 21
1.75500000E+02
  0
TEXT
  8
0
 62
7
 10
1.97799690E+02
 20
1.82350000E+02
 40
6.30000019E+00
  1
Ver. 1.0
 41
1.08108124E+00
  7
MONOTXT
  0
TEXT
  8
0
 62
7
 10
1.69885289E+02
 20
-1.89500000E+02
 40
9.00000000E+00
  1
KOGANEI CORP.
 41
1.04838710E+00
  7
MONOTXT
  0
TEXT
  8
0
 62
7
 10
-2.73900291E+02
 20
1.82350000E+02
 40
6.30000019E+00
  1
NEW DYNA CYLINDER
 41
1.07594953E+00
  7
MONOTXT
  0
TEXT
  8
0
 62
7
 10
-2.67600562E+02
 20
1.57350000E+02
 40
6.30000019E+00
  1
MODEL:DDA125-Y
 41
1.00000015E+00
  7
MONOTXT
  0
ENDSEC
  0
EOF
