  0
SECTION
  2
HEADER
  9
$ACADVER
  1
AC1003
  9
$EXTMIN
 10
-1.94250000E+02
 20
-1.33500000E+02
  9
$EXTMAX
 10
1.94800003E+02
 20
1.32600006E+02
  9
$LIMMIN
 10
-1.94251000E+02
 20
-1.33501000E+02
  9
$LIMMAX
 10
1.94801003E+02
 20
1.32601006E+02
  9
$SNAPUNIT
 10
1
 20
1
  9
$SNAPBASE
 10
0
 20
0
  9
$GRIDMODE
 70
0
  9
$GRIDUNIT
 10
0
 20
0
  9
$LTSCALE
 40
6.48416672E+00
  9
$TEXTSIZE
 40
3.2
  9
$DIMTAD
 70
0
  9
$LUNITS
 70
2
  9
$LUPREC
 70
4
  9
$FILLETRAD
 40
0
  9
$AUNITS
 70
0
  9
$AUPREC
 70
0
  0
ENDSEC
  0
SECTION
  2
TABLES
  0
TABLE
  2
LTYPE
 70
2
  0
LTYPE
  2
CONTINUOUS
 70
64
  3
Solid-Line
 72
65
 73
0
 40
0
  0
LTYPE
  2
DASHED
 70
64
  3
DASHED
 72
65
 73
2
 40
.75
 49
.5
 49
-.25
  0
LTYPE
  2
HIDDEN
 70
64
  3
HIDDEN
 72
65
 73
2
 40
.375
 49
.25
 49
-.125
  0
LTYPE
  2
CENTER
 70
64
  3
CENTER
 72
65
 73
4
 40
2
 49
1.25
 49
-.25
 49
.25
 49
-.25
  0
LTYPE
  2
PHANTOM
 70
64
  3
PHANTOM
 72
65
 73
6
 40
2.5
 49
1.25
 49
-.25
 49
.25
 49
-.25
 49
.25
 49
-.25
  0
ENDTAB
  0
TABLE
  2
LAYER
 70
1
  0
LAYER
  2
1
 70
0
 62
7
  6
CONTINUOUS
 0
ENDTAB
  0
TABLE
  2
STYLE
 70
2
  0
STYLE
  2
MONOTXT
 70
0
 40
0
 41
1
 50
0
 71
0
 42
.2
  3
monotxt
  0
STYLE
  2
BIGFONT
 70
0
 40
0
 41
1
 50
0
 71
0
 42
.2
  3
txt
  4
bigfont
  0
ENDTAB
  0
ENDSEC
  0
SECTION
  2
ENTITIES
  0
LINE
  8
0
  6
CENTER
 62
6
 10
-3.60756519E+01
 20
-5.74888626E+01
 11
1.11412996E+02
 21
-5.74888626E+01
  0
LINE
  8
0
  6
CENTER
 62
6
 10
-3.63113286E+00
 20
-3.69888626E+01
 11
-3.63113286E+00
 21
-7.79739319E+01
  0
LINE
  8
0
 62
4
 10
9.63688671E+01
 20
-3.39888932E+01
 11
9.63688671E+01
 21
-8.09888626E+01
  0
LINE
  8
0
 62
4
 10
2.83688671E+01
 20
-3.29888779E+01
 11
9.53688061E+01
 21
-3.29888779E+01
  0
LINE
  8
0
 62
4
 10
2.83688671E+01
 20
-8.19888626E+01
 11
9.53688671E+01
 21
-8.19888626E+01
  0
LINE
  8
0
 62
4
 10
9.63688185E+01
 20
-8.09888806E+01
 11
9.53688179E+01
 21
-8.19888822E+01
  0
LINE
  8
0
 62
4
 10
9.53687951E+01
 20
-3.29888928E+01
 11
9.63687967E+01
 21
-3.39888935E+01
  0
LINE
  8
0
 62
4
 10
-2.36311329E+01
 20
-4.34888626E+01
 11
-2.36311329E+01
 21
-7.14888626E+01
  0
LINE
  8
0
 62
4
 10
-2.16311329E+01
 20
-4.14888626E+01
 11
2.68688671E+01
 21
-4.14888626E+01
  0
LINE
  8
0
 62
4
 10
-2.16311329E+01
 20
-7.34888626E+01
 11
2.68688671E+01
 21
-7.34888626E+01
  0
LINE
  8
0
 62
4
 10
-2.16311275E+01
 20
-4.14888513E+01
 11
-2.36311298E+01
 21
-4.34888532E+01
  0
LINE
  8
0
 62
4
 10
-2.36311436E+01
 20
-7.14888761E+01
 11
-2.16311570E+01
 21
-7.34888722E+01
  0
LINE
  8
0
 62
4
 10
2.83688366E+01
 20
-8.19888779E+01
 11
2.83688366E+01
 21
-7.49888779E+01
  0
LINE
  8
0
 62
4
 10
2.83688366E+01
 20
-3.99888779E+01
 11
2.83688366E+01
 21
-3.29888932E+01
  0
LINE
  8
0
 62
4
 10
-1.06311329E+01
 20
-4.14888626E+01
 11
-1.06311329E+01
 21
-7.34888626E+01
  0
LINE
  8
0
 62
4
 10
9.53688671E+01
 20
-3.29888779E+01
 11
9.53688671E+01
 21
-8.19888626E+01
  0
ARC
  8
0
 62
4
 10
2.68688671E+01
 20
-3.99888626E+01
 40
1.50000000E+00
 50
2.69999963E+02
 51
0.00000000E+00
  0
ARC
  8
0
 62
4
 10
2.68688671E+01
 20
-7.49888626E+01
 40
1.50000000E+00
 50
0.00000000E+00
 51
9.00000369E+01
  0
LINE
  8
0
  6
CENTER
 62
6
 10
-8.50313709E+01
 20
-5.74888626E+01
 11
-1.49432372E+02
 21
-5.74888626E+01
  0
LINE
  8
0
 62
4
 10
-9.89219196E+01
 20
-4.14888626E+01
 11
-1.36029860E+02
 21
-4.14888626E+01
  0
LINE
  8
0
 62
4
 10
-9.89219196E+01
 20
-7.34888626E+01
 11
-1.36029860E+02
 21
-7.34888626E+01
  0
CIRCLE
  8
0
 62
4
 10
-1.17475890E+02
 20
-5.74888626E+01
 40
2.45000000E+01
  0
CIRCLE
  8
0
 62
4
 10
-1.17475890E+02
 20
-5.74888626E+01
 40
1.14999800E+01
  0
LINE
  8
0
  6
CENTER
 62
6
 10
-1.17475890E+02
 20
-9.14457566E+01
 11
-1.17475890E+02
 21
-2.17941910E+01
  0
LINE
  8
0
 62
4
 10
2.83688671E+01
 20
8.64518112E+01
 11
2.83688671E+01
 21
5.64518112E+01
  0
LINE
  8
0
 62
4
 10
-2.36311170E+01
 20
8.29518019E+01
 11
-1.06311248E+01
 21
9.59517941E+01
  0
LINE
  8
0
 62
4
 10
-1.06311329E+01
 20
8.74518112E+01
 11
2.73688671E+01
 21
8.74518112E+01
  0
LINE
  8
0
 62
4
 10
-1.06311023E+01
 20
5.54518112E+01
 11
2.73688671E+01
 21
5.54518112E+01
  0
LINE
  8
0
 62
4
 10
-1.06311329E+01
 20
8.74518112E+01
 11
-1.06311329E+01
 21
9.59517807E+01
  0
LINE
  8
0
 62
4
 10
-1.06311329E+01
 20
5.54518112E+01
 11
-1.06311329E+01
 21
4.69518417E+01
  0
LINE
  8
0
  6
CENTER
 62
6
 10
-3.63113286E+00
 20
1.00672514E+02
 11
-3.63113286E+00
 21
4.19518112E+01
  0
LINE
  8
0
 62
4
 10
9.63688671E+01
 20
9.49517807E+01
 11
9.63688671E+01
 21
4.79518112E+01
  0
LINE
  8
0
 62
4
 10
-1.06311329E+01
 20
9.59517807E+01
 11
9.53688671E+01
 21
9.59517807E+01
  0
LINE
  8
0
 62
4
 10
-1.06311023E+01
 20
4.69518112E+01
 11
9.53688671E+01
 21
4.69518112E+01
  0
LINE
  8
0
 62
4
 10
-2.36311329E+01
 20
8.29517807E+01
 11
-2.36311329E+01
 21
5.99518417E+01
  0
LINE
  8
0
 62
4
 10
-1.06311140E+01
 20
4.69518392E+01
 11
-2.36311170E+01
 21
5.99518422E+01
  0
LINE
  8
0
 62
4
 10
9.53688691E+01
 20
9.59517833E+01
 11
9.63688701E+01
 21
9.49517823E+01
  0
LINE
  8
0
 62
4
 10
9.63688647E+01
 20
4.79518025E+01
 11
9.53688637E+01
 21
4.69518014E+01
  0
LINE
  8
0
 62
4
 10
9.53688671E+01
 20
9.59517807E+01
 11
9.53688671E+01
 21
4.69518112E+01
  0
ARC
  8
0
 62
4
 10
-4.49478032E+00
 20
7.14518112E+01
 40
1.71363525E+01
 50
1.10982924E+02
 51
2.49017004E+02
  0
ARC
  8
0
 62
4
 10
2.73688671E+01
 20
8.64518112E+01
 40
1.00000000E+00
 50
0.00000000E+00
 51
8.99999818E+01
  0
ARC
  8
0
 62
4
 10
2.73688671E+01
 20
5.64518112E+01
 40
1.00000000E+00
 50
2.70000018E+02
 51
0.00000000E+00
  0
CIRCLE
  8
0
 62
4
 10
-3.59722783E+00
 20
7.14374374E+01
 40
1.00000000E+01
  0
LINE
  8
0
  6
CENTER
 62
6
 10
-3.60756519E+01
 20
7.14518112E+01
 11
1.11412996E+02
 21
7.14518112E+01
  0
TEXT
  8
0
 62
7
 10
-1.89357136E+02
 20
1.22850006E+02
 40
4.50000000E+00
  1
NEW DYNA CYLINDER
 41
1.07594914E+00
  7
MONOTXT
  0
TEXT
  8
0
 62
7
 10
-1.85214688E+02
 20
1.05350006E+02
 40
4.50000000E+00
  1
MODEL:DDA125-I
 41
1.00000000E+00
  7
MONOTXT
  0
LINE
  8
0
 62
7
 10
-1.94250000E+02
 20
1.32600006E+02
 11
1.94800003E+02
 21
1.32600006E+02
  0
LINE
  8
0
 62
7
 10
1.94800003E+02
 20
1.32600006E+02
 11
1.94800003E+02
 21
-1.33500000E+02
  0
LINE
  8
0
 62
7
 10
-1.94250000E+02
 20
1.32600006E+02
 11
-1.94250000E+02
 21
-1.33500000E+02
  0
LINE
  8
0
 62
7
 10
-1.94250000E+02
 20
-1.33500000E+02
 11
1.94800003E+02
 21
-1.33500000E+02
  0
LINE
  8
0
 62
7
 10
1.09800003E+02
 20
-1.18500000E+02
 11
1.09800003E+02
 21
-1.33500000E+02
  0
LINE
  8
0
 62
7
 10
1.09800003E+02
 20
-1.18500000E+02
 11
1.94800003E+02
 21
-1.18500000E+02
  0
LINE
  8
0
 62
7
 10
1.09800003E+02
 20
1.32600006E+02
 11
1.09800003E+02
 21
1.17600006E+02
  0
LINE
  8
0
 62
7
 10
1.09800003E+02
 20
1.17600006E+02
 11
1.94800003E+02
 21
1.17600006E+02
  0
LINE
  8
0
 62
7
 10
-1.94250000E+02
 20
1.17600006E+02
 11
-1.09250000E+02
 21
1.17600006E+02
  0
LINE
  8
0
 62
7
 10
-1.09250000E+02
 20
1.32600006E+02
 11
-1.09250000E+02
 21
1.17600006E+02
  0
TEXT
  8
0
 62
7
 10
1.34942863E+02
 20
1.22850006E+02
 40
4.50000000E+00
  1
Ver. 1.0
 41
1.08108085E+00
  7
MONOTXT
  0
TEXT
  8
0
 62
7
 10
1.15249715E+02
 20
-1.29150000E+02
 40
6.30000019E+00
  1
KOGANEI CORP.
 41
1.04838725E+00
  7
MONOTXT
  0
ENDSEC
  0
EOF
