  0
SECTION
  2
HEADER
  9
$ACADVER
  1
AC1003
  9
$EXTMIN
 10
-2.81250000E+02
 20
-1.95000000E+02
  9
$EXTMAX
 10
2.82099854E+02
 20
1.95500000E+02
  9
$LIMMIN
 10
-2.81251000E+02
 20
-1.95001000E+02
  9
$LIMMAX
 10
2.82100854E+02
 20
1.95501000E+02
  9
$SNAPUNIT
 10
1
 20
1
  9
$SNAPBASE
 10
0
 20
0
  9
$GRIDMODE
 70
0
  9
$GRIDUNIT
 10
0
 20
0
  9
$LTSCALE
 40
9.38916423E+00
  9
$TEXTSIZE
 40
3.2
  9
$DIMTAD
 70
0
  9
$LUNITS
 70
2
  9
$LUPREC
 70
4
  9
$FILLETRAD
 40
0
  9
$AUNITS
 70
0
  9
$AUPREC
 70
0
  0
ENDSEC
  0
SECTION
  2
TABLES
  0
TABLE
  2
LTYPE
 70
2
  0
LTYPE
  2
CONTINUOUS
 70
64
  3
Solid-Line
 72
65
 73
0
 40
0
  0
LTYPE
  2
DASHED
 70
64
  3
DASHED
 72
65
 73
2
 40
.75
 49
.5
 49
-.25
  0
LTYPE
  2
HIDDEN
 70
64
  3
HIDDEN
 72
65
 73
2
 40
.375
 49
.25
 49
-.125
  0
LTYPE
  2
CENTER
 70
64
  3
CENTER
 72
65
 73
4
 40
2
 49
1.25
 49
-.25
 49
.25
 49
-.25
  0
LTYPE
  2
PHANTOM
 70
64
  3
PHANTOM
 72
65
 73
6
 40
2.5
 49
1.25
 49
-.25
 49
.25
 49
-.25
 49
.25
 49
-.25
  0
ENDTAB
  0
TABLE
  2
LAYER
 70
1
  0
LAYER
  2
1
 70
0
 62
7
  6
CONTINUOUS
 0
ENDTAB
  0
TABLE
  2
STYLE
 70
2
  0
STYLE
  2
MONOTXT
 70
0
 40
0
 41
1
 50
0
 71
0
 42
.2
  3
monotxt
  0
STYLE
  2
BIGFONT
 70
0
 40
0
 41
1
 50
0
 71
0
 42
.2
  3
txt
  4
bigfont
  0
ENDTAB
  0
ENDSEC
  0
SECTION
  2
ENTITIES
  0
LINE
  8
0
 62
4
 10
9.82685027E+01
 20
-1.72252300E+02
 11
1.14268503E+02
 21
-1.72252300E+02
  0
LINE
  8
0
 62
4
 10
9.82685027E+01
 20
-3.42523079E+01
 11
1.14268503E+02
 21
-3.42523079E+01
  0
LINE
  8
0
 62
4
 10
9.82685027E+01
 20
-1.72252300E+02
 11
9.82685027E+01
 21
-3.42523079E+01
  0
LINE
  8
0
  6
CENTER
 62
6
 10
1.21665536E+02
 20
-5.12522926E+01
 11
9.32685638E+01
 21
-5.12522926E+01
  0
LINE
  8
0
 62
4
 10
1.14268503E+02
 20
-1.72252300E+02
 11
1.14268503E+02
 21
-3.42523079E+01
  0
LINE
  8
0
  6
CENTER
 62
6
 10
8.41850972E+01
 20
-1.03252308E+02
 11
1.32648646E+02
 21
-1.03252308E+02
  0
LINE
  8
0
  6
CENTER
 62
6
 10
1.21665536E+02
 20
-1.55252315E+02
 11
9.32685638E+01
 21
-1.55252315E+02
  0
LINE
  8
0
  6
CENTER
 62
6
 10
-4.90662951E+01
 20
-5.12523079E+01
 11
2.68452195E-01
 21
-5.12523079E+01
  0
LINE
  8
0
  6
CENTER
 62
6
 10
-5.00948901E+01
 20
-1.55252300E+02
 11
2.68452195E-01
 21
-1.55252300E+02
  0
LINE
  8
0
  6
CENTER
 62
6
 10
-1.37527294E+02
 20
-1.55252300E+02
 11
-1.87731548E+02
 21
-1.55252300E+02
  0
LINE
  8
0
  6
CENTER
 62
6
 10
-1.77731548E+02
 20
-1.65252300E+02
 11
-1.77731548E+02
 21
-1.45252300E+02
  0
LINE
  8
0
 62
4
 10
-1.76731548E+02
 20
-3.42523079E+01
 11
-1.07315478E+01
 21
-3.42523079E+01
  0
LINE
  8
0
  6
CENTER
 62
6
 10
-1.77731548E+02
 20
-4.12523079E+01
 11
-1.77731548E+02
 21
-6.12523079E+01
  0
LINE
  8
0
 62
4
 10
-1.76731548E+02
 20
-1.72252300E+02
 11
-1.07315478E+01
 21
-1.72252300E+02
  0
LINE
  8
0
  6
CENTER
 62
6
 10
-9.73154780E+00
 20
-1.65252300E+02
 11
-9.73154780E+00
 21
-1.45252300E+02
  0
LINE
  8
0
  6
CENTER
 62
6
 10
-1.35127178E+02
 20
-5.12523079E+01
 11
-1.89643840E+02
 21
-5.12523079E+01
  0
LINE
  8
0
 62
4
 10
4.26845220E+00
 20
-4.92523079E+01
 11
4.26845220E+00
 21
-1.57252300E+02
  0
LINE
  8
0
  6
CENTER
 62
6
 10
2.61121717E+01
 20
-1.03252308E+02
 11
-2.07073650E+02
 21
-1.03252308E+02
  0
LINE
  8
0
  6
CENTER
 62
6
 10
-4.17315478E+01
 20
-1.64879330E+02
 11
-4.17315478E+01
 21
-1.45678493E+02
  0
LINE
  8
0
  6
CENTER
 62
6
 10
-9.37315478E+01
 20
-2.76336860E+01
 11
-9.37315478E+01
 21
-1.78841839E+02
  0
LINE
  8
0
 62
4
 10
-1.91731548E+02
 20
-4.92523079E+01
 11
-1.91731548E+02
 21
-1.57252300E+02
  0
LINE
  8
0
  6
CENTER
 62
6
 10
-4.17315478E+01
 20
-4.35025978E+01
 11
-4.17315478E+01
 21
-6.09890785E+01
  0
LINE
  8
0
  6
CENTER
 62
6
 10
-9.73154780E+00
 20
-4.12523079E+01
 11
-9.73154780E+00
 21
-6.12523079E+01
  0
LINE
  8
0
  6
CENTER
 62
6
 10
-1.45731426E+02
 20
-1.63850712E+02
 11
-1.45731426E+02
 21
-1.47049976E+02
  0
LINE
  8
0
  6
CENTER
 62
6
 10
-1.45731426E+02
 20
-4.11024971E+01
 11
-1.45731426E+02
 21
-6.13319435E+01
  0
CIRCLE
  8
0
 62
4
 10
-9.37315478E+01
 20
-1.03252308E+02
 40
3.00000000E+01
  0
ARC
  8
0
 62
4
 10
-1.76731548E+02
 20
-1.57252300E+02
 40
1.50000000E+01
 50
1.79999977E+02
 51
2.70000028E+02
  0
CIRCLE
  8
0
 62
4
 10
-4.17315478E+01
 20
-5.12523079E+01
 40
5.75000000E+00
  0
CIRCLE
  8
0
 62
4
 10
-1.45731426E+02
 20
-1.55252300E+02
 40
5.75000000E+00
  0
CIRCLE
  8
0
 62
4
 10
-1.77731548E+02
 20
-1.55252300E+02
 40
7.00000000E+00
  0
CIRCLE
  8
0
 62
4
 10
-1.45731426E+02
 20
-5.12523079E+01
 40
5.75000000E+00
  0
ARC
  8
0
 62
4
 10
-1.07315478E+01
 20
-4.92523079E+01
 40
1.50000000E+01
 50
0.00000000E+00
 51
8.99999818E+01
  0
ARC
  8
0
 62
4
 10
-1.07315478E+01
 20
-1.57252300E+02
 40
1.50000000E+01
 50
2.70000018E+02
 51
0.00000000E+00
  0
ARC
  8
0
 62
4
 10
-1.76731548E+02
 20
-4.92523079E+01
 40
1.50000000E+01
 50
8.99999818E+01
 51
1.79999964E+02
  0
CIRCLE
  8
0
 62
4
 10
-1.77731548E+02
 20
-5.12523079E+01
 40
7.00000000E+00
  0
CIRCLE
  8
0
 62
4
 10
-9.73154780E+00
 20
-5.12523079E+01
 40
7.00000000E+00
  0
CIRCLE
  8
0
 62
4
 10
-4.17315478E+01
 20
-1.55252300E+02
 40
5.75000000E+00
  0
CIRCLE
  8
0
 62
4
 10
-9.73154780E+00
 20
-1.55252300E+02
 40
7.00000000E+00
  0
LINE
  8
0
  6
CENTER
 62
6
 10
8.11546502E+01
 20
8.87477379E+01
 11
1.29779414E+02
 21
8.87477379E+01
  0
LINE
  8
0
 62
4
 10
9.82685638E+01
 20
1.86747707E+02
 11
1.14268564E+02
 21
1.86747707E+02
  0
LINE
  8
0
 62
4
 10
9.82685638E+01
 20
-9.25226207E+00
 11
1.14268564E+02
 21
-9.25226207E+00
  0
LINE
  8
0
  6
CENTER
 62
6
 10
9.32685027E+01
 20
4.74773793E+00
 11
1.21665475E+02
 21
4.74773793E+00
  0
LINE
  8
0
 62
4
 10
9.82685027E+01
 20
1.86747707E+02
 11
9.82685027E+01
 21
-9.25226207E+00
  0
LINE
  8
0
  6
CENTER
 62
6
 10
1.21665475E+02
 20
1.40747768E+02
 11
9.32685027E+01
 21
1.40747768E+02
  0
LINE
  8
0
 62
4
 10
1.14268564E+02
 20
-9.25226207E+00
 11
1.14268564E+02
 21
1.86747707E+02
  0
LINE
  8
0
  6
CENTER
 62
6
 10
1.21665475E+02
 20
3.67477074E+01
 11
9.32685027E+01
 21
3.67477074E+01
  0
LINE
  8
0
  6
CENTER
 62
6
 10
9.32685027E+01
 20
1.72747707E+02
 11
1.18868722E+02
 21
1.72747707E+02
  0
LINE
  8
0
 62
7
 10
1.62099976E+02
 20
-1.75000000E+02
 11
1.62099976E+02
 21
-1.95000000E+02
  0
LINE
  8
0
 62
7
 10
1.62099976E+02
 20
-1.75000000E+02
 11
2.82099854E+02
 21
-1.75000000E+02
  0
TEXT
  8
0
 62
7
 10
1.69885289E+02
 20
-1.89500000E+02
 40
9.00000000E+00
  1
KOGANEI CORP.
 41
1.04838710E+00
  7
MONOTXT
  0
TEXT
  8
0
 62
7
 10
1.97799690E+02
 20
1.82350000E+02
 40
6.30000019E+00
  1
Ver. 1.0
 41
1.08108124E+00
  7
MONOTXT
  0
LINE
  8
0
 62
7
 10
1.62099976E+02
 20
1.75500000E+02
 11
2.82099854E+02
 21
1.75500000E+02
  0
LINE
  8
0
 62
7
 10
1.62099976E+02
 20
1.95500000E+02
 11
1.62099976E+02
 21
1.75500000E+02
  0
TEXT
  8
0
 62
7
 10
-2.73900291E+02
 20
1.82350000E+02
 40
6.30000019E+00
  1
NEW DYNA CYLINDER
 41
1.07594953E+00
  7
MONOTXT
  0
LINE
  8
0
 62
7
 10
-2.81250000E+02
 20
1.75500000E+02
 11
-1.61250000E+02
 21
1.75500000E+02
  0
LINE
  8
0
 62
7
 10
-1.61250000E+02
 20
1.95500000E+02
 11
-1.61250000E+02
 21
1.75500000E+02
  0
LINE
  8
0
 62
7
 10
2.82099854E+02
 20
1.95500000E+02
 11
2.82099854E+02
 21
-1.95000000E+02
  0
LINE
  8
0
 62
7
 10
-2.81250000E+02
 20
1.95500000E+02
 11
2.82099854E+02
 21
1.95500000E+02
  0
LINE
  8
0
 62
7
 10
-2.81250000E+02
 20
1.95500000E+02
 11
-2.81250000E+02
 21
-1.95000000E+02
  0
LINE
  8
0
 62
7
 10
-2.81250000E+02
 20
-1.95000000E+02
 11
2.82099854E+02
 21
-1.95000000E+02
  0
TEXT
  8
0
 62
7
 10
-2.67600562E+02
 20
1.57350000E+02
 40
6.30000019E+00
  1
MODEL:DDA125-3
 41
1.00000015E+00
  7
MONOTXT
  0
ENDSEC
  0
EOF
