  0
SECTION
  2
HEADER
  9
$ACADVER
  1
AC1003
  9
$EXTMIN
 10
-5.30371243E+02
 20
-4.37927576E+02
  9
$EXTMAX
 10
3.99799805E+02
 20
2.76250000E+02
  9
$LIMMIN
 10
-5.30372243E+02
 20
-4.37928576E+02
  9
$LIMMAX
 10
3.99800805E+02
 20
2.76251000E+02
  9
$SNAPUNIT
 10
1
 20
1
  9
$SNAPBASE
 10
0
 20
0
  9
$GRIDMODE
 70
0
  9
$GRIDUNIT
 10
0
 20
0
  9
$LTSCALE
 40
1.55028508E+01
  9
$TEXTSIZE
 40
3.2
  9
$DIMTAD
 70
0
  9
$LUNITS
 70
2
  9
$LUPREC
 70
4
  9
$FILLETRAD
 40
0
  9
$AUNITS
 70
0
  9
$AUPREC
 70
0
  0
ENDSEC
  0
SECTION
  2
TABLES
  0
TABLE
  2
LTYPE
 70
2
  0
LTYPE
  2
CONTINUOUS
 70
64
  3
Solid-Line
 72
65
 73
0
 40
0
  0
LTYPE
  2
DASHED
 70
64
  3
DASHED
 72
65
 73
2
 40
.75
 49
.5
 49
-.25
  0
LTYPE
  2
HIDDEN
 70
64
  3
HIDDEN
 72
65
 73
2
 40
.375
 49
.25
 49
-.125
  0
LTYPE
  2
CENTER
 70
64
  3
CENTER
 72
65
 73
4
 40
2
 49
1.25
 49
-.25
 49
.25
 49
-.25
  0
LTYPE
  2
PHANTOM
 70
64
  3
PHANTOM
 72
65
 73
6
 40
2.5
 49
1.25
 49
-.25
 49
.25
 49
-.25
 49
.25
 49
-.25
  0
ENDTAB
  0
TABLE
  2
LAYER
 70
1
  0
LAYER
  2
1
 70
0
 62
7
  6
CONTINUOUS
 0
ENDTAB
  0
TABLE
  2
STYLE
 70
2
  0
STYLE
  2
MONOTXT
 70
0
 40
0
 41
1
 50
0
 71
0
 42
.2
  3
monotxt
  0
STYLE
  2
BIGFONT
 70
0
 40
0
 41
1
 50
0
 71
0
 42
.2
  3
txt
  4
bigfont
  0
ENDTAB
  0
ENDSEC
  0
SECTION
  2
ENTITIES
  0
LINE
  8
0
 62
4
 10
1.57628859E+02
 20
-2.16701687E+02
 11
1.57128824E+02
 21
-2.17201718E+02
  0
LINE
  8
0
 62
4
 10
1.57128832E+02
 20
-5.92017700E+01
 11
1.57628842E+02
 21
-5.97017835E+01
  0
LINE
  8
0
  6
CENTER
 62
6
 10
1.68666427E+02
 20
-8.62017230E+01
 11
1.02477352E+02
 21
-8.62017230E+01
  0
LINE
  8
0
  6
CENTER
 62
6
 10
9.53557428E+01
 20
-1.38201738E+02
 11
1.83328563E+02
 21
-1.38201738E+02
  0
LINE
  8
0
  6
CENTER
 62
6
 10
1.68934116E+02
 20
-1.90201754E+02
 11
1.00573081E+02
 21
-1.90201754E+02
  0
LINE
  8
0
 62
4
 10
1.13628822E+02
 20
-2.16701747E+02
 11
1.14128808E+02
 21
-2.17201741E+02
  0
LINE
  8
0
 62
4
 10
1.57628827E+02
 20
-1.15701738E+02
 11
1.13628827E+02
 21
-1.15701738E+02
  0
LINE
  8
0
  6
CENTER
 62
6
 10
1.35628827E+02
 20
-5.32017536E+01
 11
1.35628827E+02
 21
-2.19044474E+02
  0
LINE
  8
0
 62
4
 10
1.14128834E+02
 20
-5.92017792E+01
 11
1.13628840E+02
 21
-5.97017651E+01
  0
LINE
  8
0
 62
4
 10
1.57628827E+02
 20
-5.97017841E+01
 11
1.57628827E+02
 21
-2.16701746E+02
  0
LINE
  8
0
 62
4
 10
1.13628827E+02
 20
-1.60701738E+02
 11
1.57628827E+02
 21
-1.60701738E+02
  0
LINE
  8
0
 62
4
 10
1.13628827E+02
 20
-5.97017536E+01
 11
1.13628827E+02
 21
-2.16701746E+02
  0
LINE
  8
0
 62
4
 10
1.14128827E+02
 20
-5.92017536E+01
 11
1.57128827E+02
 21
-5.92017536E+01
  0
LINE
  8
0
 62
4
 10
1.14128827E+02
 20
-2.17201746E+02
 11
1.57128827E+02
 21
-2.17201746E+02
  0
CIRCLE
  8
0
 62
4
 10
1.35628827E+02
 20
-1.38201738E+02
 40
1.87500000E+01
  0
CIRCLE
  8
0
 62
4
 10
1.35628827E+02
 20
-1.38201738E+02
 40
1.25000000E+01
  0
CIRCLE
  8
0
 62
4
 10
1.35628827E+02
 20
-1.38201738E+02
 40
1.15000000E+01
  0
LINE
  8
0
  6
CENTER
 62
6
 10
-1.00627209E+02
 20
-1.38201738E+02
 11
-3.21889462E+02
 21
-1.38201738E+02
  0
LINE
  8
0
  6
CENTER
 62
6
 10
-1.57371243E+02
 20
-1.99258570E+02
 11
-1.57371243E+02
 21
-1.80409609E+02
  0
LINE
  8
0
  6
CENTER
 62
6
 10
-1.66034146E+02
 20
-8.62017383E+01
 11
-1.48061886E+02
 21
-8.62017383E+01
  0
LINE
  8
0
  6
CENTER
 62
6
 10
-1.65595791E+02
 20
-1.90201738E+02
 11
-1.48938565E+02
 21
-1.90201738E+02
  0
LINE
  8
0
  6
CENTER
 62
6
 10
-2.09371243E+02
 20
-4.64313983E+01
 11
-2.09371243E+02
 21
-2.36788950E+02
  0
LINE
  8
0
  6
CENTER
 62
6
 10
-1.57371243E+02
 20
-7.47677173E+01
 11
-1.57371243E+02
 21
-9.49317340E+01
  0
LINE
  8
0
  6
CENTER
 62
6
 10
-2.69922635E+02
 20
-8.62017383E+01
 11
-2.52388730E+02
 21
-8.62017383E+01
  0
LINE
  8
0
  6
CENTER
 62
6
 10
-2.71237698E+02
 20
-1.90201738E+02
 11
-2.52388730E+02
 21
-1.90201738E+02
  0
LINE
  8
0
  6
CENTER
 62
6
 10
-2.61371121E+02
 20
-2.00573618E+02
 11
-2.61371121E+02
 21
-1.81724642E+02
  0
LINE
  8
0
  6
CENTER
 62
6
 10
-2.61371121E+02
 20
-7.60827655E+01
 11
-2.61371121E+02
 21
-9.44933795E+01
  0
LINE
  8
0
 62
4
 10
-3.12371243E+02
 20
-1.25701738E+02
 11
-3.12371243E+02
 21
-1.50701738E+02
  0
LINE
  8
0
 62
4
 10
-2.90371243E+02
 20
-1.50701738E+02
 11
-3.12371243E+02
 21
-1.50701738E+02
  0
LINE
  8
0
 62
4
 10
-3.12371177E+02
 20
-1.50701738E+02
 11
-3.13371185E+02
 21
-1.49701744E+02
  0
LINE
  8
0
 62
4
 10
-1.32371243E+02
 20
-1.66415209E+02
 11
-1.32371243E+02
 21
-1.09988268E+02
  0
LINE
  8
0
 62
4
 10
-1.30371243E+02
 20
-1.56951738E+02
 11
-1.30371243E+02
 21
-1.19451738E+02
  0
LINE
  8
0
 62
4
 10
-1.05371228E+02
 20
-1.49701708E+02
 11
-1.05371228E+02
 21
-1.26701738E+02
  0
LINE
  8
0
 62
4
 10
-1.28371243E+02
 20
-1.25701738E+02
 11
-1.06371228E+02
 21
-1.25701738E+02
  0
LINE
  8
0
 62
4
 10
-1.06371286E+02
 20
-1.25701733E+02
 11
-1.05371257E+02
 21
-1.26701749E+02
  0
LINE
  8
0
 62
4
 10
-1.06371228E+02
 20
-1.50701738E+02
 11
-1.06371228E+02
 21
-1.25701738E+02
  0
LINE
  8
0
 62
4
 10
-1.31371304E+02
 20
-1.59701708E+02
 11
-1.31371304E+02
 21
-1.16701754E+02
  0
LINE
  8
0
 62
4
 10
-1.06371228E+02
 20
-1.50701738E+02
 11
-1.28371243E+02
 21
-1.50701738E+02
  0
LINE
  8
0
 62
4
 10
-1.05371301E+02
 20
-1.49701728E+02
 11
-1.06371309E+02
 21
-1.50701723E+02
  0
LINE
  8
0
 62
4
 10
-1.31371304E+02
 20
-1.19451738E+02
 11
-1.30371243E+02
 21
-1.19451738E+02
  0
LINE
  8
0
 62
4
 10
-1.32371277E+02
 20
-1.15701746E+02
 11
-1.31371279E+02
 21
-1.16701750E+02
  0
LINE
  8
0
 62
4
 10
-1.30371243E+02
 20
-1.56951738E+02
 11
-1.31371304E+02
 21
-1.56951738E+02
  0
LINE
  8
0
 62
4
 10
-1.31371287E+02
 20
-1.59701727E+02
 11
-1.32371284E+02
 21
-1.60701732E+02
  0
LINE
  8
0
 62
4
 10
-2.88371243E+02
 20
-1.19451738E+02
 11
-2.87371182E+02
 21
-1.19451738E+02
  0
LINE
  8
0
 62
4
 10
-2.88371243E+02
 20
-1.56951738E+02
 11
-2.87371182E+02
 21
-1.56951738E+02
  0
LINE
  8
0
 62
4
 10
-2.87371172E+02
 20
-1.59701733E+02
 11
-2.86371163E+02
 21
-1.60701726E+02
  0
LINE
  8
0
 62
4
 10
-2.87371173E+02
 20
-1.16701745E+02
 11
-2.86371190E+02
 21
-1.15701769E+02
  0
LINE
  8
0
 62
4
 10
-2.86371243E+02
 20
-1.09988268E+02
 11
-2.86371243E+02
 21
-1.66415209E+02
  0
LINE
  8
0
 62
4
 10
-2.88371243E+02
 20
-1.19451738E+02
 11
-2.88371243E+02
 21
-1.56951738E+02
  0
LINE
  8
0
 62
4
 10
-3.13371243E+02
 20
-1.26701738E+02
 11
-3.13371243E+02
 21
-1.49701708E+02
  0
LINE
  8
0
 62
4
 10
-3.13371211E+02
 20
-1.26701731E+02
 11
-3.12371203E+02
 21
-1.25701736E+02
  0
LINE
  8
0
 62
4
 10
-2.87371182E+02
 20
-1.16701754E+02
 11
-2.87371182E+02
 21
-1.59701738E+02
  0
LINE
  8
0
 62
4
 10
-3.12371243E+02
 20
-1.25701738E+02
 11
-2.90371243E+02
 21
-1.25701738E+02
  0
ARC
  8
0
 62
4
 10
-2.62457120E+02
 20
-8.51158923E+01
 40
1.80000000E+01
 50
1.09076837E+02
 51
1.63041369E+02
  0
ARC
  8
0
 62
4
 10
-8.83712278E+01
 20
-1.38201738E+02
 40
2.00000000E+02
 50
1.63041369E+02
 51
1.71890344E+02
  0
ARC
  8
0
 62
4
 10
-2.90371243E+02
 20
-1.23701738E+02
 40
2.00000000E+00
 50
2.70000018E+02
 51
0.00000000E+00
  0
ARC
  8
0
 62
4
 10
-2.90371243E+02
 20
-1.52701738E+02
 40
2.00000000E+00
 50
2.54444375E-14
 51
8.99999818E+01
  0
ARC
  8
0
 62
4
 10
-8.83712278E+01
 20
-1.38201738E+02
 40
2.00000000E+02
 50
1.88109711E+02
 51
1.96958685E+02
  0
ARC
  8
0
 62
4
 10
-2.62457120E+02
 20
-1.91287600E+02
 40
1.80000000E+01
 50
1.96958685E+02
 51
2.50920403E+02
  0
ARC
  8
0
 62
4
 10
-3.30371243E+02
 20
-1.38201738E+02
 40
2.00000000E+02
 50
8.10965437E+00
 51
1.69586289E+01
  0
ARC
  8
0
 62
4
 10
-1.56285367E+02
 20
-8.51158923E+01
 40
1.80000000E+01
 50
1.69586289E+01
 51
7.30391265E+01
  0
ARC
  8
0
 62
4
 10
-1.28371243E+02
 20
-1.23701738E+02
 40
2.00000000E+00
 50
1.80000036E+02
 51
2.70000018E+02
  0
ARC
  8
0
 62
4
 10
-1.28371243E+02
 20
-1.52701738E+02
 40
2.00000000E+00
 50
8.99999818E+01
 51
1.79999964E+02
  0
ARC
  8
0
 62
4
 10
-3.30371243E+02
 20
-1.38201738E+02
 40
2.00000000E+02
 50
3.43041316E+02
 51
3.51890291E+02
  0
ARC
  8
0
 62
4
 10
-1.56285367E+02
 20
-1.91287600E+02
 40
1.80000000E+01
 50
2.86958503E+02
 51
3.43075321E+02
  0
ARC
  8
0
 62
4
 10
-2.09371243E+02
 20
-2.48314661E+02
 40
1.89612915E+02
 50
7.20817937E+01
 51
1.08119286E+02
  0
ARC
  8
0
 62
4
 10
-2.09371243E+02
 20
-2.80888385E+01
 40
1.89612915E+02
 50
2.51880455E+02
 51
2.87918207E+02
  0
CIRCLE
  8
0
 62
4
 10
-2.09371243E+02
 20
-1.38201738E+02
 40
6.65000000E+01
  0
CIRCLE
  8
0
 62
4
 10
-2.61371121E+02
 20
-8.62017383E+01
 40
5.75000000E+00
  0
CIRCLE
  8
0
 62
4
 10
-1.57371243E+02
 20
-8.62017383E+01
 40
5.75000000E+00
  0
CIRCLE
  8
0
 62
4
 10
-1.57371243E+02
 20
-1.90201738E+02
 40
5.75000000E+00
  0
CIRCLE
  8
0
 62
4
 10
-2.61371121E+02
 20
-1.90201738E+02
 40
5.75000000E+00
  0
LINE
  8
0
  6
CENTER
 62
6
 10
9.39328455E+01
 20
1.43798307E+02
 11
1.75762988E+02
 21
1.43798307E+02
  0
LINE
  8
0
  6
CENTER
 62
6
 10
1.35628888E+02
 20
2.56331633E+02
 11
1.35628888E+02
 21
3.05400983E+01
  0
LINE
  8
0
 62
4
 10
1.13628889E+02
 20
2.20798246E+02
 11
1.13628889E+02
 21
6.67982770E+01
  0
LINE
  8
0
 62
4
 10
1.24128967E+02
 20
2.47798159E+02
 11
1.23128980E+02
 21
2.46798187E+02
  0
LINE
  8
0
 62
4
 10
1.23128889E+02
 20
2.46798307E+02
 11
1.23128889E+02
 21
2.24798307E+02
  0
LINE
  8
0
 62
4
 10
1.48128779E+02
 20
2.46798144E+02
 11
1.47128777E+02
 21
2.47798144E+02
  0
LINE
  8
0
 62
4
 10
1.48128889E+02
 20
2.46798307E+02
 11
1.48128889E+02
 21
2.24798307E+02
  0
LINE
  8
0
 62
4
 10
1.57628889E+02
 20
2.20798246E+02
 11
1.57628889E+02
 21
6.67982770E+01
  0
LINE
  8
0
 62
4
 10
1.47128889E+02
 20
2.47798307E+02
 11
1.24128889E+02
 21
2.47798307E+02
  0
LINE
  8
0
 62
4
 10
1.48128889E+02
 20
2.46798246E+02
 11
1.23128889E+02
 21
2.46798246E+02
  0
LINE
  8
0
  6
CENTER
 62
6
 10
1.68910217E+02
 20
9.17982464E+01
 11
1.00382511E+02
 21
9.17982464E+01
  0
LINE
  8
0
 62
4
 10
1.56628889E+02
 20
2.21798246E+02
 11
1.14628889E+02
 21
2.21798246E+02
  0
LINE
  8
0
 62
4
 10
1.16378889E+02
 20
2.22798307E+02
 11
1.16378889E+02
 21
2.21798246E+02
  0
LINE
  8
0
 62
4
 10
1.24128889E+02
 20
3.97982770E+01
 11
1.47128889E+02
 21
3.97982770E+01
  0
LINE
  8
0
 62
4
 10
1.14628923E+02
 20
2.21798222E+02
 11
1.13628897E+02
 21
2.20798203E+02
  0
LINE
  8
0
 62
4
 10
1.56628721E+02
 20
2.21798061E+02
 11
1.57628717E+02
 21
2.20798054E+02
  0
LINE
  8
0
 62
4
 10
1.54878889E+02
 20
2.22798307E+02
 11
1.54878889E+02
 21
2.21798246E+02
  0
LINE
  8
0
 62
4
 10
1.54878889E+02
 20
2.22798307E+02
 11
1.16378889E+02
 21
2.22798307E+02
  0
LINE
  8
0
 62
4
 10
1.57628889E+02
 20
2.20798307E+02
 11
1.13628889E+02
 21
2.20798307E+02
  0
LINE
  8
0
 62
4
 10
1.23128889E+02
 20
4.07982770E+01
 11
1.48128889E+02
 21
4.07982770E+01
  0
LINE
  8
0
 62
4
 10
1.16378889E+02
 20
6.47982770E+01
 11
1.54878889E+02
 21
6.47982770E+01
  0
LINE
  8
0
 62
4
 10
1.14628889E+02
 20
6.57983075E+01
 11
1.56628889E+02
 21
6.57983075E+01
  0
LINE
  8
0
 62
4
 10
1.13628889E+02
 20
6.67982770E+01
 11
1.57628889E+02
 21
6.67982770E+01
  0
LINE
  8
0
 62
4
 10
1.23128889E+02
 20
6.27982770E+01
 11
1.23128889E+02
 21
4.07982770E+01
  0
LINE
  8
0
 62
4
 10
1.48128889E+02
 20
6.27982770E+01
 11
1.48128889E+02
 21
4.07982770E+01
  0
LINE
  8
0
 62
4
 10
1.47128859E+02
 20
3.97983599E+01
 11
1.48128839E+02
 21
4.07983391E+01
  0
LINE
  8
0
 62
4
 10
1.23128836E+02
 20
4.07982493E+01
 11
1.24128845E+02
 21
3.97982565E+01
  0
LINE
  8
0
 62
4
 10
1.16378889E+02
 20
6.57983075E+01
 11
1.16378889E+02
 21
6.47982770E+01
  0
LINE
  8
0
 62
4
 10
1.54878889E+02
 20
6.57983075E+01
 11
1.54878889E+02
 21
6.47982770E+01
  0
LINE
  8
0
 62
4
 10
1.57628838E+02
 20
6.67984067E+01
 11
1.56628820E+02
 21
6.57983788E+01
  0
LINE
  8
0
 62
4
 10
1.13628823E+02
 20
6.67982773E+01
 11
1.14628806E+02
 21
6.57983012E+01
  0
LINE
  8
0
  6
CENTER
 62
6
 10
1.69716426E+02
 20
1.95798369E+02
 11
1.01188720E+02
 21
1.95798369E+02
  0
ARC
  8
0
 62
4
 10
1.21128889E+02
 20
2.24798307E+02
 40
2.00000000E+00
 50
2.70000018E+02
 51
3.59999982E+02
  0
ARC
  8
0
 62
4
 10
1.50128889E+02
 20
2.24798307E+02
 40
2.00000000E+00
 50
1.80000036E+02
 51
2.70000018E+02
  0
ARC
  8
0
 62
4
 10
1.21128889E+02
 20
6.27982770E+01
 40
2.00000000E+00
 50
3.59999982E+02
 51
8.99999274E+01
  0
ARC
  8
0
 62
4
 10
1.50128889E+02
 20
6.27982770E+01
 40
2.00000000E+00
 50
8.99999818E+01
 51
1.79999964E+02
  0
LINE
  8
0
 62
7
 10
2.79799927E+02
 20
-2.56750000E+02
 11
3.99799805E+02
 21
-2.56750000E+02
  0
LINE
  8
0
 62
7
 10
2.79799927E+02
 20
-2.56750000E+02
 11
2.79799927E+02
 21
-2.76750000E+02
  0
TEXT
  8
0
 62
7
 10
2.87585240E+02
 20
-2.71250000E+02
 40
9.00000000E+00
  1
KOGANEI CORP.
 41
1.04838710E+00
  7
MONOTXT
  0
TEXT
  8
0
 62
7
 10
3.15499641E+02
 20
2.63100000E+02
 40
6.30000019E+00
  1
Ver. 1.0
 41
1.08108124E+00
  7
MONOTXT
  0
LINE
  8
0
 62
7
 10
2.79799927E+02
 20
2.56250000E+02
 11
3.99799805E+02
 21
2.56250000E+02
  0
LINE
  8
0
 62
7
 10
2.79799927E+02
 20
2.76250000E+02
 11
2.79799927E+02
 21
2.56250000E+02
  0
TEXT
  8
0
 62
7
 10
-3.85600562E+02
 20
2.38100000E+02
 40
6.30000019E+00
  1
MODEL:DDA125-11
 41
1.00000015E+00
  7
MONOTXT
  0
LINE
  8
0
 62
7
 10
-3.99250000E+02
 20
2.56250000E+02
 11
-2.79250000E+02
 21
2.56250000E+02
  0
LINE
  8
0
 62
7
 10
-2.79250000E+02
 20
2.76250000E+02
 11
-2.79250000E+02
 21
2.56250000E+02
  0
TEXT
  8
0
 62
7
 10
-3.91900291E+02
 20
2.63100000E+02
 40
6.30000019E+00
  1
NEW DYNA CYLINDER
 41
1.07594953E+00
  7
MONOTXT
  0
LINE
  8
0
 62
7
 10
-3.99250000E+02
 20
-2.76750000E+02
 11
3.99799805E+02
 21
-2.76750000E+02
  0
LINE
  8
0
 62
7
 10
-3.99250000E+02
 20
2.76250000E+02
 11
3.99799805E+02
 21
2.76250000E+02
  0
LINE
  8
0
 62
7
 10
-3.99250000E+02
 20
2.76250000E+02
 11
-3.99250000E+02
 21
-2.76750000E+02
  0
LINE
  8
0
 62
7
 10
3.99799805E+02
 20
2.76250000E+02
 11
3.99799805E+02
 21
-2.76750000E+02
  0
ENDSEC
  0
EOF
