  0
SECTION
  2
HEADER
  9
$ACADVER
  1
AC1003
  9
$EXTMIN
 10
-1.94250000E+02
 20
-1.33500000E+02
  9
$EXTMAX
 10
1.94800003E+02
 20
1.32600006E+02
  9
$LIMMIN
 10
-1.94251000E+02
 20
-1.33501000E+02
  9
$LIMMAX
 10
1.94801003E+02
 20
1.32601006E+02
  9
$SNAPUNIT
 10
1
 20
1
  9
$SNAPBASE
 10
0
 20
0
  9
$GRIDMODE
 70
0
  9
$GRIDUNIT
 10
0
 20
0
  9
$LTSCALE
 40
6.48416672E+00
  9
$TEXTSIZE
 40
3.2
  9
$DIMTAD
 70
0
  9
$LUNITS
 70
2
  9
$LUPREC
 70
4
  9
$FILLETRAD
 40
0
  9
$AUNITS
 70
0
  9
$AUPREC
 70
0
  0
ENDSEC
  0
SECTION
  2
TABLES
  0
TABLE
  2
LTYPE
 70
2
  0
LTYPE
  2
CONTINUOUS
 70
64
  3
Solid-Line
 72
65
 73
0
 40
0
  0
LTYPE
  2
DASHED
 70
64
  3
DASHED
 72
65
 73
2
 40
.75
 49
.5
 49
-.25
  0
LTYPE
  2
HIDDEN
 70
64
  3
HIDDEN
 72
65
 73
2
 40
.375
 49
.25
 49
-.125
  0
LTYPE
  2
CENTER
 70
64
  3
CENTER
 72
65
 73
4
 40
2
 49
1.25
 49
-.25
 49
.25
 49
-.25
  0
LTYPE
  2
PHANTOM
 70
64
  3
PHANTOM
 72
65
 73
6
 40
2.5
 49
1.25
 49
-.25
 49
.25
 49
-.25
 49
.25
 49
-.25
  0
ENDTAB
  0
TABLE
  2
LAYER
 70
1
  0
LAYER
  2
1
 70
0
 62
7
  6
CONTINUOUS
 0
ENDTAB
  0
TABLE
  2
STYLE
 70
2
  0
STYLE
  2
MONOTXT
 70
0
 40
0
 41
1
 50
0
 71
0
 42
.2
  3
monotxt
  0
STYLE
  2
BIGFONT
 70
0
 40
0
 41
1
 50
0
 71
0
 42
.2
  3
txt
  4
bigfont
  0
ENDTAB
  0
ENDSEC
  0
SECTION
  2
ENTITIES
  0
LINE
  8
0
 62
4
 10
6.65815021E+01
 20
-9.95251616E+01
 11
6.65815021E+01
 21
-6.15251616E+01
  0
LINE
  8
0
  6
CENTER
 62
6
 10
7.05394071E+01
 20
-8.85251616E+01
 11
5.65934990E+01
 21
-8.85251616E+01
  0
LINE
  8
0
 62
4
 10
1.35815037E+01
 20
-1.06525162E+02
 11
5.95815023E+01
 21
-1.06525162E+02
  0
LINE
  8
0
 62
4
 10
6.05815023E+01
 20
-6.15251616E+01
 11
6.65815021E+01
 21
-6.15251616E+01
  0
LINE
  8
0
 62
4
 10
1.35815037E+01
 20
-1.00525162E+02
 11
5.95815023E+01
 21
-1.00525162E+02
  0
LINE
  8
0
 62
4
 10
6.05815023E+01
 20
-6.15251464E+01
 11
6.05815023E+01
 21
-9.95251464E+01
  0
LINE
  8
0
 62
4
 10
1.35815037E+01
 20
-1.00525146E+02
 11
1.35815037E+01
 21
-1.06525146E+02
  0
LINE
  8
0
  6
CENTER
 62
6
 10
3.15815037E+01
 20
-9.43973387E+01
 11
3.15815037E+01
 21
-1.12335029E+02
  0
LINE
  8
0
 62
4
 10
3.65815202E+01
 20
-1.00525176E+02
 11
6.05814995E+01
 21
-8.65251883E+01
  0
ARC
  8
0
 62
4
 10
5.95815023E+01
 20
-9.95251616E+01
 40
1.00000000E+00
 50
2.70000018E+02
 51
0.00000000E+00
  0
ARC
  8
0
 62
4
 10
5.95815023E+01
 20
-9.95251616E+01
 40
7.00000000E+00
 50
2.70000018E+02
 51
0.00000000E+00
  0
LINE
  8
0
  6
CENTER
 62
6
 10
-3.94185459E+01
 20
-1.08872497E+02
 11
-3.94185459E+01
 21
-7.96783904E+01
  0
LINE
  8
0
  6
CENTER
 62
6
 10
-4.81447117E+01
 20
-8.85251464E+01
 11
-3.07197697E+01
 21
-8.85251464E+01
  0
LINE
  8
0
  6
CENTER
 62
6
 10
-9.14185459E+01
 20
-5.95894316E+01
 11
-9.14185459E+01
 21
-1.12114685E+02
  0
LINE
  8
0
  6
CENTER
 62
6
 10
-1.53382108E+02
 20
-8.85251464E+01
 11
-1.35498624E+02
 21
-8.85251464E+01
  0
LINE
  8
0
  6
CENTER
 62
6
 10
-1.43418424E+02
 20
-1.08507904E+02
 11
-1.43418424E+02
 21
-8.01369475E+01
  0
LINE
  8
0
 62
4
 10
-1.59418546E+02
 20
-1.00525146E+02
 11
-2.34185612E+01
 21
-1.00525146E+02
  0
LINE
  8
0
 62
4
 10
-7.11198480E+01
 20
-8.95555778E+01
 11
-6.64186022E+01
 21
-1.00525151E+02
  0
LINE
  8
0
 62
4
 10
-1.16418642E+02
 20
-1.00525129E+02
 11
-1.11717385E+02
 21
-8.95555295E+01
  0
LINE
  8
0
 62
4
 10
-7.24185764E+01
 20
-8.84822997E+01
 11
-7.24185764E+01
 21
-1.00525146E+02
  0
LINE
  8
0
 62
4
 10
-1.10418546E+02
 20
-8.86483916E+01
 11
-1.10418546E+02
 21
-1.00525146E+02
  0
LINE
  8
0
 62
4
 10
-1.07121549E+02
 20
-8.65251464E+01
 11
-7.57155735E+01
 21
-8.65251464E+01
  0
LINE
  8
0
 62
4
 10
-3.37943907E+01
 20
-7.25220529E+01
 11
-7.48354195E+01
 21
-6.15251423E+01
  0
LINE
  8
0
 62
4
 10
-2.34185996E+01
 20
-1.00525049E+02
 11
-2.49459547E+01
 21
-8.30673125E+01
  0
LINE
  8
0
 62
4
 10
-2.34185612E+01
 20
-1.00525146E+02
 11
-2.34185612E+01
 21
-1.06525146E+02
  0
LINE
  8
0
 62
4
 10
-1.49042725E+02
 20
-7.25220612E+01
 11
-1.08001667E+02
 21
-6.15251427E+01
  0
LINE
  8
0
 62
4
 10
-1.59418546E+02
 20
-1.00525146E+02
 11
-1.59418546E+02
 21
-1.06525146E+02
  0
LINE
  8
0
 62
4
 10
-1.59418640E+02
 20
-1.00525024E+02
 11
-1.57891286E+02
 21
-8.30672952E+01
  0
LINE
  8
0
 62
4
 10
-1.59418546E+02
 20
-1.06525146E+02
 11
-2.34185612E+01
 21
-1.06525146E+02
  0
ARC
  8
0
 62
4
 10
-9.14185459E+01
 20
-3.65251464E+01
 40
3.00000000E+01
 50
2.36442697E+02
 51
3.03557328E+02
  0
ARC
  8
0
 62
4
 10
-7.57155430E+01
 20
-9.15251464E+01
 40
5.00000000E+00
 50
2.31985753E+01
 51
8.99999818E+01
  0
ARC
  8
0
 62
4
 10
-1.07121549E+02
 20
-9.15251464E+01
 40
5.00000000E+00
 50
8.99999818E+01
 51
1.56801445E+02
  0
ARC
  8
0
 62
4
 10
-3.69002354E+01
 20
-8.41131743E+01
 40
1.20000000E+01
 50
4.99994436E+00
 51
7.49999233E+01
  0
ARC
  8
0
 62
4
 10
-1.45936856E+02
 20
-8.41131743E+01
 40
1.20000000E+01
 50
1.05000040E+02
 51
1.75000019E+02
  0
CIRCLE
  8
0
 62
4
 10
-1.43418424E+02
 20
-8.85251464E+01
 40
5.75000000E+00
  0
CIRCLE
  8
0
 62
4
 10
-3.94185459E+01
 20
-8.85251464E+01
 40
5.75000000E+00
  0
LINE
  8
0
 62
4
 10
3.25816258E+01
 20
1.21474960E+02
 11
3.05816258E+01
 21
1.21474960E+02
  0
LINE
  8
0
 62
4
 10
3.25816258E+01
 20
1.03474960E+02
 11
3.05816258E+01
 21
1.03474960E+02
  0
LINE
  8
0
 62
4
 10
6.65816242E+01
 20
1.28474960E+02
 11
2.85816258E+01
 21
1.28474960E+02
  0
LINE
  8
0
 62
4
 10
1.35816258E+01
 20
1.13474838E+02
 11
1.35816258E+01
 21
7.47488416E+00
  0
LINE
  8
0
  6
CENTER
 62
6
 10
3.15816258E+01
 20
1.25782944E+02
 11
3.15816258E+01
 21
9.88135835E+01
  0
LINE
  8
0
 62
4
 10
6.65816242E+01
 20
-7.52499377E+00
 11
2.85816258E+01
 21
-7.52499377E+00
  0
LINE
  8
0
  6
CENTER
 62
6
 10
6.84488338E+01
 20
1.12474960E+02
 11
1.77223728E+01
 21
1.12474960E+02
  0
LINE
  8
0
 62
4
 10
3.25816258E+01
 20
-5.24993768E-01
 11
3.05816258E+01
 21
-5.24993768E-01
  0
LINE
  8
0
  6
CENTER
 62
6
 10
-8.01785655E-01
 20
6.04748994E+01
 11
7.45059422E+01
 21
6.04748994E+01
  0
LINE
  8
0
 62
4
 10
6.05816243E+01
 20
1.28474838E+02
 11
6.05816243E+01
 21
-7.52499377E+00
  0
LINE
  8
0
 62
4
 10
6.05816243E+01
 20
9.04748994E+01
 11
6.65816242E+01
 21
9.04748994E+01
  0
LINE
  8
0
 62
4
 10
6.05816243E+01
 20
3.04748994E+01
 11
6.65816242E+01
 21
3.04748994E+01
  0
LINE
  8
0
  6
CENTER
 62
6
 10
3.15816258E+01
 20
-4.83322131E+00
 11
3.15816258E+01
 21
2.21361238E+01
  0
LINE
  8
0
 62
4
 10
3.25816258E+01
 20
1.74750215E+01
 11
3.05816258E+01
 21
1.74750215E+01
  0
LINE
  8
0
 62
4
 10
6.65816242E+01
 20
-7.52499377E+00
 11
6.65816242E+01
 21
1.28474960E+02
  0
LINE
  8
0
  6
CENTER
 62
6
 10
6.81796461E+01
 20
8.47479261E+00
 11
1.77223728E+01
 21
8.47479261E+00
  0
LINE
  8
0
 62
4
 10
6.05816243E+01
 20
4.14748994E+01
 11
4.05456131E+01
 21
4.14748994E+01
  0
LINE
  8
0
 62
4
 10
4.03689143E+01
 20
8.04217984E+01
 11
6.05816137E+01
 21
8.54749748E+01
  0
LINE
  8
0
 62
4
 10
6.05816243E+01
 20
7.94748384E+01
 11
4.01886185E+01
 21
7.94748384E+01
  0
LINE
  8
0
 62
4
 10
6.05816764E+01
 20
3.54749245E+01
 11
4.03689721E+01
 21
4.05280990E+01
  0
LINE
  8
0
 62
4
 10
3.65816238E+01
 20
4.53787690E+01
 11
3.65816238E+01
 21
7.55710298E+01
  0
ARC
  8
0
 62
4
 10
3.05816258E+01
 20
1.12474899E+02
 40
9.00000000E+00
 50
8.99999818E+01
 51
2.70000001E+02
  0
ARC
  8
0
 62
4
 10
3.25816258E+01
 20
1.12474899E+02
 40
9.00000000E+00
 50
2.70000018E+02
 51
8.99999818E+01
  0
ARC
  8
0
 62
4
 10
2.85816258E+01
 20
1.13474899E+02
 40
1.50000000E+01
 50
8.99999818E+01
 51
1.80000019E+02
  0
ARC
  8
0
 62
4
 10
2.85816258E+01
 20
7.47488416E+00
 40
1.50000000E+01
 50
1.79999964E+02
 51
2.70000001E+02
  0
ARC
  8
0
 62
4
 10
3.25816258E+01
 20
8.47488416E+00
 40
9.00000000E+00
 50
2.70000018E+02
 51
8.99999818E+01
  0
ARC
  8
0
 62
4
 10
3.05816258E+01
 20
8.47488416E+00
 40
9.00000000E+00
 50
8.99999681E+01
 51
2.70000001E+02
  0
ARC
  8
0
 62
4
 10
4.15816238E+01
 20
7.55710298E+01
 40
5.00000000E+00
 50
1.04036301E+02
 51
1.79999991E+02
  0
ARC
  8
0
 62
4
 10
4.15816238E+01
 20
4.53787690E+01
 40
5.00000000E+00
 50
1.79999991E+02
 51
2.55963716E+02
  0
LINE
  8
0
 62
7
 10
1.09800003E+02
 20
-1.18500000E+02
 11
1.09800003E+02
 21
-1.33500000E+02
  0
LINE
  8
0
 62
7
 10
1.09800003E+02
 20
-1.18500000E+02
 11
1.94800003E+02
 21
-1.18500000E+02
  0
TEXT
  8
0
 62
7
 10
1.15249715E+02
 20
-1.29150000E+02
 40
6.30000019E+00
  1
KOGANEI CORP.
 41
1.04838725E+00
  7
MONOTXT
  0
TEXT
  8
0
 62
7
 10
-1.89357136E+02
 20
1.22850006E+02
 40
4.50000000E+00
  1
NEW DYNA CYLINDER
 41
1.07594914E+00
  7
MONOTXT
  0
LINE
  8
0
 62
7
 10
-1.94250000E+02
 20
1.17600006E+02
 11
-1.09250000E+02
 21
1.17600006E+02
  0
LINE
  8
0
 62
7
 10
-1.09250000E+02
 20
1.32600006E+02
 11
-1.09250000E+02
 21
1.17600006E+02
  0
LINE
  8
0
 62
7
 10
1.09800003E+02
 20
1.32600006E+02
 11
1.09800003E+02
 21
1.17600006E+02
  0
LINE
  8
0
 62
7
 10
1.09800003E+02
 20
1.17600006E+02
 11
1.94800003E+02
 21
1.17600006E+02
  0
TEXT
  8
0
 62
7
 10
1.34942863E+02
 20
1.22850006E+02
 40
4.50000000E+00
  1
Ver. 1.0
 41
1.08108085E+00
  7
MONOTXT
  0
TEXT
  8
0
 62
7
 10
-1.85214688E+02
 20
1.05350006E+02
 40
4.50000000E+00
  1
MODEL:DDA125-1
 41
1.00000000E+00
  7
MONOTXT
  0
LINE
  8
0
 62
7
 10
-1.94250000E+02
 20
1.32600006E+02
 11
1.94800003E+02
 21
1.32600006E+02
  0
LINE
  8
0
 62
7
 10
1.94800003E+02
 20
1.32600006E+02
 11
1.94800003E+02
 21
-1.33500000E+02
  0
LINE
  8
0
 62
7
 10
-1.94250000E+02
 20
1.32600006E+02
 11
-1.94250000E+02
 21
-1.33500000E+02
  0
LINE
  8
0
 62
7
 10
-1.94250000E+02
 20
-1.33500000E+02
 11
1.94800003E+02
 21
-1.33500000E+02
  0
ENDSEC
  0
EOF
