  0
SECTION
  2
HEADER
  9
$ACADVER
  1
AC1003
  9
$EXTMIN
 10
-5.69500000E+02
 20
-4.00500000E+02
  9
$EXTMAX
 10
5.69500000E+02
 20
4.00500000E+02
  9
$LIMMIN
 10
-5.69501000E+02
 20
-4.00501000E+02
  9
$LIMMAX
 10
5.69501000E+02
 20
4.00501000E+02
  9
$SNAPUNIT
 10
1
 20
1
  9
$SNAPBASE
 10
0
 20
0
  9
$GRIDMODE
 70
0
  9
$GRIDUNIT
 10
0
 20
0
  9
$LTSCALE
 40
1.89833333E+01
  9
$TEXTSIZE
 40
3.2
  9
$DIMTAD
 70
0
  9
$LUNITS
 70
2
  9
$LUPREC
 70
4
  9
$FILLETRAD
 40
0
  9
$AUNITS
 70
0
  9
$AUPREC
 70
0
  0
ENDSEC
  0
SECTION
  2
TABLES
  0
TABLE
  2
LTYPE
 70
2
  0
LTYPE
  2
CONTINUOUS
 70
64
  3
Solid-Line
 72
65
 73
0
 40
0
  0
LTYPE
  2
DASHED
 70
64
  3
DASHED
 72
65
 73
2
 40
.75
 49
.5
 49
-.25
  0
LTYPE
  2
HIDDEN
 70
64
  3
HIDDEN
 72
65
 73
2
 40
.375
 49
.25
 49
-.125
  0
LTYPE
  2
CENTER
 70
64
  3
CENTER
 72
65
 73
4
 40
2
 49
1.25
 49
-.25
 49
.25
 49
-.25
  0
LTYPE
  2
PHANTOM
 70
64
  3
PHANTOM
 72
65
 73
6
 40
2.5
 49
1.25
 49
-.25
 49
.25
 49
-.25
 49
.25
 49
-.25
  0
ENDTAB
  0
TABLE
  2
LAYER
 70
1
  0
LAYER
  2
1
 70
0
 62
7
  6
CONTINUOUS
 0
ENDTAB
  0
TABLE
  2
STYLE
 70
2
  0
STYLE
  2
MONOTXT
 70
0
 40
0
 41
1
 50
0
 71
0
 42
.2
  3
monotxt
  0
STYLE
  2
BIGFONT
 70
0
 40
0
 41
1
 50
0
 71
0
 42
.2
  3
txt
  4
bigfont
  0
ENDTAB
  0
ENDSEC
  0
SECTION
  2
ENTITIES
  0
LINE
  8
0
  6
PHANTOM
 10
-2.95000000E+01
 20
2.81313474E+01
 11
-2.95000000E+01
 21
1.88056721E+02
  0
LINE
  8
0
 62
7
 10
-1.73499990E+02
 20
8.74999847E+01
 11
-1.61999983E+02
 21
8.74999847E+01
  0
LINE
  8
0
 62
2
 10
-1.73499990E+02
 20
8.83199921E+01
 11
-1.61999983E+02
 21
8.83199921E+01
  0
LINE
  8
0
 62
7
 10
-1.73499990E+02
 20
1.13499992E+02
 11
-1.61999983E+02
 21
1.13499992E+02
  0
LINE
  8
0
 62
2
 10
-1.73499990E+02
 20
1.12679985E+02
 11
-1.61999983E+02
 21
1.12679985E+02
  0
LINE
  8
0
 62
4
 10
-1.73500021E+02
 20
8.24999970E+01
 11
-1.75107713E+02
 21
7.97154066E+01
  0
LINE
  8
0
 62
4
 10
-1.87500013E+02
 20
8.25000896E+01
 11
-1.85892309E+02
 21
7.97154821E+01
  0
LINE
  8
0
 62
4
 10
-1.85892294E+02
 20
7.97153931E+01
 11
-1.75107687E+02
 21
7.97153931E+01
  0
ARC
  8
0
 62
4
 10
-1.82700945E+02
 20
8.49115448E+01
 40
9.20095253E+00
 50
3.25615707E+02
 51
3.43842378E+01
  0
ARC
  8
0
 62
4
 10
-1.78299036E+02
 20
8.49115448E+01
 40
9.20095253E+00
 50
1.45615726E+02
 51
2.14384256E+02
  0
LINE
  8
0
 62
4
 10
-1.85892294E+02
 20
9.01076965E+01
 11
-1.75107687E+02
 21
9.01076965E+01
  0
LINE
  8
0
 62
4
 10
-1.85892294E+02
 20
1.10892303E+02
 11
-1.75107687E+02
 21
1.10892303E+02
  0
ARC
  8
0
 62
4
 10
-2.07892256E+02
 20
1.00500000E+02
 40
3.43922653E+01
 50
3.42412030E+02
 51
1.75879147E+01
  0
ARC
  8
0
 62
4
 10
-1.53107725E+02
 20
1.00500000E+02
 40
3.43922653E+01
 50
1.62412050E+02
 51
1.97587933E+02
  0
LINE
  8
0
 62
4
 10
-1.73499990E+02
 20
1.18500012E+02
 11
-1.75107671E+02
 21
1.21284634E+02
  0
LINE
  8
0
 62
4
 10
-1.87500000E+02
 20
1.18499999E+02
 11
-1.85892321E+02
 21
1.21284608E+02
  0
LINE
  8
0
 62
4
 10
-1.85892294E+02
 20
1.21284607E+02
 11
-1.75107687E+02
 21
1.21284607E+02
  0
LINE
  8
0
 62
4
 10
-1.87499990E+02
 20
1.18500000E+02
 11
-1.87499990E+02
 21
8.25000000E+01
  0
LINE
  8
0
 62
4
 10
-1.73499990E+02
 20
1.18500000E+02
 11
-1.73499990E+02
 21
8.25000000E+01
  0
ARC
  8
0
 62
4
 10
-1.82700945E+02
 20
1.16088455E+02
 40
9.20095253E+00
 50
3.25615707E+02
 51
3.43842378E+01
  0
ARC
  8
0
 62
4
 10
-1.78299036E+02
 20
1.16088455E+02
 40
9.20095253E+00
 50
1.45615726E+02
 51
2.14384256E+02
  0
LINE
  8
0
 62
4
 10
-1.49999790E+01
 20
1.52920416E+02
 11
-2.41339536E+01
 21
1.52920416E+02
  0
LINE
  8
0
 62
4
 10
-1.49999790E+01
 20
1.49920416E+02
 11
-2.58660044E+01
 21
1.49920416E+02
  0
LINE
  8
0
 62
6
 10
-2.32679282E+01
 20
1.54420416E+02
 11
-2.67320298E+01
 21
1.48420416E+02
  0
LINE
  8
0
  6
CENTER
 62
6
 10
-2.95000000E+01
 20
1.51420416E+02
 11
2.00000210E+01
 21
1.51420416E+02
  0
POLYLINE
  8
0
 62
4
 66
1
  0
VERTEX
  8
0
 62
4
 10
-5.74777176E+01
 20
1.54000012E+02
  0
VERTEX
  8
0
 62
4
 10
-5.71450090E+01
 20
1.54135027E+02
  0
VERTEX
  8
0
 62
4
 10
-5.68265942E+01
 20
1.54296071E+02
  0
VERTEX
  8
0
 62
4
 10
-5.65249269E+01
 20
1.54481906E+02
  0
VERTEX
  8
0
 62
4
 10
-5.62423315E+01
 20
1.54691097E+02
  0
VERTEX
  8
0
 62
4
 10
-5.59809856E+01
 20
1.54922034E+02
  0
VERTEX
  8
0
 62
4
 10
-5.57429030E+01
 20
1.55172937E+02
  0
VERTEX
  8
0
 62
4
 10
-5.55299183E+01
 20
1.55441872E+02
  0
VERTEX
  8
0
 62
4
 10
-5.53436727E+01
 20
1.55726768E+02
  0
VERTEX
  8
0
 62
4
 10
-5.51856013E+01
 20
1.56025428E+02
  0
VERTEX
  8
0
 62
4
 10
-5.50569222E+01
 20
1.56335552E+02
  0
VERTEX
  8
0
 62
4
 10
-5.49586268E+01
 20
1.56654750E+02
  0
VERTEX
  8
0
 62
4
 10
-5.48914727E+01
 20
1.56980562E+02
  0
VERTEX
  8
0
 62
4
 10
-5.48559773E+01
 20
1.57310478E+02
  0
VERTEX
  8
0
 62
4
 10
-5.48524140E+01
 20
1.57641955E+02
  0
VERTEX
  8
0
 62
4
 10
-5.48808105E+01
 20
1.57972440E+02
  0
VERTEX
  8
0
 62
4
 10
-5.49409477E+01
 20
1.58299385E+02
  0
VERTEX
  8
0
 62
4
 10
-5.50323625E+01
 20
1.58620271E+02
  0
VERTEX
  8
0
 62
4
 10
-5.51543503E+01
 20
1.58932626E+02
  0
VERTEX
  8
0
 62
4
 10
-5.53059711E+01
 20
1.59234043E+02
  0
VERTEX
  8
0
 62
4
 10
-5.54860567E+01
 20
1.59522199E+02
  0
VERTEX
  8
0
 62
4
 10
-5.56932193E+01
 20
1.59794874E+02
  0
VERTEX
  8
0
 62
4
 10
-5.59258627E+01
 20
1.60049967E+02
  0
VERTEX
  8
0
 62
4
 10
-5.61821941E+01
 20
1.60285512E+02
  0
VERTEX
  8
0
 62
4
 10
-5.64602385E+01
 20
1.60499694E+02
  0
VERTEX
  8
0
 62
4
 10
-5.67578532E+01
 20
1.60690862E+02
  0
VERTEX
  8
0
 62
4
 10
-5.70727450E+01
 20
1.60857544E+02
  0
VERTEX
  8
0
 62
4
 10
-5.74024875E+01
 20
1.60998455E+02
  0
VERTEX
  8
0
 62
4
 10
-5.77445398E+01
 20
1.61112509E+02
  0
VERTEX
  8
0
 62
4
 10
-5.80962661E+01
 20
1.61198828E+02
  0
VERTEX
  8
0
 62
4
 10
-5.84549563E+01
 20
1.61256747E+02
  0
VERTEX
  8
0
 62
4
 10
-5.88178463E+01
 20
1.61285818E+02
  0
VERTEX
  8
0
 62
4
 10
-5.91821400E+01
 20
1.61285818E+02
  0
VERTEX
  8
0
 62
4
 10
-5.95450301E+01
 20
1.61256748E+02
  0
VERTEX
  8
0
 62
4
 10
-5.99037204E+01
 20
1.61198830E+02
  0
VERTEX
  8
0
 62
4
 10
-6.02554470E+01
 20
1.61112512E+02
  0
VERTEX
  8
0
 62
4
 10
-6.05974995E+01
 20
1.60998458E+02
  0
VERTEX
  8
0
 62
4
 10
-6.09272424E+01
 20
1.60857548E+02
  0
VERTEX
  8
0
 62
4
 10
-6.12421347E+01
 20
1.60690867E+02
  0
VERTEX
  8
0
 62
4
 10
-6.15397499E+01
 20
1.60499699E+02
  0
VERTEX
  8
0
 62
4
 10
-6.18177948E+01
 20
1.60285518E+02
  0
VERTEX
  8
0
 62
4
 10
-6.20741269E+01
 20
1.60049974E+02
  0
VERTEX
  8
0
 62
4
 10
-6.23067709E+01
 20
1.59794882E+02
  0
VERTEX
  8
0
 62
4
 10
-6.25139343E+01
 20
1.59522207E+02
  0
VERTEX
  8
0
 62
4
 10
-6.26940206E+01
 20
1.59234051E+02
  0
VERTEX
  8
0
 62
4
 10
-6.28456422E+01
 20
1.58932635E+02
  0
VERTEX
  8
0
 62
4
 10
-6.29676308E+01
 20
1.58620280E+02
  0
VERTEX
  8
0
 62
4
 10
-6.30590464E+01
 20
1.58299393E+02
  0
VERTEX
  8
0
 62
4
 10
-6.31191845E+01
 20
1.57972449E+02
  0
VERTEX
  8
0
 62
4
 10
-6.31475818E+01
 20
1.57641964E+02
  0
VERTEX
  8
0
 62
4
 10
-6.31440195E+01
 20
1.57310487E+02
  0
VERTEX
  8
0
 62
4
 10
-6.31085249E+01
 20
1.56980571E+02
  0
VERTEX
  8
0
 62
4
 10
-6.30413716E+01
 20
1.56654759E+02
  0
VERTEX
  8
0
 62
4
 10
-6.29430771E+01
 20
1.56335561E+02
  0
VERTEX
  8
0
 62
4
 10
-6.28143988E+01
 20
1.56025436E+02
  0
VERTEX
  8
0
 62
4
 10
-6.26563282E+01
 20
1.55726776E+02
  0
VERTEX
  8
0
 62
4
 10
-6.24700833E+01
 20
1.55441880E+02
  0
VERTEX
  8
0
 62
4
 10
-6.22570994E+01
 20
1.55172944E+02
  0
VERTEX
  8
0
 62
4
 10
-6.20190174E+01
 20
1.54922041E+02
  0
VERTEX
  8
0
 62
4
 10
-6.17576721E+01
 20
1.54691103E+02
  0
VERTEX
  8
0
 62
4
 10
-6.14750773E+01
 20
1.54481911E+02
  0
VERTEX
  8
0
 62
4
 10
-6.11734104E+01
 20
1.54296076E+02
  0
VERTEX
  8
0
 62
4
 10
-6.08549961E+01
 20
1.54135031E+02
  0
VERTEX
  8
0
 62
4
 10
-6.05222879E+01
 20
1.54000015E+02
  0
SEQEND
  8
0
  0
POLYLINE
  8
0
 62
4
 66
1
  0
VERTEX
  8
0
 62
4
 10
-5.61951388E+01
 20
1.54000016E+02
  0
VERTEX
  8
0
 62
4
 10
-5.59258007E+01
 20
1.54246471E+02
  0
VERTEX
  8
0
 62
4
 10
-5.56825052E+01
 20
1.54514416E+02
  0
VERTEX
  8
0
 62
4
 10
-5.54673133E+01
 20
1.54801581E+02
  0
VERTEX
  8
0
 62
4
 10
-5.52820481E+01
 20
1.55105533E+02
  0
VERTEX
  8
0
 62
4
 10
-5.51282789E+01
 20
1.55423698E+02
  0
VERTEX
  8
0
 62
4
 10
-5.50073084E+01
 20
1.55753381E+02
  0
VERTEX
  8
0
 62
4
 10
-5.49201614E+01
 20
1.56091788E+02
  0
VERTEX
  8
0
 62
4
 10
-5.48675762E+01
 20
1.56436052E+02
  0
VERTEX
  8
0
 62
4
 10
-5.48499981E+01
 20
1.56783258E+02
  0
SEQEND
  8
0
  0
LINE
  8
0
 62
4
 10
-4.39999981E+01
 20
1.54000015E+02
 11
-4.39999981E+01
 21
1.63905365E+02
  0
LINE
  8
0
 62
7
 10
-1.49999790E+01
 20
1.38000015E+02
 11
-8.79999981E+01
 21
1.38000015E+02
  0
LINE
  8
0
 62
7
 10
-1.49999790E+01
 20
1.47000031E+02
 11
-8.79999981E+01
 21
1.47000031E+02
  0
LINE
  8
0
 62
7
 10
1.50000210E+01
 20
1.54000015E+02
 11
2.30000210E+01
 21
1.54000015E+02
  0
LINE
  8
0
 62
4
 10
-5.04999981E+01
 20
1.54069725E+02
 11
-5.04999981E+01
 21
1.54000015E+02
  0
LINE
  8
0
 62
4
 10
-7.39999981E+01
 20
1.63905365E+02
 11
-7.39999981E+01
 21
1.54069725E+02
  0
LINE
  8
0
  6
CENTER
 62
6
 10
-5.43499981E+01
 20
1.56625674E+02
 11
-6.36499981E+01
 21
1.56625674E+02
  0
LINE
  8
0
  6
CENTER
 62
6
 10
-5.89999981E+01
 20
1.61275674E+02
 11
-5.89999981E+01
 21
1.51975674E+02
  0
LINE
  8
0
  6
CENTER
 62
6
 10
-6.29254012E+01
 20
1.59810539E+02
 11
-7.00745950E+01
 21
1.59810539E+02
  0
LINE
  8
0
  6
CENTER
 62
6
 10
-6.64999981E+01
 20
1.63385136E+02
 11
-6.64999981E+01
 21
1.56235942E+02
  0
LINE
  8
0
  6
CENTER
 62
6
 10
-4.66999981E+01
 20
1.59810539E+02
 11
-5.62999981E+01
 21
1.59810539E+02
  0
LINE
  8
0
  6
CENTER
 62
6
 10
-5.14999981E+01
 20
1.64610539E+02
 11
-5.14999981E+01
 21
1.55010539E+02
  0
LINE
  8
0
 62
4
 10
2.09808349E-05
 20
1.31767706E+02
 11
2.09808349E-05
 21
1.59634024E+02
  0
LINE
  8
0
 62
4
 10
-1.49999790E+01
 20
1.31767706E+02
 11
-1.49999790E+01
 21
1.63905365E+02
  0
LINE
  8
0
 62
4
 10
1.50000210E+01
 20
1.63905365E+02
 11
1.50000210E+01
 21
1.44908767E+02
  0
LINE
  8
0
  6
CENTER
 62
6
 10
-3.49997902E+00
 20
1.32330530E+02
 11
-3.49997902E+00
 21
1.39330530E+02
  0
LINE
  8
0
  6
CENTER
 62
6
 10
-1.49999790E+01
 20
1.35830530E+02
 11
-7.99997902E+00
 21
1.35830530E+02
  0
LINE
  8
0
  6
CENTER
 62
6
 10
-1.14999790E+01
 20
1.32330530E+02
 11
-1.14999790E+01
 21
1.39330530E+02
  0
LINE
  8
0
  6
CENTER
 62
6
 10
-6.99997902E+00
 20
1.35830530E+02
 11
2.09808349E-05
 21
1.35830530E+02
  0
LINE
  8
0
 62
4
 10
-7.39999981E+01
 20
1.63905365E+02
 11
-4.39999981E+01
 21
1.63905365E+02
  0
LINE
  8
0
 62
4
 10
-1.49999790E+01
 20
1.63905365E+02
 11
1.50000210E+01
 21
1.63905365E+02
  0
LINE
  8
0
 62
4
 10
-1.49999790E+01
 20
1.59634024E+02
 11
1.50000210E+01
 21
1.59634024E+02
  0
LINE
  8
0
 62
4
 10
-1.49999790E+01
 20
1.56731172E+02
 11
2.09629500E-05
 21
1.56731172E+02
  0
LINE
  8
0
 62
4
 10
-1.39999790E+01
 20
1.42592275E+02
 11
-9.99979002E-01
 21
1.42592275E+02
  0
LINE
  8
0
 62
4
 10
2.09629500E-05
 20
1.44908767E+02
 11
1.50000210E+01
 21
1.44908767E+02
  0
LINE
  8
0
 62
4
 10
-1.49999790E+01
 20
1.31767706E+02
 11
2.09629500E-05
 21
1.31767706E+02
  0
LINE
  8
0
 62
4
 10
2.09629500E-05
 20
1.51899353E+02
 11
1.50000210E+01
 21
1.51899353E+02
  0
LINE
  8
0
 62
4
 10
2.09629500E-05
 20
1.51733476E+02
 11
1.50000210E+01
 21
1.51733476E+02
  0
LINE
  8
0
  6
CENTER
 62
6
 10
1.10746179E+01
 20
1.55539199E+02
 11
3.92542409E+00
 21
1.55539199E+02
  0
LINE
  8
0
  6
CENTER
 62
6
 10
7.50002098E+00
 20
1.59113795E+02
 11
7.50002098E+00
 21
1.51964602E+02
  0
POLYLINE
  8
0
 62
4
 66
1
  0
VERTEX
  8
0
 62
4
 10
9.75002098E+00
 20
1.55539199E+02
  0
VERTEX
  8
0
 62
4
 10
9.74145905E+00
 20
1.55717643E+02
  0
VERTEX
  8
0
 62
4
 10
9.71583842E+00
 20
1.55894729E+02
  0
VERTEX
  8
0
 62
4
 10
9.67335409E+00
 20
1.56069108E+02
  0
VERTEX
  8
0
 62
4
 10
9.61432938E+00
 20
1.56239455E+02
  0
VERTEX
  8
0
 62
4
 10
9.53921350E+00
 20
1.56404473E+02
  0
VERTEX
  8
0
 62
4
 10
9.44857814E+00
 20
1.56562905E+02
  0
VERTEX
  8
0
 62
4
 10
9.34311308E+00
 20
1.56713547E+02
  0
VERTEX
  8
0
 62
4
 10
9.22362098E+00
 20
1.56855251E+02
  0
VERTEX
  8
0
 62
4
 10
9.09101124E+00
 20
1.56986939E+02
  0
VERTEX
  8
0
 62
4
 10
8.94629310E+00
 20
1.57107608E+02
  0
VERTEX
  8
0
 62
4
 10
8.79056796E+00
 20
1.57216341E+02
  0
VERTEX
  8
0
 62
4
 10
8.62502098E+00
 20
1.57312311E+02
  0
VERTEX
  8
0
 62
4
 10
8.45091207E+00
 20
1.57394785E+02
  0
VERTEX
  8
0
 62
4
 10
8.26956630E+00
 20
1.57463138E+02
  0
VERTEX
  8
0
 62
4
 10
8.08236383E+00
 20
1.57516848E+02
  0
VERTEX
  8
0
 62
4
 10
7.89072938E+00
 20
1.57555507E+02
  0
VERTEX
  8
0
 62
4
 10
7.69612140E+00
 20
1.57578821E+02
  0
VERTEX
  8
0
 62
4
 10
7.50002098E+00
 20
1.57586612E+02
  0
VERTEX
  8
0
 62
4
 10
7.30392056E+00
 20
1.57578821E+02
  0
VERTEX
  8
0
 62
4
 10
7.10931258E+00
 20
1.57555507E+02
  0
VERTEX
  8
0
 62
4
 10
6.91767813E+00
 20
1.57516848E+02
  0
VERTEX
  8
0
 62
4
 10
6.73047566E+00
 20
1.57463138E+02
  0
VERTEX
  8
0
 62
4
 10
6.54912989E+00
 20
1.57394785E+02
  0
VERTEX
  8
0
 62
4
 10
6.37502098E+00
 20
1.57312311E+02
  0
VERTEX
  8
0
 62
4
 10
6.20947400E+00
 20
1.57216341E+02
  0
VERTEX
  8
0
 62
4
 10
6.05374886E+00
 20
1.57107608E+02
  0
VERTEX
  8
0
 62
4
 10
5.90903072E+00
 20
1.56986939E+02
  0
VERTEX
  8
0
 62
4
 10
5.77642098E+00
 20
1.56855251E+02
  0
VERTEX
  8
0
 62
4
 10
5.65692888E+00
 20
1.56713547E+02
  0
VERTEX
  8
0
 62
4
 10
5.55146382E+00
 20
1.56562905E+02
  0
VERTEX
  8
0
 62
4
 10
5.46082846E+00
 20
1.56404473E+02
  0
VERTEX
  8
0
 62
4
 10
5.38571258E+00
 20
1.56239455E+02
  0
VERTEX
  8
0
 62
4
 10
5.32668787E+00
 20
1.56069108E+02
  0
VERTEX
  8
0
 62
4
 10
5.28420354E+00
 20
1.55894729E+02
  0
VERTEX
  8
0
 62
4
 10
5.25858291E+00
 20
1.55717643E+02
  0
VERTEX
  8
0
 62
4
 10
5.25002098E+00
 20
1.55539199E+02
  0
VERTEX
  8
0
 62
4
 10
5.25858291E+00
 20
1.55360755E+02
  0
VERTEX
  8
0
 62
4
 10
5.28420354E+00
 20
1.55183669E+02
  0
VERTEX
  8
0
 62
4
 10
5.32668787E+00
 20
1.55009290E+02
  0
VERTEX
  8
0
 62
4
 10
5.38571258E+00
 20
1.54838943E+02
  0
VERTEX
  8
0
 62
4
 10
5.46082846E+00
 20
1.54673925E+02
  0
VERTEX
  8
0
 62
4
 10
5.55146382E+00
 20
1.54515493E+02
  0
VERTEX
  8
0
 62
4
 10
5.65692888E+00
 20
1.54364851E+02
  0
VERTEX
  8
0
 62
4
 10
5.77642099E+00
 20
1.54223147E+02
  0
VERTEX
  8
0
 62
4
 10
5.90903073E+00
 20
1.54091459E+02
  0
VERTEX
  8
0
 62
4
 10
6.05374886E+00
 20
1.53970790E+02
  0
VERTEX
  8
0
 62
4
 10
6.20947400E+00
 20
1.53862057E+02
  0
VERTEX
  8
0
 62
4
 10
6.37502098E+00
 20
1.53766087E+02
  0
VERTEX
  8
0
 62
4
 10
6.54912989E+00
 20
1.53683613E+02
  0
VERTEX
  8
0
 62
4
 10
6.73047566E+00
 20
1.53615260E+02
  0
VERTEX
  8
0
 62
4
 10
6.91767813E+00
 20
1.53561550E+02
  0
VERTEX
  8
0
 62
4
 10
7.10931258E+00
 20
1.53522891E+02
  0
VERTEX
  8
0
 62
4
 10
7.30392056E+00
 20
1.53499577E+02
  0
VERTEX
  8
0
 62
4
 10
7.50002098E+00
 20
1.53491786E+02
  0
VERTEX
  8
0
 62
4
 10
7.69612141E+00
 20
1.53499577E+02
  0
VERTEX
  8
0
 62
4
 10
7.89072938E+00
 20
1.53522891E+02
  0
VERTEX
  8
0
 62
4
 10
8.08236384E+00
 20
1.53561550E+02
  0
VERTEX
  8
0
 62
4
 10
8.26956631E+00
 20
1.53615260E+02
  0
VERTEX
  8
0
 62
4
 10
8.45091207E+00
 20
1.53683613E+02
  0
VERTEX
  8
0
 62
4
 10
8.62502098E+00
 20
1.53766087E+02
  0
VERTEX
  8
0
 62
4
 10
8.79056797E+00
 20
1.53862057E+02
  0
VERTEX
  8
0
 62
4
 10
8.94629311E+00
 20
1.53970790E+02
  0
VERTEX
  8
0
 62
4
 10
9.09101124E+00
 20
1.54091459E+02
  0
VERTEX
  8
0
 62
4
 10
9.22362098E+00
 20
1.54223147E+02
  0
VERTEX
  8
0
 62
4
 10
9.34311308E+00
 20
1.54364851E+02
  0
VERTEX
  8
0
 62
4
 10
9.44857814E+00
 20
1.54515493E+02
  0
VERTEX
  8
0
 62
4
 10
9.53921350E+00
 20
1.54673925E+02
  0
VERTEX
  8
0
 62
4
 10
9.61432938E+00
 20
1.54838943E+02
  0
VERTEX
  8
0
 62
4
 10
9.67335409E+00
 20
1.55009290E+02
  0
VERTEX
  8
0
 62
4
 10
9.71583843E+00
 20
1.55183669E+02
  0
VERTEX
  8
0
 62
4
 10
9.74145905E+00
 20
1.55360755E+02
  0
VERTEX
  8
0
 62
4
 10
9.75002098E+00
 20
1.55539199E+02
  0
SEQEND
  8
0
  0
POLYLINE
  8
0
 62
4
 66
1
  0
VERTEX
  8
0
 62
4
 10
-1.49997902E+00
 20
1.35830530E+02
  0
VERTEX
  8
0
 62
4
 10
-1.50803043E+00
 20
1.35993667E+02
  0
VERTEX
  8
0
 62
4
 10
-1.53211984E+00
 20
1.36155490E+02
  0
VERTEX
  8
0
 62
4
 10
-1.57205329E+00
 20
1.36314696E+02
  0
VERTEX
  8
0
 62
4
 10
-1.62750927E+00
 20
1.36470005E+02
  0
VERTEX
  8
0
 62
4
 10
-1.69804128E+00
 20
1.36620165E+02
  0
VERTEX
  8
0
 62
4
 10
-1.78308143E+00
 20
1.36763967E+02
  0
VERTEX
  8
0
 62
4
 10
-1.88194502E+00
 20
1.36900254E+02
  0
VERTEX
  8
0
 62
4
 10
-1.99383608E+00
 20
1.37027927E+02
  0
VERTEX
  8
0
 62
4
 10
-2.11785371E+00
 20
1.37145961E+02
  0
VERTEX
  8
0
 62
4
 10
-2.25299940E+00
 20
1.37253403E+02
  0
VERTEX
  8
0
 62
4
 10
-2.39818504E+00
 20
1.37349389E+02
  0
VERTEX
  8
0
 62
4
 10
-2.55224168E+00
 20
1.37433146E+02
  0
VERTEX
  8
0
 62
4
 10
-2.71392894E+00
 20
1.37503999E+02
  0
VERTEX
  8
0
 62
4
 10
-2.88194502E+00
 20
1.37561379E+02
  0
VERTEX
  8
0
 62
4
 10
-3.05493714E+00
 20
1.37604823E+02
  0
VERTEX
  8
0
 62
4
 10
-3.23151247E+00
 20
1.37633982E+02
  0
VERTEX
  8
0
 62
4
 10
-3.41024934E+00
 20
1.37648620E+02
  0
VERTEX
  8
0
 62
4
 10
-3.58970866E+00
 20
1.37648620E+02
  0
VERTEX
  8
0
 62
4
 10
-3.76844553E+00
 20
1.37633982E+02
  0
VERTEX
  8
0
 62
4
 10
-3.94502087E+00
 20
1.37604823E+02
  0
VERTEX
  8
0
 62
4
 10
-4.11801299E+00
 20
1.37561379E+02
  0
VERTEX
  8
0
 62
4
 10
-4.28602907E+00
 20
1.37503999E+02
  0
VERTEX
  8
0
 62
4
 10
-4.44771633E+00
 20
1.37433146E+02
  0
VERTEX
  8
0
 62
4
 10
-4.60177297E+00
 20
1.37349389E+02
  0
VERTEX
  8
0
 62
4
 10
-4.74695861E+00
 20
1.37253403E+02
  0
VERTEX
  8
0
 62
4
 10
-4.88210430E+00
 20
1.37145961E+02
  0
VERTEX
  8
0
 62
4
 10
-5.00612194E+00
 20
1.37027927E+02
  0
VERTEX
  8
0
 62
4
 10
-5.11801300E+00
 20
1.36900254E+02
  0
VERTEX
  8
0
 62
4
 10
-5.21687660E+00
 20
1.36763967E+02
  0
VERTEX
  8
0
 62
4
 10
-5.30191675E+00
 20
1.36620165E+02
  0
VERTEX
  8
0
 62
4
 10
-5.37244875E+00
 20
1.36470005E+02
  0
VERTEX
  8
0
 62
4
 10
-5.42790474E+00
 20
1.36314696E+02
  0
VERTEX
  8
0
 62
4
 10
-5.46783819E+00
 20
1.36155490E+02
  0
VERTEX
  8
0
 62
4
 10
-5.49192761E+00
 20
1.35993667E+02
  0
VERTEX
  8
0
 62
4
 10
-5.49997902E+00
 20
1.35830530E+02
  0
SEQEND
  8
0
  0
LINE
  8
0
 62
4
 10
-5.49997902E+00
 20
1.34195613E+02
 11
-5.49997902E+00
 21
1.35830530E+02
  0
POLYLINE
  8
0
 62
4
 66
1
  0
VERTEX
  8
0
 62
4
 10
-5.49997902E+00
 20
1.34195613E+02
  0
VERTEX
  8
0
 62
4
 10
-5.49236842E+00
 20
1.34036996E+02
  0
VERTEX
  8
0
 62
4
 10
-5.46959453E+00
 20
1.33879587E+02
  0
VERTEX
  8
0
 62
4
 10
-5.43183067E+00
 20
1.33724582E+02
  0
VERTEX
  8
0
 62
4
 10
-5.37936426E+00
 20
1.33573163E+02
  0
VERTEX
  8
0
 62
4
 10
-5.31259460E+00
 20
1.33426481E+02
  0
VERTEX
  8
0
 62
4
 10
-5.23202983E+00
 20
1.33285652E+02
  0
VERTEX
  8
0
 62
4
 10
-5.13828311E+00
 20
1.33151748E+02
  0
VERTEX
  8
0
 62
4
 10
-5.03206791E+00
 20
1.33025789E+02
  0
VERTEX
  8
0
 62
4
 10
-4.91419259E+00
 20
1.32908733E+02
  0
VERTEX
  8
0
 62
4
 10
-4.78555424E+00
 20
1.32801472E+02
  0
VERTEX
  8
0
 62
4
 10
-4.64713190E+00
 20
1.32704820E+02
  0
VERTEX
  8
0
 62
4
 10
-4.49997902E+00
 20
1.32619514E+02
  0
VERTEX
  8
0
 62
4
 10
-4.34521555E+00
 20
1.32546203E+02
  0
VERTEX
  8
0
 62
4
 10
-4.18401931E+00
 20
1.32485445E+02
  0
VERTEX
  8
0
 62
4
 10
-4.01761712E+00
 20
1.32437703E+02
  0
VERTEX
  8
0
 62
4
 10
-3.84727538E+00
 20
1.32403339E+02
  0
VERTEX
  8
0
 62
4
 10
-3.67429051E+00
 20
1.32382616E+02
  0
VERTEX
  8
0
 62
4
 10
-3.49997903E+00
 20
1.32375691E+02
  0
VERTEX
  8
0
 62
4
 10
-3.32566754E+00
 20
1.32382616E+02
  0
VERTEX
  8
0
 62
4
 10
-3.15268267E+00
 20
1.32403339E+02
  0
VERTEX
  8
0
 62
4
 10
-2.98234093E+00
 20
1.32437703E+02
  0
VERTEX
  8
0
 62
4
 10
-2.81593874E+00
 20
1.32485445E+02
  0
VERTEX
  8
0
 62
4
 10
-2.65474250E+00
 20
1.32546203E+02
  0
VERTEX
  8
0
 62
4
 10
-2.49997902E+00
 20
1.32619514E+02
  0
VERTEX
  8
0
 62
4
 10
-2.35282615E+00
 20
1.32704820E+02
  0
VERTEX
  8
0
 62
4
 10
-2.21440380E+00
 20
1.32801471E+02
  0
VERTEX
  8
0
 62
4
 10
-2.08576546E+00
 20
1.32908733E+02
  0
VERTEX
  8
0
 62
4
 10
-1.96789014E+00
 20
1.33025789E+02
  0
VERTEX
  8
0
 62
4
 10
-1.86167493E+00
 20
1.33151748E+02
  0
VERTEX
  8
0
 62
4
 10
-1.76792821E+00
 20
1.33285652E+02
  0
VERTEX
  8
0
 62
4
 10
-1.68736345E+00
 20
1.33426481E+02
  0
VERTEX
  8
0
 62
4
 10
-1.62059378E+00
 20
1.33573163E+02
  0
VERTEX
  8
0
 62
4
 10
-1.56812737E+00
 20
1.33724582E+02
  0
VERTEX
  8
0
 62
4
 10
-1.53036351E+00
 20
1.33879587E+02
  0
VERTEX
  8
0
 62
4
 10
-1.50758962E+00
 20
1.34036996E+02
  0
VERTEX
  8
0
 62
4
 10
-1.49997902E+00
 20
1.34195613E+02
  0
VERTEX
  8
0
 62
4
 10
-1.50758962E+00
 20
1.34354230E+02
  0
VERTEX
  8
0
 62
4
 10
-1.53036351E+00
 20
1.34511639E+02
  0
VERTEX
  8
0
 62
4
 10
-1.56812737E+00
 20
1.34666644E+02
  0
VERTEX
  8
0
 62
4
 10
-1.62059378E+00
 20
1.34818063E+02
  0
VERTEX
  8
0
 62
4
 10
-1.68736344E+00
 20
1.34964745E+02
  0
VERTEX
  8
0
 62
4
 10
-1.76792821E+00
 20
1.35105574E+02
  0
VERTEX
  8
0
 62
4
 10
-1.86167493E+00
 20
1.35239478E+02
  0
VERTEX
  8
0
 62
4
 10
-1.96789013E+00
 20
1.35365437E+02
  0
VERTEX
  8
0
 62
4
 10
-2.08576546E+00
 20
1.35482493E+02
  0
VERTEX
  8
0
 62
4
 10
-2.21440380E+00
 20
1.35589755E+02
  0
VERTEX
  8
0
 62
4
 10
-2.35282614E+00
 20
1.35686406E+02
  0
VERTEX
  8
0
 62
4
 10
-2.49997902E+00
 20
1.35771712E+02
  0
VERTEX
  8
0
 62
4
 10
-2.65474249E+00
 20
1.35845023E+02
  0
VERTEX
  8
0
 62
4
 10
-2.81593873E+00
 20
1.35905781E+02
  0
VERTEX
  8
0
 62
4
 10
-2.98234093E+00
 20
1.35953523E+02
  0
VERTEX
  8
0
 62
4
 10
-3.15268266E+00
 20
1.35987887E+02
  0
VERTEX
  8
0
 62
4
 10
-3.32566753E+00
 20
1.36008610E+02
  0
VERTEX
  8
0
 62
4
 10
-3.49997902E+00
 20
1.36015535E+02
  0
VERTEX
  8
0
 62
4
 10
-3.67429050E+00
 20
1.36008610E+02
  0
VERTEX
  8
0
 62
4
 10
-3.84727537E+00
 20
1.35987887E+02
  0
VERTEX
  8
0
 62
4
 10
-4.01761711E+00
 20
1.35953523E+02
  0
VERTEX
  8
0
 62
4
 10
-4.18401930E+00
 20
1.35905781E+02
  0
VERTEX
  8
0
 62
4
 10
-4.34521554E+00
 20
1.35845023E+02
  0
VERTEX
  8
0
 62
4
 10
-4.49997902E+00
 20
1.35771712E+02
  0
VERTEX
  8
0
 62
4
 10
-4.64713189E+00
 20
1.35686406E+02
  0
VERTEX
  8
0
 62
4
 10
-4.78555424E+00
 20
1.35589755E+02
  0
VERTEX
  8
0
 62
4
 10
-4.91419258E+00
 20
1.35482493E+02
  0
VERTEX
  8
0
 62
4
 10
-5.03206791E+00
 20
1.35365437E+02
  0
VERTEX
  8
0
 62
4
 10
-5.13828311E+00
 20
1.35239478E+02
  0
VERTEX
  8
0
 62
4
 10
-5.23202983E+00
 20
1.35105574E+02
  0
VERTEX
  8
0
 62
4
 10
-5.31259459E+00
 20
1.34964745E+02
  0
VERTEX
  8
0
 62
4
 10
-5.37936426E+00
 20
1.34818063E+02
  0
VERTEX
  8
0
 62
4
 10
-5.43183067E+00
 20
1.34666644E+02
  0
VERTEX
  8
0
 62
4
 10
-5.46959453E+00
 20
1.34511639E+02
  0
VERTEX
  8
0
 62
4
 10
-5.49236842E+00
 20
1.34354230E+02
  0
VERTEX
  8
0
 62
4
 10
-5.49997902E+00
 20
1.34195613E+02
  0
SEQEND
  8
0
  0
LINE
  8
0
 62
4
 10
-1.49997902E+00
 20
1.34195613E+02
 11
-1.49997902E+00
 21
1.35830530E+02
  0
POLYLINE
  8
0
 62
6
 66
1
  0
VERTEX
  8
0
 62
6
 10
-4.99997904E+00
 20
1.34195613E+02
  0
VERTEX
  8
0
 62
6
 10
-4.99427109E+00
 20
1.34076650E+02
  0
VERTEX
  8
0
 62
6
 10
-4.97719067E+00
 20
1.33958593E+02
  0
VERTEX
  8
0
 62
6
 10
-4.94886778E+00
 20
1.33842340E+02
  0
VERTEX
  8
0
 62
6
 10
-4.90951797E+00
 20
1.33728775E+02
  0
VERTEX
  8
0
 62
6
 10
-4.85944072E+00
 20
1.33618764E+02
  0
VERTEX
  8
0
 62
6
 10
-4.79901715E+00
 20
1.33513142E+02
  0
VERTEX
  8
0
 62
6
 10
-4.72870711E+00
 20
1.33412714E+02
  0
VERTEX
  8
0
 62
6
 10
-4.64904570E+00
 20
1.33318245E+02
  0
VERTEX
  8
0
 62
6
 10
-4.56063921E+00
 20
1.33230453E+02
  0
VERTEX
  8
0
 62
6
 10
-4.46416045E+00
 20
1.33150007E+02
  0
VERTEX
  8
0
 62
6
 10
-4.36034369E+00
 20
1.33077518E+02
  0
VERTEX
  8
0
 62
6
 10
-4.24997903E+00
 20
1.33013539E+02
  0
VERTEX
  8
0
 62
6
 10
-4.13390642E+00
 20
1.32958556E+02
  0
VERTEX
  8
0
 62
6
 10
-4.01300925E+00
 20
1.32912987E+02
  0
VERTEX
  8
0
 62
6
 10
-3.88820760E+00
 20
1.32877180E+02
  0
VERTEX
  8
0
 62
6
 10
-3.76045129E+00
 20
1.32851408E+02
  0
VERTEX
  8
0
 62
6
 10
-3.63071264E+00
 20
1.32835865E+02
  0
VERTEX
  8
0
 62
6
 10
-3.49997902E+00
 20
1.32830671E+02
  0
VERTEX
  8
0
 62
6
 10
-3.36924541E+00
 20
1.32835865E+02
  0
VERTEX
  8
0
 62
6
 10
-3.23950675E+00
 20
1.32851408E+02
  0
VERTEX
  8
0
 62
6
 10
-3.11175045E+00
 20
1.32877180E+02
  0
VERTEX
  8
0
 62
6
 10
-2.98694880E+00
 20
1.32912987E+02
  0
VERTEX
  8
0
 62
6
 10
-2.86605162E+00
 20
1.32958556E+02
  0
VERTEX
  8
0
 62
6
 10
-2.74997901E+00
 20
1.33013539E+02
  0
VERTEX
  8
0
 62
6
 10
-2.63961436E+00
 20
1.33077518E+02
  0
VERTEX
  8
0
 62
6
 10
-2.53579760E+00
 20
1.33150007E+02
  0
VERTEX
  8
0
 62
6
 10
-2.43931884E+00
 20
1.33230453E+02
  0
VERTEX
  8
0
 62
6
 10
-2.35091234E+00
 20
1.33318245E+02
  0
VERTEX
  8
0
 62
6
 10
-2.27125094E+00
 20
1.33412714E+02
  0
VERTEX
  8
0
 62
6
 10
-2.20094090E+00
 20
1.33513142E+02
  0
VERTEX
  8
0
 62
6
 10
-2.14051732E+00
 20
1.33618764E+02
  0
VERTEX
  8
0
 62
6
 10
-2.09044007E+00
 20
1.33728775E+02
  0
VERTEX
  8
0
 62
6
 10
-2.05109026E+00
 20
1.33842340E+02
  0
VERTEX
  8
0
 62
6
 10
-2.02276737E+00
 20
1.33958593E+02
  0
VERTEX
  8
0
 62
6
 10
-2.00568695E+00
 20
1.34076650E+02
  0
VERTEX
  8
0
 62
6
 10
-1.99997900E+00
 20
1.34195613E+02
  0
VERTEX
  8
0
 62
6
 10
-2.00568695E+00
 20
1.34314576E+02
  0
VERTEX
  8
0
 62
6
 10
-2.02276737E+00
 20
1.34432633E+02
  0
VERTEX
  8
0
 62
6
 10
-2.05109026E+00
 20
1.34548886E+02
  0
VERTEX
  8
0
 62
6
 10
-2.09044007E+00
 20
1.34662451E+02
  0
VERTEX
  8
0
 62
6
 10
-2.14051732E+00
 20
1.34772462E+02
  0
VERTEX
  8
0
 62
6
 10
-2.20094090E+00
 20
1.34878084E+02
  0
VERTEX
  8
0
 62
6
 10
-2.27125094E+00
 20
1.34978512E+02
  0
VERTEX
  8
0
 62
6
 10
-2.35091234E+00
 20
1.35072981E+02
  0
VERTEX
  8
0
 62
6
 10
-2.43931883E+00
 20
1.35160773E+02
  0
VERTEX
  8
0
 62
6
 10
-2.53579759E+00
 20
1.35241219E+02
  0
VERTEX
  8
0
 62
6
 10
-2.63961435E+00
 20
1.35313708E+02
  0
VERTEX
  8
0
 62
6
 10
-2.74997901E+00
 20
1.35377687E+02
  0
VERTEX
  8
0
 62
6
 10
-2.86605162E+00
 20
1.35432670E+02
  0
VERTEX
  8
0
 62
6
 10
-2.98694880E+00
 20
1.35478239E+02
  0
VERTEX
  8
0
 62
6
 10
-3.11175045E+00
 20
1.35514046E+02
  0
VERTEX
  8
0
 62
6
 10
-3.23950675E+00
 20
1.35539818E+02
  0
VERTEX
  8
0
 62
6
 10
-3.36924540E+00
 20
1.35555361E+02
  0
VERTEX
  8
0
 62
6
 10
-3.49997902E+00
 20
1.35560555E+02
  0
VERTEX
  8
0
 62
6
 10
-3.63071263E+00
 20
1.35555361E+02
  0
VERTEX
  8
0
 62
6
 10
-3.76045129E+00
 20
1.35539818E+02
  0
VERTEX
  8
0
 62
6
 10
-3.88820759E+00
 20
1.35514046E+02
  0
VERTEX
  8
0
 62
6
 10
-4.01300924E+00
 20
1.35478239E+02
  0
VERTEX
  8
0
 62
6
 10
-4.13390642E+00
 20
1.35432670E+02
  0
VERTEX
  8
0
 62
6
 10
-4.24997903E+00
 20
1.35377687E+02
  0
VERTEX
  8
0
 62
6
 10
-4.36034368E+00
 20
1.35313708E+02
  0
VERTEX
  8
0
 62
6
 10
-4.46416045E+00
 20
1.35241219E+02
  0
VERTEX
  8
0
 62
6
 10
-4.56063921E+00
 20
1.35160773E+02
  0
VERTEX
  8
0
 62
6
 10
-4.64904570E+00
 20
1.35072981E+02
  0
VERTEX
  8
0
 62
6
 10
-4.72870710E+00
 20
1.34978512E+02
  0
VERTEX
  8
0
 62
6
 10
-4.79901714E+00
 20
1.34878084E+02
  0
VERTEX
  8
0
 62
6
 10
-4.85944072E+00
 20
1.34772462E+02
  0
VERTEX
  8
0
 62
6
 10
-4.90951797E+00
 20
1.34662451E+02
  0
VERTEX
  8
0
 62
6
 10
-4.94886778E+00
 20
1.34548886E+02
  0
VERTEX
  8
0
 62
6
 10
-4.97719067E+00
 20
1.34432633E+02
  0
VERTEX
  8
0
 62
6
 10
-4.99427109E+00
 20
1.34314576E+02
  0
VERTEX
  8
0
 62
6
 10
-4.99997904E+00
 20
1.34195613E+02
  0
SEQEND
  8
0
  0
LINE
  8
0
 62
4
 10
-4.49997902E+00
 20
1.33667835E+02
 11
-4.49997902E+00
 21
1.34723391E+02
  0
LINE
  8
0
 62
4
 10
-3.49997902E+00
 20
1.35242068E+02
 11
-4.49997902E+00
 21
1.34723391E+02
  0
LINE
  8
0
 62
4
 10
-3.49997902E+00
 20
1.33140058E+02
 11
-4.49997902E+00
 21
1.33667835E+02
  0
LINE
  8
0
 62
4
 10
-3.49997902E+00
 20
1.35242068E+02
 11
-2.49997902E+00
 21
1.34723391E+02
  0
LINE
  8
0
 62
4
 10
-2.49997902E+00
 20
1.33667835E+02
 11
-2.49997902E+00
 21
1.34723391E+02
  0
LINE
  8
0
 62
4
 10
-3.49997902E+00
 20
1.33140058E+02
 11
-2.49997902E+00
 21
1.33667835E+02
  0
LINE
  8
0
 62
4
 10
-1.14999790E+01
 20
1.33140058E+02
 11
-1.04999790E+01
 21
1.33667835E+02
  0
LINE
  8
0
 62
4
 10
-1.04999790E+01
 20
1.33667835E+02
 11
-1.04999790E+01
 21
1.34723391E+02
  0
LINE
  8
0
 62
4
 10
-1.14999790E+01
 20
1.35242068E+02
 11
-1.04999790E+01
 21
1.34723391E+02
  0
LINE
  8
0
 62
4
 10
-1.14999790E+01
 20
1.33140058E+02
 11
-1.24999790E+01
 21
1.33667835E+02
  0
LINE
  8
0
 62
4
 10
-1.14999790E+01
 20
1.35242068E+02
 11
-1.24999790E+01
 21
1.34723391E+02
  0
LINE
  8
0
 62
4
 10
-1.24999790E+01
 20
1.33667835E+02
 11
-1.24999790E+01
 21
1.34723391E+02
  0
POLYLINE
  8
0
 62
6
 66
1
  0
VERTEX
  8
0
 62
6
 10
-1.29999790E+01
 20
1.34195613E+02
  0
VERTEX
  8
0
 62
6
 10
-1.29942711E+01
 20
1.34076650E+02
  0
VERTEX
  8
0
 62
6
 10
-1.29771907E+01
 20
1.33958593E+02
  0
VERTEX
  8
0
 62
6
 10
-1.29488678E+01
 20
1.33842340E+02
  0
VERTEX
  8
0
 62
6
 10
-1.29095180E+01
 20
1.33728775E+02
  0
VERTEX
  8
0
 62
6
 10
-1.28594407E+01
 20
1.33618764E+02
  0
VERTEX
  8
0
 62
6
 10
-1.27990171E+01
 20
1.33513142E+02
  0
VERTEX
  8
0
 62
6
 10
-1.27287071E+01
 20
1.33412714E+02
  0
VERTEX
  8
0
 62
6
 10
-1.26490457E+01
 20
1.33318245E+02
  0
VERTEX
  8
0
 62
6
 10
-1.25606392E+01
 20
1.33230453E+02
  0
VERTEX
  8
0
 62
6
 10
-1.24641604E+01
 20
1.33150007E+02
  0
VERTEX
  8
0
 62
6
 10
-1.23603437E+01
 20
1.33077518E+02
  0
VERTEX
  8
0
 62
6
 10
-1.22499790E+01
 20
1.33013539E+02
  0
VERTEX
  8
0
 62
6
 10
-1.21339064E+01
 20
1.32958556E+02
  0
VERTEX
  8
0
 62
6
 10
-1.20130092E+01
 20
1.32912987E+02
  0
VERTEX
  8
0
 62
6
 10
-1.18882076E+01
 20
1.32877180E+02
  0
VERTEX
  8
0
 62
6
 10
-1.17604513E+01
 20
1.32851408E+02
  0
VERTEX
  8
0
 62
6
 10
-1.16307126E+01
 20
1.32835865E+02
  0
VERTEX
  8
0
 62
6
 10
-1.14999790E+01
 20
1.32830671E+02
  0
VERTEX
  8
0
 62
6
 10
-1.13692454E+01
 20
1.32835865E+02
  0
VERTEX
  8
0
 62
6
 10
-1.12395067E+01
 20
1.32851408E+02
  0
VERTEX
  8
0
 62
6
 10
-1.11117504E+01
 20
1.32877180E+02
  0
VERTEX
  8
0
 62
6
 10
-1.09869488E+01
 20
1.32912987E+02
  0
VERTEX
  8
0
 62
6
 10
-1.08660516E+01
 20
1.32958556E+02
  0
VERTEX
  8
0
 62
6
 10
-1.07499790E+01
 20
1.33013539E+02
  0
VERTEX
  8
0
 62
6
 10
-1.06396143E+01
 20
1.33077518E+02
  0
VERTEX
  8
0
 62
6
 10
-1.05357976E+01
 20
1.33150007E+02
  0
VERTEX
  8
0
 62
6
 10
-1.04393188E+01
 20
1.33230453E+02
  0
VERTEX
  8
0
 62
6
 10
-1.03509123E+01
 20
1.33318245E+02
  0
VERTEX
  8
0
 62
6
 10
-1.02712509E+01
 20
1.33412714E+02
  0
VERTEX
  8
0
 62
6
 10
-1.02009409E+01
 20
1.33513142E+02
  0
VERTEX
  8
0
 62
6
 10
-1.01405173E+01
 20
1.33618764E+02
  0
VERTEX
  8
0
 62
6
 10
-1.00904401E+01
 20
1.33728775E+02
  0
VERTEX
  8
0
 62
6
 10
-1.00510902E+01
 20
1.33842340E+02
  0
VERTEX
  8
0
 62
6
 10
-1.00227674E+01
 20
1.33958593E+02
  0
VERTEX
  8
0
 62
6
 10
-1.00056869E+01
 20
1.34076650E+02
  0
VERTEX
  8
0
 62
6
 10
-9.99997898E+00
 20
1.34195613E+02
  0
VERTEX
  8
0
 62
6
 10
-1.00056869E+01
 20
1.34314576E+02
  0
VERTEX
  8
0
 62
6
 10
-1.00227674E+01
 20
1.34432633E+02
  0
VERTEX
  8
0
 62
6
 10
-1.00510902E+01
 20
1.34548886E+02
  0
VERTEX
  8
0
 62
6
 10
-1.00904400E+01
 20
1.34662451E+02
  0
VERTEX
  8
0
 62
6
 10
-1.01405173E+01
 20
1.34772462E+02
  0
VERTEX
  8
0
 62
6
 10
-1.02009409E+01
 20
1.34878084E+02
  0
VERTEX
  8
0
 62
6
 10
-1.02712509E+01
 20
1.34978512E+02
  0
VERTEX
  8
0
 62
6
 10
-1.03509123E+01
 20
1.35072981E+02
  0
VERTEX
  8
0
 62
6
 10
-1.04393188E+01
 20
1.35160773E+02
  0
VERTEX
  8
0
 62
6
 10
-1.05357976E+01
 20
1.35241219E+02
  0
VERTEX
  8
0
 62
6
 10
-1.06396143E+01
 20
1.35313708E+02
  0
VERTEX
  8
0
 62
6
 10
-1.07499790E+01
 20
1.35377687E+02
  0
VERTEX
  8
0
 62
6
 10
-1.08660516E+01
 20
1.35432670E+02
  0
VERTEX
  8
0
 62
6
 10
-1.09869488E+01
 20
1.35478239E+02
  0
VERTEX
  8
0
 62
6
 10
-1.11117504E+01
 20
1.35514046E+02
  0
VERTEX
  8
0
 62
6
 10
-1.12395067E+01
 20
1.35539818E+02
  0
VERTEX
  8
0
 62
6
 10
-1.13692454E+01
 20
1.35555361E+02
  0
VERTEX
  8
0
 62
6
 10
-1.14999790E+01
 20
1.35560555E+02
  0
VERTEX
  8
0
 62
6
 10
-1.16307126E+01
 20
1.35555361E+02
  0
VERTEX
  8
0
 62
6
 10
-1.17604513E+01
 20
1.35539818E+02
  0
VERTEX
  8
0
 62
6
 10
-1.18882076E+01
 20
1.35514046E+02
  0
VERTEX
  8
0
 62
6
 10
-1.20130092E+01
 20
1.35478239E+02
  0
VERTEX
  8
0
 62
6
 10
-1.21339064E+01
 20
1.35432670E+02
  0
VERTEX
  8
0
 62
6
 10
-1.22499790E+01
 20
1.35377687E+02
  0
VERTEX
  8
0
 62
6
 10
-1.23603437E+01
 20
1.35313708E+02
  0
VERTEX
  8
0
 62
6
 10
-1.24641604E+01
 20
1.35241219E+02
  0
VERTEX
  8
0
 62
6
 10
-1.25606392E+01
 20
1.35160773E+02
  0
VERTEX
  8
0
 62
6
 10
-1.26490457E+01
 20
1.35072981E+02
  0
VERTEX
  8
0
 62
6
 10
-1.27287071E+01
 20
1.34978512E+02
  0
VERTEX
  8
0
 62
6
 10
-1.27990171E+01
 20
1.34878084E+02
  0
VERTEX
  8
0
 62
6
 10
-1.28594407E+01
 20
1.34772462E+02
  0
VERTEX
  8
0
 62
6
 10
-1.29095179E+01
 20
1.34662451E+02
  0
VERTEX
  8
0
 62
6
 10
-1.29488678E+01
 20
1.34548886E+02
  0
VERTEX
  8
0
 62
6
 10
-1.29771906E+01
 20
1.34432633E+02
  0
VERTEX
  8
0
 62
6
 10
-1.29942711E+01
 20
1.34314576E+02
  0
VERTEX
  8
0
 62
6
 10
-1.29999790E+01
 20
1.34195613E+02
  0
SEQEND
  8
0
  0
LINE
  8
0
 62
4
 10
-9.49997902E+00
 20
1.34195613E+02
 11
-9.49997902E+00
 21
1.35830530E+02
  0
POLYLINE
  8
0
 62
4
 66
1
  0
VERTEX
  8
0
 62
4
 10
-1.34999790E+01
 20
1.34195613E+02
  0
VERTEX
  8
0
 62
4
 10
-1.34923684E+01
 20
1.34036996E+02
  0
VERTEX
  8
0
 62
4
 10
-1.34695945E+01
 20
1.33879587E+02
  0
VERTEX
  8
0
 62
4
 10
-1.34318307E+01
 20
1.33724582E+02
  0
VERTEX
  8
0
 62
4
 10
-1.33793642E+01
 20
1.33573163E+02
  0
VERTEX
  8
0
 62
4
 10
-1.33125946E+01
 20
1.33426481E+02
  0
VERTEX
  8
0
 62
4
 10
-1.32320298E+01
 20
1.33285652E+02
  0
VERTEX
  8
0
 62
4
 10
-1.31382831E+01
 20
1.33151748E+02
  0
VERTEX
  8
0
 62
4
 10
-1.30320679E+01
 20
1.33025789E+02
  0
VERTEX
  8
0
 62
4
 10
-1.29141926E+01
 20
1.32908733E+02
  0
VERTEX
  8
0
 62
4
 10
-1.27855542E+01
 20
1.32801472E+02
  0
VERTEX
  8
0
 62
4
 10
-1.26471319E+01
 20
1.32704820E+02
  0
VERTEX
  8
0
 62
4
 10
-1.24999790E+01
 20
1.32619514E+02
  0
VERTEX
  8
0
 62
4
 10
-1.23452155E+01
 20
1.32546203E+02
  0
VERTEX
  8
0
 62
4
 10
-1.21840193E+01
 20
1.32485445E+02
  0
VERTEX
  8
0
 62
4
 10
-1.20176171E+01
 20
1.32437703E+02
  0
VERTEX
  8
0
 62
4
 10
-1.18472754E+01
 20
1.32403339E+02
  0
VERTEX
  8
0
 62
4
 10
-1.16742905E+01
 20
1.32382616E+02
  0
VERTEX
  8
0
 62
4
 10
-1.14999790E+01
 20
1.32375691E+02
  0
VERTEX
  8
0
 62
4
 10
-1.13256675E+01
 20
1.32382616E+02
  0
VERTEX
  8
0
 62
4
 10
-1.11526826E+01
 20
1.32403339E+02
  0
VERTEX
  8
0
 62
4
 10
-1.09823409E+01
 20
1.32437703E+02
  0
VERTEX
  8
0
 62
4
 10
-1.08159387E+01
 20
1.32485445E+02
  0
VERTEX
  8
0
 62
4
 10
-1.06547425E+01
 20
1.32546203E+02
  0
VERTEX
  8
0
 62
4
 10
-1.04999790E+01
 20
1.32619514E+02
  0
VERTEX
  8
0
 62
4
 10
-1.03528261E+01
 20
1.32704820E+02
  0
VERTEX
  8
0
 62
4
 10
-1.02144038E+01
 20
1.32801471E+02
  0
VERTEX
  8
0
 62
4
 10
-1.00857654E+01
 20
1.32908733E+02
  0
VERTEX
  8
0
 62
4
 10
-9.96789012E+00
 20
1.33025789E+02
  0
VERTEX
  8
0
 62
4
 10
-9.86167491E+00
 20
1.33151748E+02
  0
VERTEX
  8
0
 62
4
 10
-9.76792819E+00
 20
1.33285652E+02
  0
VERTEX
  8
0
 62
4
 10
-9.68736343E+00
 20
1.33426481E+02
  0
VERTEX
  8
0
 62
4
 10
-9.62059376E+00
 20
1.33573163E+02
  0
VERTEX
  8
0
 62
4
 10
-9.56812735E+00
 20
1.33724582E+02
  0
VERTEX
  8
0
 62
4
 10
-9.53036349E+00
 20
1.33879587E+02
  0
VERTEX
  8
0
 62
4
 10
-9.50758960E+00
 20
1.34036996E+02
  0
VERTEX
  8
0
 62
4
 10
-9.49997900E+00
 20
1.34195613E+02
  0
VERTEX
  8
0
 62
4
 10
-9.50758960E+00
 20
1.34354230E+02
  0
VERTEX
  8
0
 62
4
 10
-9.53036349E+00
 20
1.34511639E+02
  0
VERTEX
  8
0
 62
4
 10
-9.56812735E+00
 20
1.34666644E+02
  0
VERTEX
  8
0
 62
4
 10
-9.62059376E+00
 20
1.34818063E+02
  0
VERTEX
  8
0
 62
4
 10
-9.68736342E+00
 20
1.34964745E+02
  0
VERTEX
  8
0
 62
4
 10
-9.76792819E+00
 20
1.35105574E+02
  0
VERTEX
  8
0
 62
4
 10
-9.86167491E+00
 20
1.35239478E+02
  0
VERTEX
  8
0
 62
4
 10
-9.96789011E+00
 20
1.35365437E+02
  0
VERTEX
  8
0
 62
4
 10
-1.00857654E+01
 20
1.35482493E+02
  0
VERTEX
  8
0
 62
4
 10
-1.02144038E+01
 20
1.35589755E+02
  0
VERTEX
  8
0
 62
4
 10
-1.03528261E+01
 20
1.35686406E+02
  0
VERTEX
  8
0
 62
4
 10
-1.04999790E+01
 20
1.35771712E+02
  0
VERTEX
  8
0
 62
4
 10
-1.06547425E+01
 20
1.35845023E+02
  0
VERTEX
  8
0
 62
4
 10
-1.08159387E+01
 20
1.35905781E+02
  0
VERTEX
  8
0
 62
4
 10
-1.09823409E+01
 20
1.35953523E+02
  0
VERTEX
  8
0
 62
4
 10
-1.11526826E+01
 20
1.35987887E+02
  0
VERTEX
  8
0
 62
4
 10
-1.13256675E+01
 20
1.36008610E+02
  0
VERTEX
  8
0
 62
4
 10
-1.14999790E+01
 20
1.36015535E+02
  0
VERTEX
  8
0
 62
4
 10
-1.16742905E+01
 20
1.36008610E+02
  0
VERTEX
  8
0
 62
4
 10
-1.18472754E+01
 20
1.35987887E+02
  0
VERTEX
  8
0
 62
4
 10
-1.20176171E+01
 20
1.35953523E+02
  0
VERTEX
  8
0
 62
4
 10
-1.21840193E+01
 20
1.35905781E+02
  0
VERTEX
  8
0
 62
4
 10
-1.23452155E+01
 20
1.35845023E+02
  0
VERTEX
  8
0
 62
4
 10
-1.24999790E+01
 20
1.35771712E+02
  0
VERTEX
  8
0
 62
4
 10
-1.26471319E+01
 20
1.35686406E+02
  0
VERTEX
  8
0
 62
4
 10
-1.27855542E+01
 20
1.35589755E+02
  0
VERTEX
  8
0
 62
4
 10
-1.29141926E+01
 20
1.35482493E+02
  0
VERTEX
  8
0
 62
4
 10
-1.30320679E+01
 20
1.35365437E+02
  0
VERTEX
  8
0
 62
4
 10
-1.31382831E+01
 20
1.35239478E+02
  0
VERTEX
  8
0
 62
4
 10
-1.32320298E+01
 20
1.35105574E+02
  0
VERTEX
  8
0
 62
4
 10
-1.33125946E+01
 20
1.34964745E+02
  0
VERTEX
  8
0
 62
4
 10
-1.33793642E+01
 20
1.34818063E+02
  0
VERTEX
  8
0
 62
4
 10
-1.34318307E+01
 20
1.34666644E+02
  0
VERTEX
  8
0
 62
4
 10
-1.34695945E+01
 20
1.34511639E+02
  0
VERTEX
  8
0
 62
4
 10
-1.34923684E+01
 20
1.34354230E+02
  0
VERTEX
  8
0
 62
4
 10
-1.34999790E+01
 20
1.34195613E+02
  0
SEQEND
  8
0
  0
LINE
  8
0
 62
4
 10
-1.34999790E+01
 20
1.34195613E+02
 11
-1.34999790E+01
 21
1.35830530E+02
  0
POLYLINE
  8
0
 62
4
 66
1
  0
VERTEX
  8
0
 62
4
 10
-9.49997900E+00
 20
1.35830530E+02
  0
VERTEX
  8
0
 62
4
 10
-9.50803041E+00
 20
1.35993667E+02
  0
VERTEX
  8
0
 62
4
 10
-9.53211982E+00
 20
1.36155490E+02
  0
VERTEX
  8
0
 62
4
 10
-9.57205327E+00
 20
1.36314696E+02
  0
VERTEX
  8
0
 62
4
 10
-9.62750925E+00
 20
1.36470005E+02
  0
VERTEX
  8
0
 62
4
 10
-9.69804126E+00
 20
1.36620165E+02
  0
VERTEX
  8
0
 62
4
 10
-9.78308141E+00
 20
1.36763967E+02
  0
VERTEX
  8
0
 62
4
 10
-9.88194500E+00
 20
1.36900254E+02
  0
VERTEX
  8
0
 62
4
 10
-9.99383606E+00
 20
1.37027927E+02
  0
VERTEX
  8
0
 62
4
 10
-1.01178537E+01
 20
1.37145961E+02
  0
VERTEX
  8
0
 62
4
 10
-1.02529994E+01
 20
1.37253403E+02
  0
VERTEX
  8
0
 62
4
 10
-1.03981850E+01
 20
1.37349389E+02
  0
VERTEX
  8
0
 62
4
 10
-1.05522417E+01
 20
1.37433146E+02
  0
VERTEX
  8
0
 62
4
 10
-1.07139289E+01
 20
1.37503999E+02
  0
VERTEX
  8
0
 62
4
 10
-1.08819450E+01
 20
1.37561379E+02
  0
VERTEX
  8
0
 62
4
 10
-1.10549371E+01
 20
1.37604823E+02
  0
VERTEX
  8
0
 62
4
 10
-1.12315125E+01
 20
1.37633982E+02
  0
VERTEX
  8
0
 62
4
 10
-1.14102493E+01
 20
1.37648620E+02
  0
VERTEX
  8
0
 62
4
 10
-1.15897086E+01
 20
1.37648620E+02
  0
VERTEX
  8
0
 62
4
 10
-1.17684455E+01
 20
1.37633982E+02
  0
VERTEX
  8
0
 62
4
 10
-1.19450209E+01
 20
1.37604823E+02
  0
VERTEX
  8
0
 62
4
 10
-1.21180130E+01
 20
1.37561379E+02
  0
VERTEX
  8
0
 62
4
 10
-1.22860290E+01
 20
1.37503999E+02
  0
VERTEX
  8
0
 62
4
 10
-1.24477163E+01
 20
1.37433146E+02
  0
VERTEX
  8
0
 62
4
 10
-1.26017729E+01
 20
1.37349389E+02
  0
VERTEX
  8
0
 62
4
 10
-1.27469586E+01
 20
1.37253403E+02
  0
VERTEX
  8
0
 62
4
 10
-1.28821043E+01
 20
1.37145961E+02
  0
VERTEX
  8
0
 62
4
 10
-1.30061219E+01
 20
1.37027927E+02
  0
VERTEX
  8
0
 62
4
 10
-1.31180130E+01
 20
1.36900254E+02
  0
VERTEX
  8
0
 62
4
 10
-1.32168766E+01
 20
1.36763967E+02
  0
VERTEX
  8
0
 62
4
 10
-1.33019167E+01
 20
1.36620165E+02
  0
VERTEX
  8
0
 62
4
 10
-1.33724487E+01
 20
1.36470005E+02
  0
VERTEX
  8
0
 62
4
 10
-1.34279047E+01
 20
1.36314696E+02
  0
VERTEX
  8
0
 62
4
 10
-1.34678382E+01
 20
1.36155490E+02
  0
VERTEX
  8
0
 62
4
 10
-1.34919276E+01
 20
1.35993667E+02
  0
VERTEX
  8
0
 62
4
 10
-1.34999790E+01
 20
1.35830530E+02
  0
SEQEND
  8
0
  0
LINE
  8
0
 62
4
 10
-7.39999981E+01
 20
1.54069725E+02
 11
-7.40907311E+01
 21
1.54000015E+02
  0
LINE
  8
0
 62
4
 10
-7.39999981E+01
 20
1.54069725E+02
 11
-6.18861708E+01
 21
1.54069725E+02
  0
LINE
  8
0
 62
4
 10
-7.39999981E+01
 20
1.54069725E+02
 11
-7.39999981E+01
 21
1.54000015E+02
  0
POLYLINE
  8
0
 62
4
 66
1
  0
VERTEX
  8
0
 62
4
 10
-5.37639664E+01
 20
1.63002396E+02
  0
VERTEX
  8
0
 62
4
 10
-5.40229686E+01
 20
1.62810967E+02
  0
VERTEX
  8
0
 62
4
 10
-5.42625178E+01
 20
1.62599601E+02
  0
VERTEX
  8
0
 62
4
 10
-5.44807669E+01
 20
1.62369927E+02
  0
VERTEX
  8
0
 62
4
 10
-5.46760332E+01
 20
1.62123718E+02
  0
VERTEX
  8
0
 62
4
 10
-5.48468110E+01
 20
1.61862870E+02
  0
VERTEX
  8
0
 62
4
 10
-5.49917836E+01
 20
1.61589395E+02
  0
VERTEX
  8
0
 62
4
 10
-5.51098332E+01
 20
1.61305403E+02
  0
VERTEX
  8
0
 62
4
 10
-5.52000496E+01
 20
1.61013081E+02
  0
VERTEX
  8
0
 62
4
 10
-5.52617372E+01
 20
1.60714685E+02
  0
VERTEX
  8
0
 62
4
 10
-5.52944204E+01
 20
1.60412516E+02
  0
VERTEX
  8
0
 62
4
 10
-5.52978471E+01
 20
1.60108902E+02
  0
VERTEX
  8
0
 62
4
 10
-5.52719909E+01
 20
1.59806185E+02
  0
VERTEX
  8
0
 62
4
 10
-5.52170513E+01
 20
1.59506699E+02
  0
VERTEX
  8
0
 62
4
 10
-5.51334518E+01
 20
1.59212753E+02
  0
VERTEX
  8
0
 62
4
 10
-5.50218369E+01
 20
1.58926614E+02
  0
VERTEX
  8
0
 62
4
 10
-5.48830673E+01
 20
1.58650488E+02
  0
VERTEX
  8
0
 62
4
 10
-5.47182130E+01
 20
1.58386504E+02
  0
VERTEX
  8
0
 62
4
 10
-5.45285450E+01
 20
1.58136697E+02
  0
VERTEX
  8
0
 62
4
 10
-5.43155258E+01
 20
1.57902993E+02
  0
VERTEX
  8
0
 62
4
 10
-5.40807977E+01
 20
1.57687195E+02
  0
VERTEX
  8
0
 62
4
 10
-5.38261708E+01
 20
1.57490966E+02
  0
VERTEX
  8
0
 62
4
 10
-5.35536081E+01
 20
1.57315819E+02
  0
VERTEX
  8
0
 62
4
 10
-5.32652113E+01
 20
1.57163105E+02
  0
VERTEX
  8
0
 62
4
 10
-5.29632041E+01
 20
1.57034001E+02
  0
VERTEX
  8
0
 62
4
 10
-5.26499150E+01
 20
1.56929502E+02
  0
VERTEX
  8
0
 62
4
 10
-5.23277595E+01
 20
1.56850415E+02
  0
VERTEX
  8
0
 62
4
 10
-5.19992218E+01
 20
1.56797349E+02
  0
VERTEX
  8
0
 62
4
 10
-5.16668348E+01
 20
1.56770713E+02
  0
VERTEX
  8
0
 62
4
 10
-5.13331615E+01
 20
1.56770713E+02
  0
VERTEX
  8
0
 62
4
 10
-5.10007745E+01
 20
1.56797349E+02
  0
VERTEX
  8
0
 62
4
 10
-5.06722367E+01
 20
1.56850415E+02
  0
VERTEX
  8
0
 62
4
 10
-5.03500813E+01
 20
1.56929502E+02
  0
VERTEX
  8
0
 62
4
 10
-5.00367922E+01
 20
1.57034000E+02
  0
VERTEX
  8
0
 62
4
 10
-4.97347849E+01
 20
1.57163104E+02
  0
VERTEX
  8
0
 62
4
 10
-4.94463882E+01
 20
1.57315819E+02
  0
VERTEX
  8
0
 62
4
 10
-4.91738255E+01
 20
1.57490966E+02
  0
VERTEX
  8
0
 62
4
 10
-4.89191985E+01
 20
1.57687195E+02
  0
VERTEX
  8
0
 62
4
 10
-4.86844705E+01
 20
1.57902993E+02
  0
VERTEX
  8
0
 62
4
 10
-4.84714512E+01
 20
1.58136697E+02
  0
VERTEX
  8
0
 62
4
 10
-4.82817832E+01
 20
1.58386504E+02
  0
VERTEX
  8
0
 62
4
 10
-4.81169289E+01
 20
1.58650488E+02
  0
VERTEX
  8
0
 62
4
 10
-4.79781593E+01
 20
1.58926614E+02
  0
VERTEX
  8
0
 62
4
 10
-4.78665445E+01
 20
1.59212753E+02
  0
VERTEX
  8
0
 62
4
 10
-4.77829449E+01
 20
1.59506699E+02
  0
VERTEX
  8
0
 62
4
 10
-4.77280053E+01
 20
1.59806185E+02
  0
VERTEX
  8
0
 62
4
 10
-4.77021491E+01
 20
1.60108902E+02
  0
VERTEX
  8
0
 62
4
 10
-4.77055758E+01
 20
1.60412516E+02
  0
VERTEX
  8
0
 62
4
 10
-4.77382590E+01
 20
1.60714685E+02
  0
VERTEX
  8
0
 62
4
 10
-4.77999466E+01
 20
1.61013081E+02
  0
VERTEX
  8
0
 62
4
 10
-4.78901630E+01
 20
1.61305403E+02
  0
VERTEX
  8
0
 62
4
 10
-4.80082126E+01
 20
1.61589395E+02
  0
VERTEX
  8
0
 62
4
 10
-4.81531852E+01
 20
1.61862870E+02
  0
VERTEX
  8
0
 62
4
 10
-4.83239630E+01
 20
1.62123718E+02
  0
VERTEX
  8
0
 62
4
 10
-4.85192292E+01
 20
1.62369927E+02
  0
VERTEX
  8
0
 62
4
 10
-4.87374784E+01
 20
1.62599601E+02
  0
VERTEX
  8
0
 62
4
 10
-4.89770275E+01
 20
1.62810967E+02
  0
VERTEX
  8
0
 62
4
 10
-4.92360298E+01
 20
1.63002396E+02
  0
SEQEND
  8
0
  0
POLYLINE
  8
0
 62
4
 66
1
  0
VERTEX
  8
0
 62
4
 10
-5.48999981E+01
 20
1.60225232E+02
  0
VERTEX
  8
0
 62
4
 10
-5.48863107E+01
 20
1.59947900E+02
  0
VERTEX
  8
0
 62
4
 10
-5.48453587E+01
 20
1.59672800E+02
  0
VERTEX
  8
0
 62
4
 10
-5.47774719E+01
 20
1.59402149E+02
  0
VERTEX
  8
0
 62
4
 10
-5.46831967E+01
 20
1.59138125E+02
  0
VERTEX
  8
0
 62
4
 10
-5.45632923E+01
 20
1.58882853E+02
  0
VERTEX
  8
0
 62
4
 10
-5.44187240E+01
 20
1.58638389E+02
  0
VERTEX
  8
0
 62
4
 10
-5.42506559E+01
 20
1.58406702E+02
  0
VERTEX
  8
0
 62
4
 10
-5.40604411E+01
 20
1.58189656E+02
  0
VERTEX
  8
0
 62
4
 10
-5.38496111E+01
 20
1.57989000E+02
  0
VERTEX
  8
0
 62
4
 10
-5.36198635E+01
 20
1.57806348E+02
  0
VERTEX
  8
0
 62
4
 10
-5.33730479E+01
 20
1.57643172E+02
  0
VERTEX
  8
0
 62
4
 10
-5.31111516E+01
 20
1.57500785E+02
  0
VERTEX
  8
0
 62
4
 10
-5.28362832E+01
 20
1.57380334E+02
  0
VERTEX
  8
0
 62
4
 10
-5.25506559E+01
 20
1.57282788E+02
  0
VERTEX
  8
0
 62
4
 10
-5.22565693E+01
 20
1.57208933E+02
  0
VERTEX
  8
0
 62
4
 10
-5.19563912E+01
 20
1.57159364E+02
  0
VERTEX
  8
0
 62
4
 10
-5.16525385E+01
 20
1.57134479E+02
  0
VERTEX
  8
0
 62
4
 10
-5.13474577E+01
 20
1.57134479E+02
  0
VERTEX
  8
0
 62
4
 10
-5.10436050E+01
 20
1.57159364E+02
  0
VERTEX
  8
0
 62
4
 10
-5.07434269E+01
 20
1.57208933E+02
  0
VERTEX
  8
0
 62
4
 10
-5.04493403E+01
 20
1.57282788E+02
  0
VERTEX
  8
0
 62
4
 10
-5.01637130E+01
 20
1.57380334E+02
  0
VERTEX
  8
0
 62
4
 10
-4.98888447E+01
 20
1.57500785E+02
  0
VERTEX
  8
0
 62
4
 10
-4.96269484E+01
 20
1.57643172E+02
  0
VERTEX
  8
0
 62
4
 10
-4.93801328E+01
 20
1.57806348E+02
  0
VERTEX
  8
0
 62
4
 10
-4.91503851E+01
 20
1.57989000E+02
  0
VERTEX
  8
0
 62
4
 10
-4.89395551E+01
 20
1.58189656E+02
  0
VERTEX
  8
0
 62
4
 10
-4.87493403E+01
 20
1.58406702E+02
  0
VERTEX
  8
0
 62
4
 10
-4.85812722E+01
 20
1.58638389E+02
  0
VERTEX
  8
0
 62
4
 10
-4.84367039E+01
 20
1.58882853E+02
  0
VERTEX
  8
0
 62
4
 10
-4.83167995E+01
 20
1.59138125E+02
  0
VERTEX
  8
0
 62
4
 10
-4.82225244E+01
 20
1.59402149E+02
  0
VERTEX
  8
0
 62
4
 10
-4.81546375E+01
 20
1.59672800E+02
  0
VERTEX
  8
0
 62
4
 10
-4.81136855E+01
 20
1.59947900E+02
  0
VERTEX
  8
0
 62
4
 10
-4.80999981E+01
 20
1.60225232E+02
  0
SEQEND
  8
0
  0
POLYLINE
  8
0
 62
4
 66
1
  0
VERTEX
  8
0
 62
4
 10
-5.48999981E+01
 20
1.60694169E+02
  0
VERTEX
  8
0
 62
4
 10
-5.48870601E+01
 20
1.60424521E+02
  0
VERTEX
  8
0
 62
4
 10
-5.48483445E+01
 20
1.60156924E+02
  0
VERTEX
  8
0
 62
4
 10
-5.47841459E+01
 20
1.59893417E+02
  0
VERTEX
  8
0
 62
4
 10
-5.46949530E+01
 20
1.59636004E+02
  0
VERTEX
  8
0
 62
4
 10
-5.45814446E+01
 20
1.59386644E+02
  0
VERTEX
  8
0
 62
4
 10
-5.44444845E+01
 20
1.59147235E+02
  0
VERTEX
  8
0
 62
4
 10
-5.42851151E+01
 20
1.58919599E+02
  0
VERTEX
  8
0
 62
4
 10
-5.41045492E+01
 20
1.58705469E+02
  0
VERTEX
  8
0
 62
4
 10
-5.39041612E+01
 20
1.58506474E+02
  0
VERTEX
  8
0
 62
4
 10
-5.36854760E+01
 20
1.58324128E+02
  0
VERTEX
  8
0
 62
4
 10
-5.34501580E+01
 20
1.58159820E+02
  0
VERTEX
  8
0
 62
4
 10
-5.31999981E+01
 20
1.58014800E+02
  0
VERTEX
  8
0
 62
4
 10
-5.29369002E+01
 20
1.57890172E+02
  0
VERTEX
  8
0
 62
4
 10
-5.26628666E+01
 20
1.57786884E+02
  0
VERTEX
  8
0
 62
4
 10
-5.23799829E+01
 20
1.57705722E+02
  0
VERTEX
  8
0
 62
4
 10
-5.20904019E+01
 20
1.57647303E+02
  0
VERTEX
  8
0
 62
4
 10
-5.17963276E+01
 20
1.57612074E+02
  0
VERTEX
  8
0
 62
4
 10
-5.14999981E+01
 20
1.57600301E+02
  0
VERTEX
  8
0
 62
4
 10
-5.12036686E+01
 20
1.57612074E+02
  0
VERTEX
  8
0
 62
4
 10
-5.09095943E+01
 20
1.57647303E+02
  0
VERTEX
  8
0
 62
4
 10
-5.06200133E+01
 20
1.57705722E+02
  0
VERTEX
  8
0
 62
4
 10
-5.03371296E+01
 20
1.57786884E+02
  0
VERTEX
  8
0
 62
4
 10
-5.00630960E+01
 20
1.57890172E+02
  0
VERTEX
  8
0
 62
4
 10
-4.97999981E+01
 20
1.58014800E+02
  0
VERTEX
  8
0
 62
4
 10
-4.95498382E+01
 20
1.58159820E+02
  0
VERTEX
  8
0
 62
4
 10
-4.93145202E+01
 20
1.58324128E+02
  0
VERTEX
  8
0
 62
4
 10
-4.90958350E+01
 20
1.58506474E+02
  0
VERTEX
  8
0
 62
4
 10
-4.88954470E+01
 20
1.58705469E+02
  0
VERTEX
  8
0
 62
4
 10
-4.87148811E+01
 20
1.58919599E+02
  0
VERTEX
  8
0
 62
4
 10
-4.85555117E+01
 20
1.59147235E+02
  0
VERTEX
  8
0
 62
4
 10
-4.84185516E+01
 20
1.59386644E+02
  0
VERTEX
  8
0
 62
4
 10
-4.83050432E+01
 20
1.59636004E+02
  0
VERTEX
  8
0
 62
4
 10
-4.82158503E+01
 20
1.59893417E+02
  0
VERTEX
  8
0
 62
4
 10
-4.81516517E+01
 20
1.60156924E+02
  0
VERTEX
  8
0
 62
4
 10
-4.81129361E+01
 20
1.60424521E+02
  0
VERTEX
  8
0
 62
4
 10
-4.80999981E+01
 20
1.60694169E+02
  0
VERTEX
  8
0
 62
4
 10
-4.81129361E+01
 20
1.60963817E+02
  0
VERTEX
  8
0
 62
4
 10
-4.81516517E+01
 20
1.61231414E+02
  0
VERTEX
  8
0
 62
4
 10
-4.82158503E+01
 20
1.61494921E+02
  0
VERTEX
  8
0
 62
4
 10
-4.83050432E+01
 20
1.61752334E+02
  0
VERTEX
  8
0
 62
4
 10
-4.84185516E+01
 20
1.62001694E+02
  0
VERTEX
  8
0
 62
4
 10
-4.85555117E+01
 20
1.62241103E+02
  0
VERTEX
  8
0
 62
4
 10
-4.87148811E+01
 20
1.62468739E+02
  0
VERTEX
  8
0
 62
4
 10
-4.88954470E+01
 20
1.62682869E+02
  0
VERTEX
  8
0
 62
4
 10
-4.90958350E+01
 20
1.62881864E+02
  0
VERTEX
  8
0
 62
4
 10
-4.93145202E+01
 20
1.63064210E+02
  0
VERTEX
  8
0
 62
4
 10
-4.95498382E+01
 20
1.63228518E+02
  0
VERTEX
  8
0
 62
4
 10
-4.97999981E+01
 20
1.63373538E+02
  0
VERTEX
  8
0
 62
4
 10
-5.00630960E+01
 20
1.63498166E+02
  0
VERTEX
  8
0
 62
4
 10
-5.03371296E+01
 20
1.63601454E+02
  0
VERTEX
  8
0
 62
4
 10
-5.06200133E+01
 20
1.63682616E+02
  0
VERTEX
  8
0
 62
4
 10
-5.09095943E+01
 20
1.63741035E+02
  0
VERTEX
  8
0
 62
4
 10
-5.12036686E+01
 20
1.63776264E+02
  0
VERTEX
  8
0
 62
4
 10
-5.14999981E+01
 20
1.63788037E+02
  0
VERTEX
  8
0
 62
4
 10
-5.17963276E+01
 20
1.63776264E+02
  0
VERTEX
  8
0
 62
4
 10
-5.20904019E+01
 20
1.63741035E+02
  0
VERTEX
  8
0
 62
4
 10
-5.23799829E+01
 20
1.63682616E+02
  0
VERTEX
  8
0
 62
4
 10
-5.26628666E+01
 20
1.63601454E+02
  0
VERTEX
  8
0
 62
4
 10
-5.29369002E+01
 20
1.63498166E+02
  0
VERTEX
  8
0
 62
4
 10
-5.31999981E+01
 20
1.63373538E+02
  0
VERTEX
  8
0
 62
4
 10
-5.34501580E+01
 20
1.63228518E+02
  0
VERTEX
  8
0
 62
4
 10
-5.36854760E+01
 20
1.63064210E+02
  0
VERTEX
  8
0
 62
4
 10
-5.39041612E+01
 20
1.62881864E+02
  0
VERTEX
  8
0
 62
4
 10
-5.41045492E+01
 20
1.62682869E+02
  0
VERTEX
  8
0
 62
4
 10
-5.42851151E+01
 20
1.62468739E+02
  0
VERTEX
  8
0
 62
4
 10
-5.44444845E+01
 20
1.62241103E+02
  0
VERTEX
  8
0
 62
4
 10
-5.45814446E+01
 20
1.62001694E+02
  0
VERTEX
  8
0
 62
4
 10
-5.46949530E+01
 20
1.61752334E+02
  0
VERTEX
  8
0
 62
4
 10
-5.47841459E+01
 20
1.61494921E+02
  0
VERTEX
  8
0
 62
4
 10
-5.48483445E+01
 20
1.61231414E+02
  0
VERTEX
  8
0
 62
4
 10
-5.48870601E+01
 20
1.60963817E+02
  0
VERTEX
  8
0
 62
4
 10
-5.48999981E+01
 20
1.60694169E+02
  0
SEQEND
  8
0
  0
POLYLINE
  8
0
 62
4
 66
1
  0
VERTEX
  8
0
 62
4
 10
-5.49622041E+01
 20
1.58385315E+02
  0
VERTEX
  8
0
 62
4
 10
-5.48118311E+01
 20
1.58115039E+02
  0
VERTEX
  8
0
 62
4
 10
-5.46360385E+01
 20
1.57857776E+02
  0
VERTEX
  8
0
 62
4
 10
-5.44361756E+01
 20
1.57615502E+02
  0
VERTEX
  8
0
 62
4
 10
-5.42137763E+01
 20
1.57390075E+02
  0
VERTEX
  8
0
 62
4
 10
-5.39705478E+01
 20
1.57183226E+02
  0
VERTEX
  8
0
 62
4
 10
-5.37083568E+01
 20
1.56996543E+02
  0
VERTEX
  8
0
 62
4
 10
-5.34292158E+01
 20
1.56831459E+02
  0
VERTEX
  8
0
 62
4
 10
-5.31352673E+01
 20
1.56689240E+02
  0
VERTEX
  8
0
 62
4
 10
-5.28287674E+01
 20
1.56570978E+02
  0
VERTEX
  8
0
 62
4
 10
-5.25120688E+01
 20
1.56477581E+02
  0
VERTEX
  8
0
 62
4
 10
-5.21876021E+01
 20
1.56409766E+02
  0
VERTEX
  8
0
 62
4
 10
-5.18578577E+01
 20
1.56368054E+02
  0
VERTEX
  8
0
 62
4
 10
-5.15253667E+01
 20
1.56352763E+02
  0
VERTEX
  8
0
 62
4
 10
-5.11926809E+01
 20
1.56364013E+02
  0
VERTEX
  8
0
 62
4
 10
-5.08623539E+01
 20
1.56401716E+02
  0
VERTEX
  8
0
 62
4
 10
-5.05369211E+01
 20
1.56465582E+02
  0
VERTEX
  8
0
 62
4
 10
-5.02188803E+01
 20
1.56555123E+02
  0
VERTEX
  8
0
 62
4
 10
-4.99106726E+01
 20
1.56669651E+02
  0
VERTEX
  8
0
 62
4
 10
-4.96146635E+01
 20
1.56808285E+02
  0
VERTEX
  8
0
 62
4
 10
-4.93331252E+01
 20
1.56969964E+02
  0
VERTEX
  8
0
 62
4
 10
-4.90682184E+01
 20
1.57153445E+02
  0
VERTEX
  8
0
 62
4
 10
-4.88219765E+01
 20
1.57357320E+02
  0
VERTEX
  8
0
 62
4
 10
-4.85962894E+01
 20
1.57580024E+02
  0
VERTEX
  8
0
 62
4
 10
-4.83928895E+01
 20
1.57819849E+02
  0
VERTEX
  8
0
 62
4
 10
-4.82133378E+01
 20
1.58074953E+02
  0
VERTEX
  8
0
 62
4
 10
-4.80590125E+01
 20
1.58343378E+02
  0
VERTEX
  8
0
 62
4
 10
-4.79310982E+01
 20
1.58623064E+02
  0
VERTEX
  8
0
 62
4
 10
-4.78305765E+01
 20
1.58911865E+02
  0
VERTEX
  8
0
 62
4
 10
-4.77582191E+01
 20
1.59207563E+02
  0
VERTEX
  8
0
 62
4
 10
-4.77145813E+01
 20
1.59507890E+02
  0
VERTEX
  8
0
 62
4
 10
-4.76999981E+01
 20
1.59810539E+02
  0
SEQEND
  8
0
  0
ARC
  8
0
 62
4
 10
-9.85808403E+01
 20
1.09426173E+02
 40
6.99948777E+01
 50
4.57421700E+01
 51
4.96558689E+01
  0
ARC
  8
0
 62
4
 10
-4.41915585E+00
 20
1.09426173E+02
 40
6.99948777E+01
 50
1.30344131E+02
 51
1.34257830E+02
  0
LINE
  8
0
 62
4
 10
-4.80999981E+01
 20
1.60225232E+02
 11
-4.80999981E+01
 21
1.60694169E+02
  0
LINE
  8
0
 62
4
 10
-4.76999981E+01
 20
1.59810539E+02
 11
-4.76999981E+01
 21
1.60225232E+02
  0
LINE
  8
0
 62
4
 10
-5.48999981E+01
 20
1.60225232E+02
 11
-5.48999981E+01
 21
1.60694169E+02
  0
LINE
  8
0
 62
4
 10
-5.52999981E+01
 20
1.59810539E+02
 11
-5.52999981E+01
 21
1.60225232E+02
  0
POLYLINE
  8
0
 62
4
 66
1
  0
VERTEX
  8
0
 62
4
 10
-5.52999981E+01
 20
1.59810539E+02
  0
VERTEX
  8
0
 62
4
 10
-5.52940094E+01
 20
1.59616483E+02
  0
VERTEX
  8
0
 62
4
 10
-5.52760620E+01
 20
1.59423039E+02
  0
VERTEX
  8
0
 62
4
 10
-5.52462125E+01
 20
1.59230816E+02
  0
VERTEX
  8
0
 62
4
 10
-5.52045551E+01
 20
1.59040421E+02
  0
SEQEND
  8
0
  0
ARC
  8
0
 62
4
 10
-9.67816884E+01
 20
1.16254885E+02
 40
5.61787639E+01
 50
4.52517517E+01
 51
5.01291401E+01
  0
ARC
  8
0
 62
4
 10
-2.12182435E+01
 20
1.16254814E+02
 40
5.61788594E+01
 50
1.29870864E+02
 51
1.34748244E+02
  0
LINE
  8
0
 62
4
 10
-5.48499981E+01
 20
1.56783258E+02
 11
-5.48499981E+01
 21
1.57513118E+02
  0
POLYLINE
  8
0
 62
4
 66
1
  0
VERTEX
  8
0
 62
4
 10
-6.31499981E+01
 20
1.56783258E+02
  0
VERTEX
  8
0
 62
4
 10
-6.31324200E+01
 20
1.56436052E+02
  0
VERTEX
  8
0
 62
4
 10
-6.30798348E+01
 20
1.56091788E+02
  0
VERTEX
  8
0
 62
4
 10
-6.29926878E+01
 20
1.55753381E+02
  0
VERTEX
  8
0
 62
4
 10
-6.28717173E+01
 20
1.55423698E+02
  0
VERTEX
  8
0
 62
4
 10
-6.27179481E+01
 20
1.55105533E+02
  0
VERTEX
  8
0
 62
4
 10
-6.25326829E+01
 20
1.54801581E+02
  0
VERTEX
  8
0
 62
4
 10
-6.23174910E+01
 20
1.54514416E+02
  0
VERTEX
  8
0
 62
4
 10
-6.20741955E+01
 20
1.54246471E+02
  0
VERTEX
  8
0
 62
4
 10
-6.18048574E+01
 20
1.54000016E+02
  0
SEQEND
  8
0
  0
LINE
  8
0
 62
4
 10
-6.31499981E+01
 20
1.56783258E+02
 11
-6.31499981E+01
 21
1.57513118E+02
  0
LINE
  8
0
 62
4
 10
-7.39999981E+01
 20
1.54441767E+02
 11
-6.22559565E+01
 21
1.54441767E+02
  0
LINE
  8
0
 62
4
 10
-5.57440396E+01
 20
1.54441767E+02
 11
-4.39999981E+01
 21
1.54441767E+02
  0
LINE
  8
0
 62
4
 10
-5.61138254E+01
 20
1.54069725E+02
 11
-5.04999981E+01
 21
1.54069725E+02
  0
LINE
  8
0
 62
4
 10
1.50000210E+01
 20
1.54069725E+02
 11
1.65000210E+01
 21
1.52917276E+02
  0
LINE
  8
0
 62
4
 10
1.65000210E+01
 20
1.50856214E+02
 11
1.50000210E+01
 21
1.50429880E+02
  0
LINE
  8
0
 62
4
 10
1.65000210E+01
 20
1.49916934E+02
 11
1.50000210E+01
 21
1.48771107E+02
  0
LINE
  8
0
 62
4
 10
1.65000210E+01
 20
1.52917276E+02
 11
1.65000210E+01
 21
1.49916934E+02
  0
LINE
  8
0
 62
7
 10
-1.39999983E+02
 20
1.24063248E+02
 11
-1.39999983E+02
 21
7.69367447E+01
  0
LINE
  8
0
  6
CENTER
 62
2
 10
-2.07243399E+02
 20
1.00500000E+02
 11
6.74326839E+01
 21
1.00500000E+02
  0
LINE
  8
0
 62
7
 10
-1.23999983E+02
 20
1.55380280E+02
 11
-1.23999983E+02
 21
4.56197205E+01
  0
LINE
  8
0
 62
7
 10
-8.79999981E+01
 20
1.56500000E+02
 11
-8.79999981E+01
 21
4.45000153E+01
  0
LINE
  8
0
 62
7
 10
5.90000172E+01
 20
1.55380249E+02
 11
5.90000172E+01
 21
4.56197433E+01
  0
LINE
  8
0
 62
7
 10
2.30000210E+01
 20
1.56500000E+02
 11
2.30000210E+01
 21
4.45000038E+01
  0
LINE
  8
0
 62
7
 10
-1.58999983E+02
 20
8.74999847E+01
 11
-1.58999983E+02
 21
1.13499992E+02
  0
LINE
  8
0
 62
7
 10
-1.25499968E+02
 20
7.55000000E+01
 11
-1.23999983E+02
 21
7.55000000E+01
  0
LINE
  8
0
 62
7
 10
-1.19999983E+02
 20
4.45000038E+01
 11
-8.79999676E+01
 21
4.45000038E+01
  0
LINE
  8
0
 62
7
 10
-1.19999983E+02
 20
4.50585632E+01
 11
-1.19999983E+02
 21
4.45000038E+01
  0
LINE
  8
0
 62
7
 10
-1.23508678E+02
 20
4.51198316E+01
 11
-8.79999415E+01
 21
4.45000243E+01
  0
LINE
  8
0
 62
7
 10
-1.39517477E+02
 20
7.64720500E+01
 11
-1.26000021E+02
 21
7.60000101E+01
  0
LINE
  8
0
 62
7
 10
-1.44999983E+02
 20
7.80000000E+01
 11
-1.44999983E+02
 21
1.23000015E+02
  0
LINE
  8
0
 62
7
 10
-1.44499983E+02
 20
7.74999847E+01
 11
-1.39999983E+02
 21
7.74999847E+01
  0
LINE
  8
0
  6
CENTER
 62
2
 10
3.89999676E+01
 20
1.43800049E+02
 11
3.89999676E+01
 21
1.58763657E+02
  0
LINE
  8
0
 62
7
 10
-1.25999968E+02
 20
1.24999954E+02
 11
-1.25999968E+02
 21
7.60000076E+01
  0
LINE
  8
0
 62
7
 10
6.05000134E+01
 20
7.55000000E+01
 11
5.90000134E+01
 21
7.55000000E+01
  0
LINE
  8
0
 62
7
 10
5.50000153E+01
 20
4.45000038E+01
 11
2.30000095E+01
 21
4.45000038E+01
  0
LINE
  8
0
 62
7
 10
5.50000019E+01
 20
4.50585632E+01
 11
5.50000019E+01
 21
4.45000038E+01
  0
LINE
  8
0
 62
7
 10
5.85087561E+01
 20
4.51198244E+01
 11
2.30000148E+01
 21
4.45000170E+01
  0
LINE
  8
0
 62
7
 10
6.10000134E+01
 20
1.24999985E+02
 11
6.10000134E+01
 21
7.60000076E+01
  0
LINE
  8
0
 62
7
 10
-1.54999968E+02
 20
8.54999619E+01
 11
-1.44999983E+02
 21
8.54999619E+01
  0
LINE
  8
0
  6
CENTER
 62
2
 10
6.17792034E+01
 20
5.84999924E+01
 11
-1.26524473E+02
 21
5.84999924E+01
  0
LINE
  8
0
 62
7
 10
2.30000210E+01
 20
6.29999847E+01
 11
-8.79999981E+01
 21
6.29999847E+01
  0
LINE
  8
0
 62
7
 10
2.30000210E+01
 20
5.39999733E+01
 11
-8.79999981E+01
 21
5.39999733E+01
  0
LINE
  8
0
 62
7
 10
-8.79999981E+01
 20
4.69999771E+01
 11
2.30000210E+01
 21
4.69999771E+01
  0
LINE
  8
0
 62
7
 10
-1.98999998E+02
 20
8.89999237E+01
 11
-1.98999998E+02
 21
1.11999695E+02
  0
LINE
  8
0
 62
7
 10
-1.61999983E+02
 20
8.74999847E+01
 11
-1.61999983E+02
 21
1.13499992E+02
  0
LINE
  8
0
 62
7
 10
-1.97500044E+02
 20
1.13499992E+02
 11
-1.87499990E+02
 21
1.13499992E+02
  0
LINE
  8
0
 62
7
 10
-1.97499983E+02
 20
8.74999847E+01
 11
-1.97499983E+02
 21
1.13499992E+02
  0
LINE
  8
0
 62
7
 10
-1.98999862E+02
 20
1.11999813E+02
 11
-1.97499844E+02
 21
1.13499830E+02
  0
LINE
  8
0
 62
2
 10
-1.98320051E+02
 20
1.12679985E+02
 11
-1.87499990E+02
 21
1.12679985E+02
  0
LINE
  8
0
 62
7
 10
-1.97500044E+02
 20
8.74999847E+01
 11
-1.87499990E+02
 21
8.74999847E+01
  0
LINE
  8
0
 62
7
 10
-1.99000046E+02
 20
8.89999715E+01
 11
-1.97500044E+02
 21
8.74999699E+01
  0
LINE
  8
0
 62
2
 10
-1.98320051E+02
 20
8.83199921E+01
 11
-1.87499990E+02
 21
8.83199921E+01
  0
LINE
  8
0
 62
7
 10
-1.25499968E+02
 20
1.25500015E+02
 11
-1.23999983E+02
 21
1.25500015E+02
  0
LINE
  8
0
 62
7
 10
-1.19999983E+02
 20
1.56500000E+02
 11
-8.79999676E+01
 21
1.56500000E+02
  0
LINE
  8
0
 62
7
 10
-1.19999983E+02
 20
1.55941452E+02
 11
-1.19999983E+02
 21
1.56500000E+02
  0
LINE
  8
0
 62
7
 10
-1.23508698E+02
 20
1.55880189E+02
 11
-8.79999612E+01
 21
1.56499996E+02
  0
LINE
  8
0
 62
7
 10
-1.39517488E+02
 20
1.24527921E+02
 11
-1.26000031E+02
 21
1.24999961E+02
  0
LINE
  8
0
 62
7
 10
-1.44499983E+02
 20
1.23500015E+02
 11
-1.39999983E+02
 21
1.23500015E+02
  0
LINE
  8
0
 62
7
 10
6.05000134E+01
 20
1.25500015E+02
 11
5.90000134E+01
 21
1.25500015E+02
  0
LINE
  8
0
 62
7
 10
5.50000153E+01
 20
1.56500000E+02
 11
2.30000095E+01
 21
1.56500000E+02
  0
LINE
  8
0
 62
7
 10
5.50000019E+01
 20
1.55941452E+02
 11
5.50000019E+01
 21
1.56500000E+02
  0
LINE
  8
0
 62
7
 10
5.85087534E+01
 20
1.55880174E+02
 11
2.30000113E+01
 21
1.56499981E+02
  0
LINE
  8
0
 62
7
 10
-1.54999968E+02
 20
1.15500038E+02
 11
-1.44999983E+02
 21
1.15500038E+02
  0
LINE
  8
0
  6
CENTER
 62
2
 10
6.17792034E+01
 20
1.42500000E+02
 11
-1.26524473E+02
 21
1.42500000E+02
  0
LINE
  8
0
 62
7
 10
2.30000210E+01
 20
1.38000015E+02
 11
2.09808349E-05
 21
1.38000015E+02
  0
LINE
  8
0
 62
7
 10
2.30000210E+01
 20
1.47000031E+02
 11
1.50000210E+01
 21
1.47000031E+02
  0
LINE
  8
0
 62
7
 10
-8.79999981E+01
 20
1.54000015E+02
 11
-1.49999790E+01
 21
1.54000015E+02
  0
LINE
  8
0
  6
CENTER
 62
2
 10
-1.03999983E+02
 20
1.43800034E+02
 11
-1.03999983E+02
 21
1.58763641E+02
  0
LINE
  8
0
 62
7
 10
-1.54999968E+02
 20
9.30166550E+01
 11
-1.54999968E+02
 21
8.54999619E+01
  0
LINE
  8
0
 62
7
 10
-1.54999968E+02
 20
1.07983376E+02
 11
-1.54999968E+02
 21
1.15500038E+02
  0
LINE
  8
0
 62
7
 10
-1.58999970E+02
 20
8.74999782E+01
 11
-1.54999960E+02
 21
8.54999606E+01
  0
LINE
  8
0
 62
7
 10
-1.58999955E+02
 20
1.13499984E+02
 11
-1.54999942E+02
 21
1.15500029E+02
  0
LINE
  8
0
 62
7
 10
-1.48999983E+02
 20
9.30166550E+01
 11
-1.48999983E+02
 21
1.07983376E+02
  0
LINE
  8
0
 62
7
 10
-1.54999968E+02
 20
9.30166550E+01
 11
-1.48999983E+02
 21
9.30166550E+01
  0
LINE
  8
0
 62
7
 10
-1.54999968E+02
 20
1.07983376E+02
 11
-1.48999983E+02
 21
1.07983376E+02
  0
LINE
  8
0
 62
7
 10
-1.54999975E+02
 20
9.30166611E+01
 11
-1.58999982E+02
 21
1.00500000E+02
  0
LINE
  8
0
 62
7
 10
-1.58999961E+02
 20
1.00500001E+02
 11
-1.54999945E+02
 21
1.07983369E+02
  0
LINE
  8
0
 62
2
 10
-1.48999972E+02
 20
1.07983366E+02
 11
-1.56777748E+02
 21
9.63425831E+01
  0
LINE
  8
0
 62
2
 10
-1.48999948E+02
 20
9.30166410E+01
 11
-1.56777734E+02
 21
1.04657439E+02
  0
LINE
  8
0
 62
7
 10
-1.61999983E+02
 20
1.12679985E+02
 11
-1.58999983E+02
 21
1.12679985E+02
  0
LINE
  8
0
 62
7
 10
-1.61999983E+02
 20
8.83199921E+01
 11
-1.58999983E+02
 21
8.83199921E+01
  0
ARC
  8
0
 62
7
 10
-1.25499968E+02
 20
7.59999924E+01
 40
5.00000000E-01
 50
1.79999977E+02
 51
2.69999974E+02
  0
ARC
  8
0
 62
7
 10
-1.23499968E+02
 20
4.56197205E+01
 40
5.00000000E-01
 50
1.79999977E+02
 51
2.68999679E+02
  0
ARC
  8
0
 62
7
 10
-1.39499983E+02
 20
7.69717255E+01
 40
5.00000000E-01
 50
1.79999977E+02
 51
2.67999192E+02
  0
ARC
  8
0
 62
7
 10
-1.44499983E+02
 20
7.80000000E+01
 40
5.00000000E-01
 50
1.79999977E+02
 51
2.69999974E+02
  0
ARC
  8
0
 62
7
 10
6.05000057E+01
 20
1.25000000E+02
 40
5.00000000E-01
 50
5.46415133E-05
 51
9.00000369E+01
  0
ARC
  8
0
 62
7
 10
6.05000057E+01
 20
7.59999924E+01
 40
5.00000000E-01
 50
2.70000073E+02
 51
5.46415133E-05
  0
ARC
  8
0
 62
7
 10
5.85000134E+01
 20
4.56197205E+01
 40
5.00000000E-01
 50
2.71000347E+02
 51
5.46415133E-05
  0
ARC
  8
0
 62
7
 10
-1.39499983E+02
 20
1.24028275E+02
 40
5.00000000E-01
 50
9.20007356E+01
 51
1.79999964E+02
  0
ARC
  8
0
 62
7
 10
5.85000134E+01
 20
1.55380280E+02
 40
5.00000000E-01
 50
3.59999891E+02
 51
8.89995981E+01
  0
ARC
  8
0
 62
7
 10
-1.25499968E+02
 20
1.25000000E+02
 40
5.00000000E-01
 50
8.99999818E+01
 51
1.79999964E+02
  0
ARC
  8
0
 62
7
 10
-1.23499968E+02
 20
1.55380280E+02
 40
5.00000000E-01
 50
9.10002493E+01
 51
1.79999964E+02
  0
ARC
  8
0
 62
7
 10
-1.44499983E+02
 20
1.23000015E+02
 40
5.00000000E-01
 50
8.99999818E+01
 51
1.79999964E+02
  0
ARC
  8
0
 62
7
 10
-1.61999983E+02
 20
1.00500015E+02
 40
1.50000248E+01
 50
3.30073440E+02
 51
2.99266002E+01
  0
LINE
  8
0
 62
4
 10
-3.64000061E+02
 20
7.97153727E+01
 11
-3.46000060E+02
 21
9.01076769E+01
  0
LINE
  8
0
 62
4
 10
-3.45999983E+02
 20
1.10892303E+02
 11
-3.45999983E+02
 21
9.01076965E+01
  0
LINE
  8
0
 62
4
 10
-3.82000070E+02
 20
9.01077224E+01
 11
-3.64000079E+02
 21
7.97154240E+01
  0
LINE
  8
0
 62
4
 10
-3.81999990E+02
 20
1.10892303E+02
 11
-3.81999990E+02
 21
9.01076965E+01
  0
LINE
  8
0
 62
4
 10
-3.82000048E+02
 20
1.10892269E+02
 11
-3.64000046E+02
 21
1.21284573E+02
  0
LINE
  8
0
 62
4
 10
-3.64000125E+02
 20
1.21284608E+02
 11
-3.46000120E+02
 21
1.10892302E+02
  0
CIRCLE
  8
0
 62
4
 10
-3.63999983E+02
 20
1.00500000E+02
 40
1.80000000E+01
  0
LINE
  8
0
 62
4
 10
-3.34004133E+02
 20
1.63905365E+02
 11
-3.24631532E+02
 21
1.59634024E+02
  0
LINE
  8
0
 62
4
 10
-3.18261803E+02
 20
1.56731172E+02
 11
-3.24631532E+02
 21
1.59634024E+02
  0
LINE
  8
0
 62
4
 10
-3.34294419E+02
 20
1.63268392E+02
 11
-3.35204380E+02
 21
1.63683085E+02
  0
ARC
  8
0
 62
4
 10
-3.38804465E+02
 20
1.58510261E+02
 40
1.00000000E+00
 50
1.68327510E+02
 51
2.45500000E+02
  0
ARC
  8
0
 62
4
 10
-3.36813937E+02
 20
1.62878076E+02
 40
1.00000000E+00
 50
6.55000000E+01
 51
1.42672490E+02
  0
LINE
  8
0
 62
4
 10
-3.38190171E+02
 20
1.57131364E+02
 11
-3.39218428E+02
 21
1.57599967E+02
  0
LINE
  8
0
 62
4
 10
-3.35370257E+02
 20
1.63319100E+02
 11
-3.36398514E+02
 21
1.63787704E+02
  0
LINE
  8
0
 62
4
 10
-3.38356049E+02
 20
1.56767379E+02
 11
-3.35204380E+02
 21
1.63683085E+02
  0
ARC
  8
0
 62
4
 10
-3.28218015E+02
 20
1.56323213E+02
 40
1.18100000E+01
 50
1.42672490E+02
 51
1.68327510E+02
  0
ARC
  8
0
 62
4
 10
-3.29201856E+02
 20
1.52933762E+02
 40
1.18100000E+01
 50
1.53400933E+02
 51
1.55500000E+02
  0
ARC
  8
0
 62
4
 10
-3.29208274E+02
 20
1.52919679E+02
 40
1.18100000E+01
 50
1.55500000E+02
 51
1.62352491E+02
  0
LINE
  8
0
 62
4
 10
-3.26059789E+02
 20
1.56500000E+02
 11
-3.24631532E+02
 21
1.59634024E+02
  0
LINE
  8
0
 62
4
 10
-3.37378953E+02
 20
1.56500000E+02
 11
-3.34004133E+02
 21
1.63905365E+02
  0
LINE
  8
0
 62
4
 10
-3.37769338E+02
 20
1.56500000E+02
 11
-3.38356049E+02
 21
1.56767379E+02
  0
LINE
  8
0
 62
4
 10
-3.18151540E+02
 20
1.56500000E+02
 11
-3.18261803E+02
 21
1.56731172E+02
  0
LINE
  8
0
 62
4
 10
-3.37796553E+02
 20
1.56500000E+02
 11
-3.37791873E+02
 21
1.56510270E+02
  0
LINE
  8
0
  6
CENTER
 62
6
 10
-3.30626388E+02
 20
1.57420744E+02
 11
-3.39855186E+02
 21
1.61626550E+02
  0
LINE
  8
0
  6
CENTER
 62
6
 10
-3.32077814E+02
 20
1.54235880E+02
 11
-3.41306612E+02
 21
1.58441685E+02
  0
LINE
  8
0
 62
4
 10
-3.93995771E+02
 20
1.63905365E+02
 11
-4.03368372E+02
 21
1.59634024E+02
  0
LINE
  8
0
  6
CENTER
 62
6
 10
-3.97373578E+02
 20
1.57420744E+02
 11
-3.88144780E+02
 21
1.61626550E+02
  0
LINE
  8
0
  6
CENTER
 62
6
 10
-3.95922152E+02
 20
1.54235880E+02
 11
-3.86693353E+02
 21
1.58441685E+02
  0
LINE
  8
0
 62
4
 10
-4.09738101E+02
 20
1.56731172E+02
 11
-4.03368372E+02
 21
1.59634024E+02
  0
LINE
  8
0
 62
4
 10
-3.93705486E+02
 20
1.63268392E+02
 11
-3.92795525E+02
 21
1.63683085E+02
  0
ARC
  8
0
 62
4
 10
-3.89195440E+02
 20
1.58510261E+02
 40
1.00000000E+00
 50
3.43223662E+02
 51
1.16724900E+01
  0
ARC
  8
0
 62
4
 10
-3.91185968E+02
 20
1.62878076E+02
 40
1.00000000E+00
 50
3.73275101E+01
 51
1.14500000E+02
  0
ARC
  8
0
 62
4
 10
-3.99781890E+02
 20
1.56323213E+02
 40
1.18100000E+01
 50
1.16724900E+01
 51
3.73275101E+01
  0
LINE
  8
0
 62
4
 10
-3.92629647E+02
 20
1.63319100E+02
 11
-3.91601391E+02
 21
1.63787704E+02
  0
LINE
  8
0
 62
4
 10
-3.91489241E+02
 20
1.60816707E+02
 11
-3.92795525E+02
 21
1.63683085E+02
  0
LINE
  8
0
 62
4
 10
-3.92336998E+02
 20
1.60265520E+02
 11
-3.91991213E+02
 21
1.60423103E+02
  0
LINE
  8
0
 62
4
 10
-3.92053417E+02
 20
1.60559597E+02
 11
-3.90451885E+02
 21
1.61289457E+02
  0
ARC
  8
0
 62
4
 10
-3.98798049E+02
 20
1.52933762E+02
 40
1.18100000E+01
 50
2.45000000E+01
 51
4.50326991E+01
  0
ARC
  8
0
 62
4
 10
-3.98791631E+02
 20
1.52919679E+02
 40
1.18100000E+01
 50
1.76475088E+01
 51
2.45000000E+01
  0
LINE
  8
0
 62
4
 10
-4.09848364E+02
 20
1.56500000E+02
 11
-4.09738101E+02
 21
1.56731172E+02
  0
LINE
  8
0
 62
4
 10
-4.01940115E+02
 20
1.56500000E+02
 11
-4.03368372E+02
 21
1.59634024E+02
  0
LINE
  8
0
 62
4
 10
-3.90620952E+02
 20
1.56500000E+02
 11
-3.93995771E+02
 21
1.63905365E+02
  0
LINE
  8
0
 62
4
 10
-3.90203352E+02
 20
1.56500000E+02
 11
-3.92053417E+02
 21
1.60559597E+02
  0
LINE
  8
0
 62
7
 10
-4.14999922E+02
 20
1.55900015E+02
 11
-3.12976976E+02
 21
1.55900015E+02
  0
LINE
  8
0
 62
2
 10
-3.14916578E+02
 20
1.00464775E+02
 11
-3.14916578E+02
 21
1.00500061E+02
  0
LINE
  8
0
 62
7
 10
-3.08599928E+02
 20
1.51500000E+02
 11
-3.08599928E+02
 21
4.94999657E+01
  0
LINE
  8
0
 62
7
 10
-4.14999922E+02
 20
4.51000061E+01
 11
-3.12999952E+02
 21
4.51000061E+01
  0
LINE
  8
0
 62
7
 10
-3.11599928E+02
 20
1.25516159E+02
 11
-3.11599928E+02
 21
7.54840393E+01
  0
LINE
  8
0
 62
7
 10
-3.12599928E+02
 20
1.01750000E+02
 11
-3.38097425E+02
 21
1.01750000E+02
  0
LINE
  8
0
 62
7
 10
-3.44800158E+02
 20
8.30681039E+01
 11
-3.29810501E+02
 21
6.80784435E+01
  0
LINE
  8
0
 62
7
 10
-3.46568076E+02
 20
8.13002724E+01
 11
-3.31578419E+02
 21
6.63106120E+01
  0
LINE
  8
0
 62
7
 10
-3.12599928E+02
 20
9.92500000E+01
 11
-3.38097425E+02
 21
9.92500000E+01
  0
LINE
  8
0
 62
7
 10
-3.81432087E+02
 20
8.13003502E+01
 11
-3.96421757E+02
 21
6.63106815E+01
  0
LINE
  8
0
 62
7
 10
-3.83199811E+02
 20
8.30681604E+01
 11
-3.98189492E+02
 21
6.80784809E+01
  0
LINE
  8
0
 62
7
 10
-3.89015882E+02
 20
4.81000099E+01
 11
-3.38983747E+02
 21
4.81000099E+01
  0
LINE
  8
0
 62
7
 10
-3.65249983E+02
 20
4.90999680E+01
 11
-3.65249983E+02
 21
7.45974579E+01
  0
LINE
  8
0
 62
7
 10
-4.15399977E+02
 20
9.92500000E+01
 11
-3.89902479E+02
 21
9.92500000E+01
  0
LINE
  8
0
 62
7
 10
-3.07999952E+02
 20
1.51500000E+02
 11
-3.07999952E+02
 21
4.95000038E+01
  0
LINE
  8
0
  6
CENTER
 62
2
 10
-3.21999952E+02
 20
1.59392731E+02
 11
-3.21999952E+02
 21
1.27642197E+02
  0
LINE
  8
0
 62
7
 10
-4.14999922E+02
 20
4.45000038E+01
 11
-3.12999952E+02
 21
4.45000038E+01
  0
LINE
  8
0
  6
CENTER
 62
2
 10
-4.05999952E+02
 20
4.28217163E+01
 11
-4.05999952E+02
 21
7.28636475E+01
  0
LINE
  8
0
  6
CENTER
 62
2
 10
-4.22068525E+02
 20
5.84999924E+01
 11
-3.90503767E+02
 21
5.84999924E+01
  0
LINE
  8
0
 62
7
 10
-3.62749983E+02
 20
4.90999680E+01
 11
-3.62749983E+02
 21
7.45974579E+01
  0
LINE
  8
0
 62
7
 10
-3.62749983E+02
 20
1.51900009E+02
 11
-3.62749983E+02
 21
1.26402573E+02
  0
LINE
  8
0
 62
7
 10
-3.46568050E+02
 20
1.19699874E+02
 11
-3.31578388E+02
 21
1.34689529E+02
  0
LINE
  8
0
 62
7
 10
-3.44800272E+02
 20
1.17932117E+02
 11
-3.29810600E+02
 21
1.32921783E+02
  0
LINE
  8
0
 62
7
 10
-3.28999983E+02
 20
1.56500000E+02
 11
-3.28999983E+02
 21
1.55900024E+02
  0
LINE
  8
0
 62
7
 10
-3.98999983E+02
 20
4.51000061E+01
 11
-3.98999983E+02
 21
4.45000038E+01
  0
LINE
  8
0
 62
7
 10
-3.28999983E+02
 20
4.51000061E+01
 11
-3.28999983E+02
 21
4.45000038E+01
  0
LINE
  8
0
 62
7
 10
-4.19399946E+02
 20
1.51500015E+02
 11
-4.19399946E+02
 21
4.95000038E+01
  0
LINE
  8
0
 62
7
 10
-3.83199766E+02
 20
1.17932032E+02
 11
-3.98189425E+02
 21
1.32921690E+02
  0
LINE
  8
0
 62
7
 10
-3.81431978E+02
 20
1.19699734E+02
 11
-3.96421637E+02
 21
1.34689392E+02
  0
LINE
  8
0
 62
7
 10
-3.89016096E+02
 20
1.52900009E+02
 11
-3.38983961E+02
 21
1.52900009E+02
  0
LINE
  8
0
 62
7
 10
-4.16399977E+02
 20
1.25515961E+02
 11
-4.16399977E+02
 21
7.56844635E+01
  0
LINE
  8
0
 62
7
 10
-4.15399977E+02
 20
1.01750000E+02
 11
-3.89902479E+02
 21
1.01750000E+02
  0
LINE
  8
0
 62
7
 10
-3.65249983E+02
 20
1.51900009E+02
 11
-3.65249983E+02
 21
1.26402512E+02
  0
LINE
  8
0
 62
7
 10
-4.14999922E+02
 20
1.56500000E+02
 11
-3.12999952E+02
 21
1.56500000E+02
  0
LINE
  8
0
 62
7
 10
-4.19999922E+02
 20
1.51500000E+02
 11
-4.19999922E+02
 21
4.95000038E+01
  0
LINE
  8
0
  6
CENTER
 62
2
 10
-4.21963850E+02
 20
1.42500000E+02
 11
-3.90108931E+02
 21
1.42500000E+02
  0
LINE
  8
0
  6
CENTER
 62
2
 10
-4.05999952E+02
 20
1.58980774E+02
 11
-4.05999952E+02
 21
1.28073807E+02
  0
LINE
  8
0
 62
7
 10
-3.98999983E+02
 20
1.56500000E+02
 11
-3.98999983E+02
 21
1.55900024E+02
  0
LINE
  8
0
  6
CENTER
 62
2
 10
-3.63999983E+02
 20
1.59166321E+02
 11
-3.63999983E+02
 21
4.30072632E+01
  0
LINE
  8
0
  6
CENTER
 62
2
 10
-3.36806166E+02
 20
5.84999924E+01
 11
-3.05624281E+02
 21
5.84999924E+01
  0
LINE
  8
0
  6
CENTER
 62
2
 10
-3.36806166E+02
 20
1.42500000E+02
 11
-3.05716749E+02
 21
1.42500000E+02
  0
LINE
  8
0
  6
CENTER
 62
2
 10
-3.21999952E+02
 20
4.29277000E+01
 11
-3.21999952E+02
 21
7.34962006E+01
  0
LINE
  8
0
  6
CENTER
 62
2
 10
-3.06138990E+02
 20
1.00500000E+02
 11
-4.21904951E+02
 21
1.00500000E+02
  0
LINE
  8
0
  6
CENTER
 62
2
 10
-3.75999952E+02
 20
1.43800003E+02
 11
-3.75999952E+02
 21
1.58763611E+02
  0
CIRCLE
  8
0
 62
7
 10
-3.21999952E+02
 20
1.42500000E+02
 40
8.00000000E+00
  0
CIRCLE
  8
0
 62
7
 10
-3.21999952E+02
 20
1.42500000E+02
 40
8.69999981E+00
  0
CIRCLE
  8
0
 62
7
 10
-3.21999952E+02
 20
5.84999924E+01
 40
8.00000000E+00
  0
CIRCLE
  8
0
 62
7
 10
-3.21999952E+02
 20
5.84999924E+01
 40
8.69999981E+00
  0
CIRCLE
  8
0
 62
7
 10
-4.05999952E+02
 20
5.84999695E+01
 40
8.00000000E+00
  0
CIRCLE
  8
0
 62
7
 10
-4.05999952E+02
 20
5.84999695E+01
 40
8.69999981E+00
  0
ARC
  8
0
 62
7
 10
-3.29103437E+02
 20
1.32214539E+02
 40
1.00000000E+00
 50
5.53696252E+01
 51
1.34999959E+02
  0
ARC
  8
0
 62
7
 10
-3.32285383E+02
 20
1.35396561E+02
 40
1.00000000E+00
 50
3.14999995E+02
 51
3.46303842E+01
  0
ARC
  8
0
 62
7
 10
-3.44093092E+02
 20
1.17224892E+02
 40
1.00000000E+00
 50
1.34999959E+02
 51
2.20035227E+02
  0
ARC
  8
0
 62
7
 10
-3.47275129E+02
 20
1.20406906E+02
 40
1.00000000E+00
 50
2.29964427E+02
 51
3.14999988E+02
  0
ARC
  8
0
 62
7
 10
-3.61749922E+02
 20
1.51900009E+02
 40
1.00000000E+00
 50
8.99999818E+01
 51
1.79999964E+02
  0
ARC
  8
0
 62
7
 10
-3.61749922E+02
 20
1.26402573E+02
 40
1.00000000E+00
 50
1.79999964E+02
 51
2.65035792E+02
  0
ARC
  8
0
 62
7
 10
-3.38097425E+02
 20
1.02749992E+02
 40
1.00000000E+00
 50
1.84964149E+02
 51
2.69999956E+02
  0
ARC
  8
0
 62
7
 10
-3.12599928E+02
 20
1.02749992E+02
 40
1.00000000E+00
 50
2.69999963E+02
 51
0.00000000E+00
  0
ARC
  8
0
 62
7
 10
-3.32285383E+02
 20
6.56034927E+01
 40
1.00000000E+00
 50
3.25369629E+02
 51
4.49999637E+01
  0
ARC
  8
0
 62
7
 10
-3.29103437E+02
 20
6.87854614E+01
 40
1.00000000E+00
 50
2.25000000E+02
 51
3.04630388E+02
  0
ARC
  8
0
 62
7
 10
-3.47275007E+02
 20
8.05931168E+01
 40
1.00000000E+00
 50
4.49999637E+01
 51
1.30035231E+02
  0
ARC
  8
0
 62
7
 10
-3.44093061E+02
 20
8.37751465E+01
 40
1.00000000E+00
 50
1.39964428E+02
 51
2.24999982E+02
  0
ARC
  8
0
 62
7
 10
-3.12599928E+02
 20
9.82500000E+01
 40
1.00000000E+00
 50
3.59999986E+02
 51
8.99999681E+01
  0
ARC
  8
0
 62
7
 10
-3.38097425E+02
 20
9.82500000E+01
 40
1.00000000E+00
 50
8.99999681E+01
 51
1.75035796E+02
  0
ARC
  8
0
 62
7
 10
-3.61749922E+02
 20
7.45974579E+01
 40
1.00000000E+00
 50
9.49641432E+01
 51
1.79999951E+02
  0
ARC
  8
0
 62
7
 10
-3.61749922E+02
 20
4.90999947E+01
 40
1.00000000E+00
 50
1.79999951E+02
 51
2.70000001E+02
  0
ARC
  8
0
 62
7
 10
-3.98896406E+02
 20
6.87854462E+01
 40
1.00000000E+00
 50
2.35369648E+02
 51
3.14999968E+02
  0
ARC
  8
0
 62
7
 10
-3.95714460E+02
 20
6.56034164E+01
 40
1.00000000E+00
 50
1.34999987E+02
 51
2.14630376E+02
  0
ARC
  8
0
 62
7
 10
-3.83906782E+02
 20
8.37750854E+01
 40
1.00000000E+00
 50
3.14999968E+02
 51
4.00352358E+01
  0
ARC
  8
0
 62
7
 10
-3.80724836E+02
 20
8.05930939E+01
 40
1.00000000E+00
 50
4.99644184E+01
 51
1.34999987E+02
  0
ARC
  8
0
 62
7
 10
-3.66249922E+02
 20
4.90999947E+01
 40
1.00000000E+00
 50
2.69999991E+02
 51
3.59999973E+02
  0
ARC
  8
0
 62
7
 10
-3.66249922E+02
 20
7.45974579E+01
 40
1.00000000E+00
 50
3.59999973E+02
 51
8.50358005E+01
  0
ARC
  8
0
 62
7
 10
-3.89902479E+02
 20
9.82500000E+01
 40
1.00000000E+00
 50
4.96415417E+00
 51
8.99999549E+01
  0
ARC
  8
0
 62
7
 10
-4.15399977E+02
 20
9.82500000E+01
 40
1.00000000E+00
 50
8.99999549E+01
 51
1.79999991E+02
  0
ARC
  8
0
 62
7
 10
-3.12999952E+02
 20
1.51500000E+02
 40
4.40000010E+00
 50
0.00000000E+00
 51
8.99999818E+01
  0
ARC
  8
0
 62
7
 10
-3.21999952E+02
 20
5.84999924E+01
 40
1.15000000E+01
 50
7.13249336E+01
 51
1.98674411E+02
  0
ARC
  8
0
 62
7
 10
-4.05999952E+02
 20
5.84999924E+01
 40
1.15000000E+01
 50
3.41325006E+02
 51
1.07701394E+02
  0
ARC
  8
0
 62
7
 10
-4.14999922E+02
 20
4.95000038E+01
 40
4.40000010E+00
 50
1.79999964E+02
 51
2.69999946E+02
  0
ARC
  8
0
 62
7
 10
-3.12999952E+02
 20
4.94999657E+01
 40
4.40000010E+00
 50
2.69999963E+02
 51
0.00000000E+00
  0
ARC
  8
0
 62
7
 10
-3.12999952E+02
 20
1.51500000E+02
 40
5.00000000E+00
 50
0.00000000E+00
 51
8.99999818E+01
  0
ARC
  8
0
 62
7
 10
-4.14999922E+02
 20
4.95000038E+01
 40
5.00000000E+00
 50
1.79999964E+02
 51
2.69999946E+02
  0
ARC
  8
0
 62
7
 10
-3.12999952E+02
 20
4.95000038E+01
 40
5.00000000E+00
 50
2.69999963E+02
 51
0.00000000E+00
  0
ARC
  8
0
 62
7
 10
-3.12599928E+02
 20
1.25516159E+02
 40
1.00000000E+00
 50
0.00000000E+00
 51
9.45895548E+01
  0
ARC
  8
0
 62
7
 10
-3.38983961E+02
 20
1.51900009E+02
 40
1.00000000E+00
 50
3.55412204E+02
 51
8.99999818E+01
  0
ARC
  8
0
 62
7
 10
-4.14999830E+02
 20
7.04998627E+01
 40
4.19999981E+00
 50
3.58989755E+02
 51
9.44131721E+01
  0
ARC
  8
0
 62
7
 10
-3.93999861E+02
 20
4.95000038E+01
 40
4.00000000E+00
 50
3.55411551E+02
 51
9.18126662E+01
  0
ARC
  8
0
 62
7
 10
-3.33999830E+02
 20
4.95001183E+01
 40
4.00000000E+00
 50
8.81895309E+01
 51
1.84590151E+02
  0
ARC
  8
0
 62
7
 10
-3.12999952E+02
 20
7.05000610E+01
 40
4.00000000E+00
 50
8.54113313E+01
 51
1.81813065E+02
  0
ARC
  8
0
 62
7
 10
-4.15399977E+02
 20
7.56844635E+01
 40
1.00000000E+00
 50
1.79999977E+02
 51
2.74414133E+02
  0
ARC
  8
0
 62
7
 10
-3.89015852E+02
 20
4.91000061E+01
 40
1.00000000E+00
 50
1.75411348E+02
 51
2.70000001E+02
  0
ARC
  8
0
 62
7
 10
-3.38983809E+02
 20
4.90999680E+01
 40
1.00000000E+00
 50
2.70000018E+02
 51
4.59054965E+00
  0
ARC
  8
0
 62
7
 10
-3.12599928E+02
 20
7.54840393E+01
 40
1.00000000E+00
 50
2.65412187E+02
 51
0.00000000E+00
  0
ARC
  8
0
 62
7
 10
-3.33841780E+02
 20
1.46502518E+02
 40
1.00000000E+00
 50
3.41324803E+02
 51
9.18135474E+01
  0
ARC
  8
0
 62
7
 10
-3.17997572E+02
 20
1.30658096E+02
 40
1.00000000E+00
 50
3.58189936E+02
 51
1.08674388E+02
  0
ARC
  8
0
 62
7
 10
-4.09800611E+02
 20
7.04081802E+01
 40
1.00000000E+00
 50
1.78989315E+02
 51
2.87700627E+02
  0
ARC
  8
0
 62
7
 10
-3.94158064E+02
 20
5.44974976E+01
 40
1.00000000E+00
 50
1.61324820E+02
 51
2.71813498E+02
  0
ARC
  8
0
 62
7
 10
-3.33841902E+02
 20
5.44976120E+01
 40
1.00000000E+00
 50
2.68189943E+02
 51
1.86743690E+01
  0
ARC
  8
0
 62
7
 10
-3.17997480E+02
 20
7.03418579E+01
 40
1.00000000E+00
 50
2.51325332E+02
 51
1.81263018E+00
  0
ARC
  8
0
 62
7
 10
-3.21999952E+02
 20
1.42500000E+02
 40
1.15000000E+01
 50
1.61325025E+02
 51
2.88674421E+02
  0
ARC
  8
0
 62
7
 10
-3.34000013E+02
 20
1.51500000E+02
 40
4.00000000E+00
 50
1.75411348E+02
 51
2.71812624E+02
  0
ARC
  8
0
 62
7
 10
-3.13000074E+02
 20
1.30500107E+02
 40
4.00000000E+00
 50
1.78189554E+02
 51
2.74590407E+02
  0
CIRCLE
  8
0
 62
7
 10
-4.05999952E+02
 20
1.42499985E+02
 40
8.00000000E+00
  0
CIRCLE
  8
0
 62
7
 10
-4.05999952E+02
 20
1.42499985E+02
 40
8.69999981E+00
  0
ARC
  8
0
 62
7
 10
-3.95714460E+02
 20
1.35396500E+02
 40
1.00000000E+00
 50
1.45369634E+02
 51
2.24999955E+02
  0
ARC
  8
0
 62
7
 10
-3.98896528E+02
 20
1.32214508E+02
 40
1.00000000E+00
 50
4.49999910E+01
 51
1.24630380E+02
  0
ARC
  8
0
 62
7
 10
-4.15399977E+02
 20
1.02749969E+02
 40
1.00000000E+00
 50
1.79999964E+02
 51
2.69999946E+02
  0
ARC
  8
0
 62
7
 10
-3.66249922E+02
 20
1.51900009E+02
 40
1.00000000E+00
 50
3.59999959E+02
 51
8.99999956E+01
  0
ARC
  8
0
 62
7
 10
-3.89902479E+02
 20
1.02749992E+02
 40
1.00000000E+00
 50
2.69999963E+02
 51
3.55035805E+02
  0
ARC
  8
0
 62
7
 10
-3.83906904E+02
 20
1.17224861E+02
 40
1.00000000E+00
 50
3.19964423E+02
 51
4.49999910E+01
  0
ARC
  8
0
 62
7
 10
-3.80724836E+02
 20
1.20406876E+02
 40
1.00000000E+00
 50
2.24999972E+02
 51
3.10035254E+02
  0
ARC
  8
0
 62
7
 10
-3.66249922E+02
 20
1.26402512E+02
 40
1.00000000E+00
 50
2.74964145E+02
 51
3.59999959E+02
  0
ARC
  8
0
 62
7
 10
-4.05999952E+02
 20
1.42500000E+02
 40
1.15000000E+01
 50
2.51324914E+02
 51
1.86744424E+01
  0
ARC
  8
0
 62
7
 10
-4.14999922E+02
 20
1.51500015E+02
 40
4.40000010E+00
 50
8.99999818E+01
 51
1.79999964E+02
  0
ARC
  8
0
 62
7
 10
-4.14999922E+02
 20
1.51500000E+02
 40
5.00000000E+00
 50
8.99999818E+01
 51
1.79999964E+02
  0
ARC
  8
0
 62
7
 10
-4.14999922E+02
 20
1.30499939E+02
 40
4.00000000E+00
 50
2.65411312E+02
 51
1.81309463E+00
  0
ARC
  8
0
 62
7
 10
-3.94000074E+02
 20
1.51499863E+02
 40
4.00000000E+00
 50
2.68189512E+02
 51
4.59040963E+00
  0
ARC
  8
0
 62
7
 10
-4.15399977E+02
 20
1.25515961E+02
 40
1.00000000E+00
 50
8.54104639E+01
 51
1.79999964E+02
  0
ARC
  8
0
 62
7
 10
-3.89016157E+02
 20
1.51900024E+02
 40
1.00000000E+00
 50
8.99999818E+01
 51
1.84589646E+02
  0
ARC
  8
0
 62
7
 10
-4.10002424E+02
 20
1.30658142E+02
 40
1.00000000E+00
 50
7.13253501E+01
 51
1.81812600E+02
  0
ARC
  8
0
 62
7
 10
-3.94158064E+02
 20
1.46502380E+02
 40
1.00000000E+00
 50
8.81899612E+01
 51
1.98674330E+02
  0
CIRCLE
  8
0
 62
7
 10
-3.63999861E+02
 20
1.00500061E+02
 40
2.50000153E+01
  0
CIRCLE
  8
0
 62
7
 10
-3.63999861E+02
 20
1.00500061E+02
 40
2.35000153E+01
  0
CIRCLE
  8
0
 62
7
 10
-3.63999983E+02
 20
1.00500000E+02
 40
2.40000000E+01
  0
CIRCLE
  8
0
 62
2
 10
-4.05999952E+02
 20
5.84999924E+01
 40
5.00000000E+00
  0
CIRCLE
  8
0
 62
2
 10
-4.05999952E+02
 20
1.42500000E+02
 40
5.00000000E+00
  0
CIRCLE
  8
0
 62
2
 10
-3.21999952E+02
 20
1.42500000E+02
 40
5.00000000E+00
  0
CIRCLE
  8
0
 62
2
 10
-3.21999952E+02
 20
5.84999924E+01
 40
5.00000000E+00
  0
CIRCLE
  8
0
 62
7
 10
-4.05999952E+02
 20
5.84999924E+01
 40
4.17999983E+00
  0
CIRCLE
  8
0
 62
7
 10
-4.05999952E+02
 20
1.42500000E+02
 40
4.17999983E+00
  0
CIRCLE
  8
0
 62
7
 10
-3.21999952E+02
 20
1.42500000E+02
 40
4.17999983E+00
  0
CIRCLE
  8
0
 62
7
 10
-3.21999952E+02
 20
5.84999924E+01
 40
4.17999983E+00
  0
CIRCLE
  8
0
 62
7
 10
-3.63999983E+02
 20
1.00500000E+02
 40
1.29999914E+01
  0
CIRCLE
  8
0
 62
2
 10
-3.63999983E+02
 20
1.00500000E+02
 40
1.21799841E+01
  0
CIRCLE
  8
0
 62
7
 10
-3.63999983E+02
 20
1.00500000E+02
 40
1.14999914E+01
  0
LINE
  8
0
 62
4
 10
3.25995867E+02
 20
1.63905365E+02
 11
3.35368468E+02
 21
1.59634024E+02
  0
LINE
  8
0
 62
4
 10
3.41738197E+02
 20
1.56731172E+02
 11
3.35368468E+02
 21
1.59634024E+02
  0
LINE
  8
0
 62
4
 10
3.25705581E+02
 20
1.63268392E+02
 11
3.24795620E+02
 21
1.63683085E+02
  0
ARC
  8
0
 62
4
 10
3.21195535E+02
 20
1.58510261E+02
 40
1.00000000E+00
 50
1.68327510E+02
 51
2.45500000E+02
  0
ARC
  8
0
 62
4
 10
3.23186063E+02
 20
1.62878076E+02
 40
1.00000000E+00
 50
6.55000000E+01
 51
1.42672490E+02
  0
LINE
  8
0
 62
4
 10
3.21809829E+02
 20
1.57131364E+02
 11
3.20781572E+02
 21
1.57599967E+02
  0
LINE
  8
0
 62
4
 10
3.24629743E+02
 20
1.63319100E+02
 11
3.23601486E+02
 21
1.63787704E+02
  0
LINE
  8
0
 62
4
 10
3.21643951E+02
 20
1.56767379E+02
 11
3.24795620E+02
 21
1.63683085E+02
  0
ARC
  8
0
 62
4
 10
3.31781985E+02
 20
1.56323213E+02
 40
1.18100000E+01
 50
1.42672490E+02
 51
1.68327510E+02
  0
ARC
  8
0
 62
4
 10
3.30798144E+02
 20
1.52933762E+02
 40
1.18100000E+01
 50
1.53400933E+02
 51
1.55500000E+02
  0
ARC
  8
0
 62
4
 10
3.30791726E+02
 20
1.52919679E+02
 40
1.18100000E+01
 50
1.55500000E+02
 51
1.62352491E+02
  0
LINE
  8
0
 62
4
 10
3.33940211E+02
 20
1.56500000E+02
 11
3.35368468E+02
 21
1.59634024E+02
  0
LINE
  8
0
 62
4
 10
3.22621047E+02
 20
1.56500000E+02
 11
3.25995867E+02
 21
1.63905365E+02
  0
LINE
  8
0
 62
4
 10
3.22230662E+02
 20
1.56500000E+02
 11
3.21643951E+02
 21
1.56767379E+02
  0
LINE
  8
0
 62
4
 10
3.41848460E+02
 20
1.56500000E+02
 11
3.41738197E+02
 21
1.56731172E+02
  0
LINE
  8
0
 62
4
 10
3.22203447E+02
 20
1.56500000E+02
 11
3.22208127E+02
 21
1.56510270E+02
  0
LINE
  8
0
  6
CENTER
 62
6
 10
3.29373612E+02
 20
1.57420744E+02
 11
3.20144814E+02
 21
1.61626550E+02
  0
LINE
  8
0
  6
CENTER
 62
6
 10
3.27922186E+02
 20
1.54235880E+02
 11
3.18693388E+02
 21
1.58441685E+02
  0
LINE
  8
0
 62
4
 10
2.66004229E+02
 20
1.63905365E+02
 11
2.56631628E+02
 21
1.59634024E+02
  0
LINE
  8
0
  6
CENTER
 62
6
 10
2.62626422E+02
 20
1.57420744E+02
 11
2.71855220E+02
 21
1.61626550E+02
  0
LINE
  8
0
  6
CENTER
 62
6
 10
2.64077848E+02
 20
1.54235880E+02
 11
2.73306647E+02
 21
1.58441685E+02
  0
LINE
  8
0
 62
4
 10
2.50261899E+02
 20
1.56731172E+02
 11
2.56631628E+02
 21
1.59634024E+02
  0
LINE
  8
0
 62
4
 10
2.66294514E+02
 20
1.63268392E+02
 11
2.67204475E+02
 21
1.63683085E+02
  0
ARC
  8
0
 62
4
 10
2.70804560E+02
 20
1.58510261E+02
 40
1.00000000E+00
 50
3.43223662E+02
 51
1.16724900E+01
  0
ARC
  8
0
 62
4
 10
2.68814032E+02
 20
1.62878076E+02
 40
1.00000000E+00
 50
3.73275101E+01
 51
1.14500000E+02
  0
ARC
  8
0
 62
4
 10
2.60218110E+02
 20
1.56323213E+02
 40
1.18100000E+01
 50
1.16724900E+01
 51
3.73275101E+01
  0
LINE
  8
0
 62
4
 10
2.67370353E+02
 20
1.63319100E+02
 11
2.68398609E+02
 21
1.63787704E+02
  0
LINE
  8
0
 62
4
 10
2.68510759E+02
 20
1.60816707E+02
 11
2.67204475E+02
 21
1.63683085E+02
  0
LINE
  8
0
 62
4
 10
2.67663002E+02
 20
1.60265520E+02
 11
2.68008787E+02
 21
1.60423103E+02
  0
LINE
  8
0
 62
4
 10
2.67946583E+02
 20
1.60559597E+02
 11
2.69548115E+02
 21
1.61289457E+02
  0
ARC
  8
0
 62
4
 10
2.61201951E+02
 20
1.52933762E+02
 40
1.18100000E+01
 50
2.45000000E+01
 51
4.50326991E+01
  0
ARC
  8
0
 62
4
 10
2.61208369E+02
 20
1.52919679E+02
 40
1.18100000E+01
 50
1.76475088E+01
 51
2.45000000E+01
  0
LINE
  8
0
 62
4
 10
2.50151636E+02
 20
1.56500000E+02
 11
2.50261899E+02
 21
1.56731172E+02
  0
LINE
  8
0
 62
4
 10
2.58059885E+02
 20
1.56500000E+02
 11
2.56631628E+02
 21
1.59634024E+02
  0
LINE
  8
0
 62
4
 10
2.69379048E+02
 20
1.56500000E+02
 11
2.66004229E+02
 21
1.63905365E+02
  0
LINE
  8
0
 62
4
 10
2.69796648E+02
 20
1.56500000E+02
 11
2.67946583E+02
 21
1.60559597E+02
  0
LINE
  8
0
  6
CENTER
 62
2
 10
3.07999971E+02
 20
1.43800003E+02
 11
3.07999971E+02
 21
1.58763611E+02
  0
LINE
  8
0
 62
2
 10
2.46916605E+02
 20
1.00464775E+02
 11
2.46916605E+02
 21
1.00500061E+02
  0
LINE
  8
0
 62
7
 10
2.40599977E+02
 20
1.51500000E+02
 11
2.40599977E+02
 21
4.94999657E+01
  0
LINE
  8
0
 62
7
 10
3.46999971E+02
 20
4.51000061E+01
 11
2.45000002E+02
 21
4.51000061E+01
  0
LINE
  8
0
 62
7
 10
2.43599955E+02
 20
1.25516159E+02
 11
2.43599955E+02
 21
7.54840393E+01
  0
LINE
  8
0
 62
7
 10
2.44599970E+02
 20
1.01750000E+02
 11
2.70097460E+02
 21
1.01750000E+02
  0
LINE
  8
0
 62
7
 10
2.76800189E+02
 20
8.30681127E+01
 11
2.61810532E+02
 21
6.80784522E+01
  0
LINE
  8
0
 62
7
 10
2.78568097E+02
 20
8.13002702E+01
 11
2.63578440E+02
 21
6.63106098E+01
  0
LINE
  8
0
 62
7
 10
2.44599970E+02
 20
9.92500000E+01
 11
2.70097460E+02
 21
9.92500000E+01
  0
LINE
  8
0
 62
7
 10
3.13432118E+02
 20
8.13003615E+01
 11
3.28421794E+02
 21
6.63106860E+01
  0
LINE
  8
0
 62
7
 10
3.15199847E+02
 20
8.30681663E+01
 11
3.30189529E+02
 21
6.80784855E+01
  0
LINE
  8
0
 62
7
 10
3.21015932E+02
 20
4.81000099E+01
 11
2.70983782E+02
 21
4.81000099E+01
  0
LINE
  8
0
 62
7
 10
2.97250017E+02
 20
4.90999680E+01
 11
2.97250017E+02
 21
7.45974579E+01
  0
LINE
  8
0
 62
7
 10
3.47399996E+02
 20
9.92500000E+01
 11
3.21902514E+02
 21
9.92500000E+01
  0
LINE
  8
0
 62
7
 10
2.40000002E+02
 20
1.51500000E+02
 11
2.40000002E+02
 21
4.95000038E+01
  0
LINE
  8
0
  6
CENTER
 62
2
 10
2.53999994E+02
 20
1.59392731E+02
 11
2.53999994E+02
 21
1.27642197E+02
  0
LINE
  8
0
 62
7
 10
3.46999971E+02
 20
4.45000038E+01
 11
2.45000002E+02
 21
4.45000038E+01
  0
LINE
  8
0
  6
CENTER
 62
2
 10
3.37999971E+02
 20
4.28217163E+01
 11
3.37999971E+02
 21
7.28636475E+01
  0
LINE
  8
0
  6
CENTER
 62
2
 10
3.54068544E+02
 20
5.84999924E+01
 11
3.22503817E+02
 21
5.84999924E+01
  0
LINE
  8
0
 62
7
 10
2.94750017E+02
 20
4.90999680E+01
 11
2.94750017E+02
 21
7.45974579E+01
  0
LINE
  8
0
 62
7
 10
2.94750017E+02
 20
1.51900009E+02
 11
2.94750017E+02
 21
1.26402573E+02
  0
LINE
  8
0
 62
7
 10
2.78568087E+02
 20
1.19699875E+02
 11
2.63578417E+02
 21
1.34689538E+02
  0
LINE
  8
0
 62
7
 10
2.76800313E+02
 20
1.17932136E+02
 11
2.61810642E+02
 21
1.32921801E+02
  0
LINE
  8
0
 62
7
 10
2.61000017E+02
 20
1.56500000E+02
 11
2.61000017E+02
 21
1.55900024E+02
  0
LINE
  8
0
 62
7
 10
3.31000002E+02
 20
4.51000061E+01
 11
3.31000002E+02
 21
4.45000038E+01
  0
LINE
  8
0
 62
7
 10
2.61000017E+02
 20
4.51000061E+01
 11
2.61000017E+02
 21
4.45000038E+01
  0
LINE
  8
0
 62
7
 10
3.46999971E+02
 20
1.55900024E+02
 11
2.45000002E+02
 21
1.55900024E+02
  0
LINE
  8
0
 62
7
 10
3.51399996E+02
 20
1.51500015E+02
 11
3.51399996E+02
 21
4.95000038E+01
  0
LINE
  8
0
 62
7
 10
3.15199783E+02
 20
1.17932016E+02
 11
3.30189442E+02
 21
1.32921674E+02
  0
LINE
  8
0
 62
7
 10
3.13432003E+02
 20
1.19699732E+02
 11
3.28421662E+02
 21
1.34689389E+02
  0
LINE
  8
0
 62
7
 10
3.21016130E+02
 20
1.52900009E+02
 11
2.70983995E+02
 21
1.52900009E+02
  0
LINE
  8
0
 62
7
 10
3.48400011E+02
 20
1.25515961E+02
 11
3.48400011E+02
 21
7.56844635E+01
  0
LINE
  8
0
 62
7
 10
3.47399996E+02
 20
1.01750000E+02
 11
3.21902514E+02
 21
1.01750000E+02
  0
LINE
  8
0
 62
7
 10
2.97250017E+02
 20
1.51900009E+02
 11
2.97250017E+02
 21
1.26402512E+02
  0
LINE
  8
0
 62
7
 10
3.46999971E+02
 20
1.56500000E+02
 11
2.45000002E+02
 21
1.56500000E+02
  0
LINE
  8
0
 62
7
 10
3.51999971E+02
 20
1.51500000E+02
 11
3.51999971E+02
 21
4.95000038E+01
  0
LINE
  8
0
  6
CENTER
 62
2
 10
3.53963869E+02
 20
1.42500000E+02
 11
3.22108965E+02
 21
1.42500000E+02
  0
LINE
  8
0
  6
CENTER
 62
2
 10
3.37999971E+02
 20
1.58980774E+02
 11
3.37999971E+02
 21
1.28073807E+02
  0
LINE
  8
0
 62
7
 10
3.31000002E+02
 20
1.56500000E+02
 11
3.31000002E+02
 21
1.55900024E+02
  0
LINE
  8
0
  6
CENTER
 62
2
 10
2.96000017E+02
 20
1.59166321E+02
 11
2.96000017E+02
 21
4.30072632E+01
  0
LINE
  8
0
  6
CENTER
 62
2
 10
2.68806200E+02
 20
5.84999924E+01
 11
2.37624308E+02
 21
5.84999924E+01
  0
LINE
  8
0
  6
CENTER
 62
2
 10
2.68806200E+02
 20
1.42500000E+02
 11
2.37716776E+02
 21
1.42500000E+02
  0
LINE
  8
0
  6
CENTER
 62
2
 10
2.53999994E+02
 20
4.29277000E+01
 11
2.53999994E+02
 21
7.34962006E+01
  0
LINE
  8
0
  6
CENTER
 62
2
 10
2.38139040E+02
 20
1.00500000E+02
 11
3.53904970E+02
 21
1.00500000E+02
  0
LINE
  8
0
 62
7
 10
3.37999974E+02
 20
1.48273504E+02
 11
3.32999977E+02
 21
1.45386755E+02
  0
LINE
  8
0
 62
7
 10
3.32999971E+02
 20
1.45386749E+02
 11
3.32999971E+02
 21
1.39613251E+02
  0
LINE
  8
0
 62
7
 10
3.37999977E+02
 20
1.36726494E+02
 11
3.32999974E+02
 21
1.39613247E+02
  0
LINE
  8
0
 62
7
 10
3.42999972E+02
 20
1.39613254E+02
 11
3.37999975E+02
 21
1.36726504E+02
  0
LINE
  8
0
 62
7
 10
3.42999971E+02
 20
1.45386749E+02
 11
3.42999971E+02
 21
1.39613251E+02
  0
LINE
  8
0
 62
7
 10
3.37999974E+02
 20
1.48273501E+02
 11
3.42999977E+02
 21
1.45386748E+02
  0
LINE
  8
0
 62
7
 10
2.53999985E+02
 20
1.48273505E+02
 11
2.48999989E+02
 21
1.45386756E+02
  0
LINE
  8
0
 62
7
 10
2.48999994E+02
 20
1.45386749E+02
 11
2.48999994E+02
 21
1.39613251E+02
  0
LINE
  8
0
 62
7
 10
2.53999994E+02
 20
1.36726503E+02
 11
2.48999995E+02
 21
1.39613254E+02
  0
LINE
  8
0
 62
7
 10
2.58999985E+02
 20
1.39613251E+02
 11
2.53999989E+02
 21
1.36726502E+02
  0
LINE
  8
0
 62
7
 10
2.58999987E+02
 20
1.45386749E+02
 11
2.58999987E+02
 21
1.39613251E+02
  0
LINE
  8
0
 62
7
 10
2.53999995E+02
 20
1.48273508E+02
 11
2.58999994E+02
 21
1.45386757E+02
  0
LINE
  8
0
 62
7
 10
2.53999991E+02
 20
6.42734963E+01
 11
2.48999995E+02
 21
6.13867470E+01
  0
LINE
  8
0
 62
7
 10
2.48999994E+02
 20
6.13867416E+01
 11
2.48999994E+02
 21
5.56132431E+01
  0
LINE
  8
0
 62
7
 10
2.53999994E+02
 20
5.27264886E+01
 11
2.48999991E+02
 21
5.56132417E+01
  0
LINE
  8
0
 62
7
 10
2.58999991E+02
 20
5.56132424E+01
 11
2.53999995E+02
 21
5.27264931E+01
  0
LINE
  8
0
 62
7
 10
2.58999987E+02
 20
6.13867416E+01
 11
2.58999987E+02
 21
5.56132431E+01
  0
LINE
  8
0
 62
7
 10
2.53999991E+02
 20
6.42734956E+01
 11
2.58999994E+02
 21
6.13867425E+01
  0
LINE
  8
0
 62
7
 10
3.37999979E+02
 20
6.42734971E+01
 11
3.32999969E+02
 21
6.13867402E+01
  0
LINE
  8
0
 62
7
 10
3.32999971E+02
 20
6.13867416E+01
 11
3.32999971E+02
 21
5.56132431E+01
  0
LINE
  8
0
 62
7
 10
3.37999974E+02
 20
5.27264900E+01
 11
3.32999977E+02
 21
5.56132393E+01
  0
LINE
  8
0
 62
7
 10
3.42999979E+02
 20
5.56132432E+01
 11
3.37999969E+02
 21
5.27264863E+01
  0
LINE
  8
0
 62
7
 10
3.42999971E+02
 20
6.13867416E+01
 11
3.42999971E+02
 21
5.56132431E+01
  0
LINE
  8
0
 62
7
 10
3.37999977E+02
 20
6.42734932E+01
 11
3.42999974E+02
 21
6.13867439E+01
  0
CIRCLE
  8
0
 62
7
 10
2.53999994E+02
 20
1.42500000E+02
 40
8.00000000E+00
  0
CIRCLE
  8
0
 62
7
 10
2.53999994E+02
 20
1.42500000E+02
 40
8.69999981E+00
  0
CIRCLE
  8
0
 62
7
 10
2.53999994E+02
 20
5.84999924E+01
 40
8.00000000E+00
  0
CIRCLE
  8
0
 62
7
 10
2.53999994E+02
 20
5.84999924E+01
 40
8.69999981E+00
  0
CIRCLE
  8
0
 62
7
 10
3.37999971E+02
 20
5.84999695E+01
 40
8.00000000E+00
  0
CIRCLE
  8
0
 62
7
 10
3.37999971E+02
 20
5.84999695E+01
 40
8.69999981E+00
  0
ARC
  8
0
 62
7
 10
2.61103472E+02
 20
1.32214539E+02
 40
1.00000000E+00
 50
4.50000423E+01
 51
1.24630380E+02
  0
ARC
  8
0
 62
7
 10
2.64285433E+02
 20
1.35396561E+02
 40
1.00000000E+00
 50
1.45369621E+02
 51
2.25000010E+02
  0
ARC
  8
0
 62
7
 10
2.76093142E+02
 20
1.17224892E+02
 40
1.00000000E+00
 50
3.19964774E+02
 51
4.50000423E+01
  0
ARC
  8
0
 62
7
 10
2.79275164E+02
 20
1.20406906E+02
 40
1.00000000E+00
 50
2.25000013E+02
 51
3.10035571E+02
  0
ARC
  8
0
 62
7
 10
2.93749956E+02
 20
1.51900009E+02
 40
1.00000000E+00
 50
3.59721781E-05
 51
9.00000162E+01
  0
ARC
  8
0
 62
7
 10
2.93749956E+02
 20
1.26402573E+02
 40
1.00000000E+00
 50
2.74964207E+02
 51
3.59721781E-05
  0
ARC
  8
0
 62
7
 10
2.70097460E+02
 20
1.02749992E+02
 40
1.00000000E+00
 50
2.70000045E+02
 51
3.55035851E+02
  0
ARC
  8
0
 62
7
 10
2.44599970E+02
 20
1.02749992E+02
 40
1.00000000E+00
 50
1.79999991E+02
 51
2.70000028E+02
  0
ARC
  8
0
 62
7
 10
2.64285433E+02
 20
6.56034927E+01
 40
1.00000000E+00
 50
1.35000041E+02
 51
2.14630376E+02
  0
ARC
  8
0
 62
7
 10
2.61103472E+02
 20
6.87854614E+01
 40
1.00000000E+00
 50
2.35369606E+02
 51
3.14999999E+02
  0
ARC
  8
0
 62
7
 10
2.79275057E+02
 20
8.05931168E+01
 40
1.00000000E+00
 50
4.99647701E+01
 51
1.35000041E+02
  0
ARC
  8
0
 62
7
 10
2.76093096E+02
 20
8.37751465E+01
 40
1.00000000E+00
 50
3.15000019E+02
 51
4.00355739E+01
  0
ARC
  8
0
 62
7
 10
2.44599970E+02
 20
9.82500000E+01
 40
1.00000000E+00
 50
9.00000300E+01
 51
1.80000019E+02
  0
ARC
  8
0
 62
7
 10
2.70097460E+02
 20
9.82500000E+01
 40
1.00000000E+00
 50
4.96420369E+00
 51
9.00000300E+01
  0
ARC
  8
0
 62
7
 10
2.93749956E+02
 20
7.45974579E+01
 40
1.00000000E+00
 50
4.96325564E-05
 51
8.50358549E+01
  0
ARC
  8
0
 62
7
 10
2.93749956E+02
 20
4.90999947E+01
 40
1.00000000E+00
 50
2.69999998E+02
 51
4.96325564E-05
  0
ARC
  8
0
 62
7
 10
3.30896456E+02
 20
6.87854462E+01
 40
1.00000000E+00
 50
2.25000027E+02
 51
3.04630351E+02
  0
ARC
  8
0
 62
7
 10
3.27714479E+02
 20
6.56034164E+01
 40
1.00000000E+00
 50
3.25369626E+02
 51
4.50000149E+01
  0
ARC
  8
0
 62
7
 10
3.15906832E+02
 20
8.37750854E+01
 40
1.00000000E+00
 50
1.39964769E+02
 51
2.25000037E+02
  0
ARC
  8
0
 62
7
 10
3.12724855E+02
 20
8.05930939E+01
 40
1.00000000E+00
 50
4.50000149E+01
 51
1.30035587E+02
  0
ARC
  8
0
 62
7
 10
2.98249971E+02
 20
4.90999947E+01
 40
1.00000000E+00
 50
1.80000022E+02
 51
2.70000011E+02
  0
ARC
  8
0
 62
7
 10
2.98249971E+02
 20
7.45974579E+01
 40
1.00000000E+00
 50
9.49641976E+01
 51
1.80000032E+02
  0
ARC
  8
0
 62
7
 10
3.21902514E+02
 20
9.82500000E+01
 40
1.00000000E+00
 50
9.00000437E+01
 51
1.75035851E+02
  0
ARC
  8
0
 62
7
 10
3.47399996E+02
 20
9.82500000E+01
 40
1.00000000E+00
 50
8.65142224E-06
 51
9.00000437E+01
  0
ARC
  8
0
 62
7
 10
2.45000002E+02
 20
1.51500000E+02
 40
4.40000010E+00
 50
9.00000162E+01
 51
1.80000005E+02
  0
ARC
  8
0
 62
7
 10
2.53999994E+02
 20
5.84999924E+01
 40
1.15000000E+01
 50
3.41325588E+02
 51
1.08675064E+02
  0
ARC
  8
0
 62
7
 10
3.37999971E+02
 20
5.84999924E+01
 40
1.15000000E+01
 50
7.22986043E+01
 51
1.98674999E+02
  0
ARC
  8
0
 62
7
 10
3.46999971E+02
 20
4.95000038E+01
 40
4.40000010E+00
 50
2.70000052E+02
 51
3.59721781E-05
  0
ARC
  8
0
 62
7
 10
2.45000002E+02
 20
4.94999657E+01
 40
4.40000010E+00
 50
1.79999991E+02
 51
2.70000028E+02
  0
ARC
  8
0
 62
7
 10
2.45000002E+02
 20
1.51500000E+02
 40
5.00000000E+00
 50
9.00000162E+01
 51
1.80000005E+02
  0
CIRCLE
  8
0
 62
2
 10
3.37999971E+02
 20
5.84999924E+01
 40
5.00000000E+00
  0
ARC
  8
0
 62
7
 10
3.46999971E+02
 20
4.95000038E+01
 40
5.00000000E+00
 50
2.70000052E+02
 51
3.59721781E-05
  0
CIRCLE
  8
0
 62
2
 10
3.37999971E+02
 20
1.42500000E+02
 40
5.00000000E+00
  0
ARC
  8
0
 62
7
 10
2.45000002E+02
 20
4.95000038E+01
 40
5.00000000E+00
 50
1.79999991E+02
 51
2.70000028E+02
  0
ARC
  8
0
 62
7
 10
2.44599970E+02
 20
1.25516159E+02
 40
1.00000000E+00
 50
8.54104432E+01
 51
1.80000005E+02
  0
ARC
  8
0
 62
7
 10
2.70983995E+02
 20
1.51900009E+02
 40
1.00000000E+00
 50
9.00000162E+01
 51
1.84587802E+02
  0
ARC
  8
0
 62
7
 10
3.46999865E+02
 20
7.04998627E+01
 40
4.19999981E+00
 50
8.55868260E+01
 51
1.81010245E+02
  0
ARC
  8
0
 62
7
 10
3.25999910E+02
 20
4.95000038E+01
 40
4.00000000E+00
 50
8.81873319E+01
 51
1.84588444E+02
  0
ARC
  8
0
 62
7
 10
2.65999865E+02
 20
4.95001183E+01
 40
4.00000000E+00
 50
3.55409848E+02
 51
9.18104672E+01
  0
ARC
  8
0
 62
7
 10
2.45000002E+02
 20
7.05000610E+01
 40
4.00000000E+00
 50
3.58186935E+02
 51
9.45886668E+01
  0
ARC
  8
0
 62
7
 10
3.47399996E+02
 20
7.56844635E+01
 40
1.00000000E+00
 50
2.65585872E+02
 51
1.86693353E-05
  0
ARC
  8
0
 62
7
 10
3.21015871E+02
 20
4.91000061E+01
 40
1.00000000E+00
 50
2.69999998E+02
 51
4.58865257E+00
  0
ARC
  8
0
 62
7
 10
2.70983843E+02
 20
4.90999680E+01
 40
1.00000000E+00
 50
1.75409449E+02
 51
2.69999974E+02
  0
ARC
  8
0
 62
7
 10
2.44599970E+02
 20
7.54840393E+01
 40
1.00000000E+00
 50
1.79999991E+02
 51
2.74587812E+02
  0
ARC
  8
0
 62
7
 10
2.65841829E+02
 20
1.46502518E+02
 40
1.00000000E+00
 50
8.81864507E+01
 51
1.98675204E+02
  0
ARC
  8
0
 62
7
 10
2.49997614E+02
 20
1.30658096E+02
 40
1.00000000E+00
 50
7.13256097E+01
 51
1.81810060E+02
  0
ARC
  8
0
 62
7
 10
3.41800631E+02
 20
7.04081802E+01
 40
1.00000000E+00
 50
2.52299371E+02
 51
1.01068540E+00
  0
ARC
  8
0
 62
7
 10
3.26158083E+02
 20
5.44974976E+01
 40
1.00000000E+00
 50
2.68186500E+02
 51
1.86751801E+01
  0
ARC
  8
0
 62
7
 10
2.65841936E+02
 20
5.44976120E+01
 40
1.00000000E+00
 50
1.61325626E+02
 51
2.71810056E+02
  0
ARC
  8
0
 62
7
 10
2.49997507E+02
 20
7.03418579E+01
 40
1.00000000E+00
 50
1.78187368E+02
 51
2.88674667E+02
  0
ARC
  8
0
 62
7
 10
2.53999994E+02
 20
1.42500000E+02
 40
1.15000000E+01
 50
2.51325577E+02
 51
1.86749751E+01
  0
ARC
  8
0
 62
7
 10
2.66000063E+02
 20
1.51500000E+02
 40
4.00000000E+00
 50
2.68187375E+02
 51
4.58865257E+00
  0
ARC
  8
0
 62
7
 10
2.45000101E+02
 20
1.30500107E+02
 40
4.00000000E+00
 50
2.65409591E+02
 51
1.81044602E+00
  0
CIRCLE
  8
0
 62
7
 10
3.37999971E+02
 20
1.42499985E+02
 40
8.00000000E+00
  0
CIRCLE
  8
0
 62
7
 10
3.37999971E+02
 20
1.42499985E+02
 40
8.69999981E+00
  0
ARC
  8
0
 62
7
 10
3.27714479E+02
 20
1.35396500E+02
 40
1.00000000E+00
 50
3.15000047E+02
 51
3.46303671E+01
  0
ARC
  8
0
 62
7
 10
3.30896547E+02
 20
1.32214508E+02
 40
1.00000000E+00
 50
5.53696217E+01
 51
1.35000014E+02
  0
ARC
  8
0
 62
7
 10
3.47399996E+02
 20
1.02749969E+02
 40
1.00000000E+00
 50
2.70000052E+02
 51
3.59721781E-05
  0
ARC
  8
0
 62
7
 10
2.98249971E+02
 20
1.51900009E+02
 40
1.00000000E+00
 50
9.00000025E+01
 51
1.80000046E+02
  0
ARC
  8
0
 62
7
 10
3.21902514E+02
 20
1.02749992E+02
 40
1.00000000E+00
 50
1.84964190E+02
 51
2.70000038E+02
  0
ARC
  8
0
 62
7
 10
3.15906923E+02
 20
1.17224861E+02
 40
1.00000000E+00
 50
1.35000014E+02
 51
2.20035582E+02
  0
ARC
  8
0
 62
7
 10
3.12724855E+02
 20
1.20406876E+02
 40
1.00000000E+00
 50
2.29964741E+02
 51
3.15000026E+02
  0
ARC
  8
0
 62
7
 10
2.98249971E+02
 20
1.26402512E+02
 40
1.00000000E+00
 50
1.80000036E+02
 51
2.65035857E+02
  0
ARC
  8
0
 62
7
 10
3.37999971E+02
 20
1.42500000E+02
 40
1.15000000E+01
 50
1.61325558E+02
 51
2.88675076E+02
  0
ARC
  8
0
 62
7
 10
3.46999971E+02
 20
1.51500015E+02
 40
4.40000010E+00
 50
3.59721781E-05
 51
9.00000162E+01
  0
ARC
  8
0
 62
7
 10
3.46999971E+02
 20
1.51500000E+02
 40
5.00000000E+00
 50
3.59721781E-05
 51
9.00000162E+01
  0
ARC
  8
0
 62
7
 10
3.46999971E+02
 20
1.30499939E+02
 40
4.00000000E+00
 50
1.78186904E+02
 51
2.74588685E+02
  0
ARC
  8
0
 62
7
 10
3.26000109E+02
 20
1.51499863E+02
 40
4.00000000E+00
 50
1.75409585E+02
 51
2.71810493E+02
  0
ARC
  8
0
 62
7
 10
3.47399996E+02
 20
1.25515961E+02
 40
1.00000000E+00
 50
3.59721781E-05
 51
9.45895342E+01
  0
ARC
  8
0
 62
7
 10
3.21016176E+02
 20
1.51900024E+02
 40
1.00000000E+00
 50
3.55410354E+02
 51
9.00000162E+01
  0
ARC
  8
0
 62
7
 10
3.42002459E+02
 20
1.30658142E+02
 40
1.00000000E+00
 50
3.58187399E+02
 51
1.08674648E+02
  0
ARC
  8
0
 62
7
 10
3.26158083E+02
 20
1.46502380E+02
 40
1.00000000E+00
 50
3.41325670E+02
 51
9.18100369E+01
  0
CIRCLE
  8
0
 62
7
 10
2.95999910E+02
 20
1.00500061E+02
 40
2.50000153E+01
  0
CIRCLE
  8
0
 62
2
 10
2.53999994E+02
 20
1.42500000E+02
 40
5.00000000E+00
  0
CIRCLE
  8
0
 62
2
 10
2.53999994E+02
 20
5.84999924E+01
 40
5.00000000E+00
  0
CIRCLE
  8
0
 62
7
 10
3.37999971E+02
 20
5.84999924E+01
 40
4.17999983E+00
  0
CIRCLE
  8
0
 62
7
 10
3.37999971E+02
 20
1.42500000E+02
 40
4.17999983E+00
  0
CIRCLE
  8
0
 62
7
 10
2.53999994E+02
 20
1.42500000E+02
 40
4.17999983E+00
  0
CIRCLE
  8
0
 62
7
 10
2.53999994E+02
 20
5.84999924E+01
 40
4.17999983E+00
  0
LINE
  8
0
  6
PHANTOM
 10
-2.95000000E+01
 20
1.88056721E+02
 11
-2.95000000E+01
 21
3.53816712E+02
  0
LINE
  8
0
 62
7
 10
-1.73499983E+02
 20
2.67500000E+02
 11
-1.61999983E+02
 21
2.67500000E+02
  0
LINE
  8
0
 62
2
 10
-1.73499983E+02
 20
2.68320007E+02
 11
-1.61999983E+02
 21
2.68320007E+02
  0
LINE
  8
0
 62
7
 10
-1.73499983E+02
 20
2.93499969E+02
 11
-1.61999983E+02
 21
2.93499969E+02
  0
LINE
  8
0
 62
2
 10
-1.73499983E+02
 20
2.92679962E+02
 11
-1.61999983E+02
 21
2.92679962E+02
  0
LINE
  8
0
 62
4
 10
-1.87499983E+02
 20
2.62500065E+02
 11
-1.73499983E+02
 21
2.62500065E+02
  0
ARC
  8
0
 62
4
 10
-1.61501952E+02
 20
2.71499924E+02
 40
2.59980309E+01
 50
1.59746143E+02
 51
2.00253857E+02
  0
ARC
  8
0
 62
4
 10
-1.99498014E+02
 20
2.71499924E+02
 40
2.59980309E+01
 50
3.39746143E+02
 51
2.02538569E+01
  0
LINE
  8
0
 62
4
 10
-1.85892473E+02
 20
2.80499928E+02
 11
-1.75107492E+02
 21
2.80499928E+02
  0
LINE
  8
0
 62
4
 10
-1.87499983E+02
 20
2.98499935E+02
 11
-1.73499983E+02
 21
2.98499935E+02
  0
LINE
  8
0
 62
4
 10
-1.87499983E+02
 20
2.98499935E+02
 11
-1.87499983E+02
 21
2.62500065E+02
  0
LINE
  8
0
 62
4
 10
-1.73499983E+02
 20
2.98499935E+02
 11
-1.73499983E+02
 21
2.62500065E+02
  0
ARC
  8
0
 62
4
 10
-1.61501952E+02
 20
2.89499931E+02
 40
2.59980309E+01
 50
1.59746143E+02
 51
2.00253857E+02
  0
ARC
  8
0
 62
4
 10
-1.99498014E+02
 20
2.89499931E+02
 40
2.59980309E+01
 50
3.39746143E+02
 51
2.02538569E+01
  0
LINE
  8
0
 62
4
 10
-1.50000019E+01
 20
2.55715778E+02
 11
-2.41339765E+01
 21
2.55715778E+02
  0
LINE
  8
0
 62
4
 10
-1.50000019E+01
 20
2.52715778E+02
 11
-2.58660273E+01
 21
2.52715778E+02
  0
LINE
  8
0
 62
6
 10
-2.32679511E+01
 20
2.57215778E+02
 11
-2.67320527E+01
 21
2.51215778E+02
  0
LINE
  8
0
  6
CENTER
 62
6
 10
1.99999981E+01
 20
2.54215778E+02
 11
-3.00000019E+01
 21
2.54215778E+02
  0
LINE
  8
0
 62
4
 10
-4.39999981E+01
 20
3.05284237E+02
 11
-3.48660235E+01
 21
3.05284237E+02
  0
LINE
  8
0
 62
4
 10
-4.39999981E+01
 20
3.08284237E+02
 11
-3.31339727E+01
 21
3.08284237E+02
  0
LINE
  8
0
 62
6
 10
-3.57320489E+01
 20
3.03784237E+02
 11
-3.22679473E+01
 21
3.09784237E+02
  0
LINE
  8
0
  6
CENTER
 62
6
 10
-7.89999981E+01
 20
3.06784237E+02
 11
-2.89999981E+01
 21
3.06784237E+02
  0
LINE
  8
0
 62
7
 10
-1.92648695E+00
 20
2.26999985E+02
 11
2.29999981E+01
 21
2.26999985E+02
  0
LINE
  8
0
 62
7
 10
-9.92648695E+00
 20
2.26999985E+02
 11
-5.07351693E+00
 21
2.26999985E+02
  0
LINE
  8
0
 62
7
 10
-1.50000019E+01
 20
2.33999954E+02
 11
-8.79999981E+01
 21
2.33999954E+02
  0
LINE
  8
0
 62
7
 10
-1.50000019E+01
 20
2.43000000E+02
 11
-8.79999981E+01
 21
2.43000000E+02
  0
LINE
  8
0
 62
7
 10
-4.59264253E+01
 20
3.34000000E+02
 11
2.29999981E+01
 21
3.34000000E+02
  0
LINE
  8
0
 62
7
 10
-5.39264253E+01
 20
3.34000000E+02
 11
-4.90735708E+01
 21
3.34000000E+02
  0
LINE
  8
0
 62
7
 10
-5.89999981E+01
 20
3.27000031E+02
 11
-8.79999981E+01
 21
3.27000031E+02
  0
LINE
  8
0
 62
7
 10
-7.39999981E+01
 20
3.18000000E+02
 11
-8.79999981E+01
 21
3.18000000E+02
  0
LINE
  8
0
 62
6
 10
-2.00000187E+00
 20
2.26963346E+02
 11
-2.00000187E+00
 21
2.28017928E+02
  0
LINE
  8
0
 62
6
 10
-5.00000187E+00
 20
2.26963346E+02
 11
-5.00000187E+00
 21
2.28017928E+02
  0
LINE
  8
0
 62
4
 10
-1.50000187E+00
 20
2.27511934E+02
 11
-1.50000187E+00
 21
2.28017928E+02
  0
LINE
  8
0
 62
4
 10
-5.50000187E+00
 20
2.27511934E+02
 11
-5.50000187E+00
 21
2.28017928E+02
  0
LINE
  8
0
 62
4
 10
-1.90734862E-06
 20
2.28017928E+02
 11
-1.90734862E-06
 21
2.41131565E+02
  0
LINE
  8
0
 62
4
 10
-1.50000019E+01
 20
2.28017928E+02
 11
-1.50000019E+01
 21
2.57139258E+02
  0
LINE
  8
0
 62
4
 10
1.49999981E+01
 20
2.41131565E+02
 11
1.49999981E+01
 21
2.54816976E+02
  0
LINE
  8
0
  6
CENTER
 62
6
 10
-1.15000019E+01
 20
2.23234406E+02
 11
-1.15000019E+01
 21
2.33499985E+02
  0
LINE
  8
0
  6
CENTER
 62
6
 10
-3.50000194E+00
 20
2.23234406E+02
 11
-3.50000194E+00
 21
2.33499985E+02
  0
LINE
  8
0
  6
CENTER
 62
6
 10
7.49999809E+00
 20
2.49870285E+02
 11
7.49999809E+00
 21
2.54870285E+02
  0
LINE
  8
0
 62
4
 10
-1.00000019E+01
 20
2.55264829E+02
 11
-1.00000019E+01
 21
2.56865087E+02
  0
LINE
  8
0
 62
4
 10
1.49999981E+01
 20
2.47999985E+02
 11
1.49999981E+01
 21
2.47599985E+02
  0
LINE
  8
0
 62
4
 10
-8.50000191E+00
 20
2.55656827E+02
 11
-8.50000191E+00
 21
2.56865087E+02
  0
LINE
  8
0
 62
4
 10
1.64999981E+01
 20
2.52714369E+02
 11
1.64999981E+01
 21
2.55714711E+02
  0
POLYLINE
  8
0
 62
4
 66
1
  0
VERTEX
  8
0
 62
4
 10
-5.50000200E+00
 20
2.27511934E+02
  0
VERTEX
  8
0
 62
4
 10
-5.49195059E+00
 20
2.27437588E+02
  0
VERTEX
  8
0
 62
4
 10
-5.46786118E+00
 20
2.27363841E+02
  0
VERTEX
  8
0
 62
4
 10
-5.42792772E+00
 20
2.27291287E+02
  0
VERTEX
  8
0
 62
4
 10
-5.37247174E+00
 20
2.27220508E+02
  0
VERTEX
  8
0
 62
4
 10
-5.30193973E+00
 20
2.27152077E+02
  0
VERTEX
  8
0
 62
4
 10
-5.21689958E+00
 20
2.27086542E+02
  0
VERTEX
  8
0
 62
4
 10
-5.11803598E+00
 20
2.27024433E+02
  0
VERTEX
  8
0
 62
4
 10
-5.00614492E+00
 20
2.26966249E+02
  0
VERTEX
  8
0
 62
4
 10
-4.88212728E+00
 20
2.26912458E+02
  0
VERTEX
  8
0
 62
4
 10
-4.74698158E+00
 20
2.26863494E+02
  0
VERTEX
  8
0
 62
4
 10
-4.60179594E+00
 20
2.26819750E+02
  0
VERTEX
  8
0
 62
4
 10
-4.44773930E+00
 20
2.26781580E+02
  0
VERTEX
  8
0
 62
4
 10
-4.28605203E+00
 20
2.26749290E+02
  0
VERTEX
  8
0
 62
4
 10
-4.11803595E+00
 20
2.26723141E+02
  0
VERTEX
  8
0
 62
4
 10
-3.94504383E+00
 20
2.26703342E+02
  0
VERTEX
  8
0
 62
4
 10
-3.76846848E+00
 20
2.26690054E+02
  0
VERTEX
  8
0
 62
4
 10
-3.58973161E+00
 20
2.26683383E+02
  0
VERTEX
  8
0
 62
4
 10
-3.41027228E+00
 20
2.26683383E+02
  0
VERTEX
  8
0
 62
4
 10
-3.23153541E+00
 20
2.26690054E+02
  0
VERTEX
  8
0
 62
4
 10
-3.05496006E+00
 20
2.26703342E+02
  0
VERTEX
  8
0
 62
4
 10
-2.88196794E+00
 20
2.26723141E+02
  0
VERTEX
  8
0
 62
4
 10
-2.71395186E+00
 20
2.26749290E+02
  0
VERTEX
  8
0
 62
4
 10
-2.55226459E+00
 20
2.26781580E+02
  0
VERTEX
  8
0
 62
4
 10
-2.39820795E+00
 20
2.26819750E+02
  0
VERTEX
  8
0
 62
4
 10
-2.25302230E+00
 20
2.26863494E+02
  0
VERTEX
  8
0
 62
4
 10
-2.11787661E+00
 20
2.26912458E+02
  0
VERTEX
  8
0
 62
4
 10
-1.99385897E+00
 20
2.26966249E+02
  0
VERTEX
  8
0
 62
4
 10
-1.88196791E+00
 20
2.27024433E+02
  0
VERTEX
  8
0
 62
4
 10
-1.78310430E+00
 20
2.27086542E+02
  0
VERTEX
  8
0
 62
4
 10
-1.69806415E+00
 20
2.27152077E+02
  0
VERTEX
  8
0
 62
4
 10
-1.62753215E+00
 20
2.27220508E+02
  0
VERTEX
  8
0
 62
4
 10
-1.57207616E+00
 20
2.27291287E+02
  0
VERTEX
  8
0
 62
4
 10
-1.53214271E+00
 20
2.27363841E+02
  0
VERTEX
  8
0
 62
4
 10
-1.50805329E+00
 20
2.27437588E+02
  0
VERTEX
  8
0
 62
4
 10
-1.50000188E+00
 20
2.27511934E+02
  0
SEQEND
  8
0
  0
LINE
  8
0
 62
6
 10
-1.30000019E+01
 20
2.26963346E+02
 11
-1.30000019E+01
 21
2.28017928E+02
  0
LINE
  8
0
 62
4
 10
-1.35000019E+01
 20
2.27511934E+02
 11
-1.35000019E+01
 21
2.28017928E+02
  0
POLYLINE
  8
0
 62
4
 66
1
  0
VERTEX
  8
0
 62
4
 10
-1.35000020E+01
 20
2.27511934E+02
  0
VERTEX
  8
0
 62
4
 10
-1.34919505E+01
 20
2.27437588E+02
  0
VERTEX
  8
0
 62
4
 10
-1.34678611E+01
 20
2.27363841E+02
  0
VERTEX
  8
0
 62
4
 10
-1.34279277E+01
 20
2.27291287E+02
  0
VERTEX
  8
0
 62
4
 10
-1.33724717E+01
 20
2.27220508E+02
  0
VERTEX
  8
0
 62
4
 10
-1.33019397E+01
 20
2.27152077E+02
  0
VERTEX
  8
0
 62
4
 10
-1.32168995E+01
 20
2.27086542E+02
  0
VERTEX
  8
0
 62
4
 10
-1.31180359E+01
 20
2.27024433E+02
  0
VERTEX
  8
0
 62
4
 10
-1.30061449E+01
 20
2.26966249E+02
  0
VERTEX
  8
0
 62
4
 10
-1.28821272E+01
 20
2.26912458E+02
  0
VERTEX
  8
0
 62
4
 10
-1.27469815E+01
 20
2.26863494E+02
  0
VERTEX
  8
0
 62
4
 10
-1.26017959E+01
 20
2.26819750E+02
  0
VERTEX
  8
0
 62
4
 10
-1.24477393E+01
 20
2.26781580E+02
  0
VERTEX
  8
0
 62
4
 10
-1.22860520E+01
 20
2.26749290E+02
  0
VERTEX
  8
0
 62
4
 10
-1.21180359E+01
 20
2.26723141E+02
  0
VERTEX
  8
0
 62
4
 10
-1.19450438E+01
 20
2.26703342E+02
  0
VERTEX
  8
0
 62
4
 10
-1.17684684E+01
 20
2.26690054E+02
  0
VERTEX
  8
0
 62
4
 10
-1.15897316E+01
 20
2.26683383E+02
  0
VERTEX
  8
0
 62
4
 10
-1.14102722E+01
 20
2.26683383E+02
  0
VERTEX
  8
0
 62
4
 10
-1.12315354E+01
 20
2.26690054E+02
  0
VERTEX
  8
0
 62
4
 10
-1.10549600E+01
 20
2.26703342E+02
  0
VERTEX
  8
0
 62
4
 10
-1.08819679E+01
 20
2.26723141E+02
  0
VERTEX
  8
0
 62
4
 10
-1.07139518E+01
 20
2.26749290E+02
  0
VERTEX
  8
0
 62
4
 10
-1.05522646E+01
 20
2.26781580E+02
  0
VERTEX
  8
0
 62
4
 10
-1.03982079E+01
 20
2.26819750E+02
  0
VERTEX
  8
0
 62
4
 10
-1.02530223E+01
 20
2.26863494E+02
  0
VERTEX
  8
0
 62
4
 10
-1.01178766E+01
 20
2.26912458E+02
  0
VERTEX
  8
0
 62
4
 10
-9.99385893E+00
 20
2.26966249E+02
  0
VERTEX
  8
0
 62
4
 10
-9.88196787E+00
 20
2.27024433E+02
  0
VERTEX
  8
0
 62
4
 10
-9.78310426E+00
 20
2.27086542E+02
  0
VERTEX
  8
0
 62
4
 10
-9.69806411E+00
 20
2.27152077E+02
  0
VERTEX
  8
0
 62
4
 10
-9.62753211E+00
 20
2.27220508E+02
  0
VERTEX
  8
0
 62
4
 10
-9.57207612E+00
 20
2.27291287E+02
  0
VERTEX
  8
0
 62
4
 10
-9.53214267E+00
 20
2.27363841E+02
  0
VERTEX
  8
0
 62
4
 10
-9.50805325E+00
 20
2.27437588E+02
  0
VERTEX
  8
0
 62
4
 10
-9.50000184E+00
 20
2.27511934E+02
  0
SEQEND
  8
0
  0
LINE
  8
0
 62
6
 10
-1.00000019E+01
 20
2.26963346E+02
 11
-1.00000019E+01
 21
2.28017928E+02
  0
LINE
  8
0
 62
4
 10
-9.50000187E+00
 20
2.27511934E+02
 11
-9.50000187E+00
 21
2.28017928E+02
  0
LINE
  8
0
 62
4
 10
-1.88946358E-06
 20
2.28017928E+02
 11
-1.50000019E+01
 21
2.28017928E+02
  0
LINE
  8
0
 62
4
 10
-1.88946358E-06
 20
2.34761836E+02
 11
-1.50000019E+01
 21
2.34761836E+02
  0
LINE
  8
0
 62
4
 10
1.49999981E+01
 20
2.41131565E+02
 11
-1.50000019E+01
 21
2.41131565E+02
  0
LINE
  8
0
 62
4
 10
1.49999981E+01
 20
2.50504166E+02
 11
-1.50000019E+01
 21
2.50504166E+02
  0
LINE
  8
0
 62
4
 10
1.49999981E+01
 20
2.57139258E+02
 11
2.51092849E+00
 21
2.57139258E+02
  0
LINE
  8
0
 62
4
 10
1.49999981E+01
 20
2.51566469E+02
 11
1.64999981E+01
 21
2.52714369E+02
  0
LINE
  8
0
 62
4
 10
1.49999981E+01
 20
2.55206314E+02
 11
4.14999809E+00
 21
2.55206314E+02
  0
LINE
  8
0
 62
4
 10
1.64999981E+01
 20
2.54775431E+02
 11
1.49999981E+01
 21
2.55206314E+02
  0
LINE
  8
0
 62
4
 10
1.49999981E+01
 20
2.56865087E+02
 11
3.19948890E+00
 21
2.56865087E+02
  0
LINE
  8
0
 62
4
 10
1.64999981E+01
 20
2.55714711E+02
 11
1.49999981E+01
 21
2.56865087E+02
  0
LINE
  8
0
 62
4
 10
1.49999981E+01
 20
2.54816976E+02
 11
4.14999809E+00
 21
2.54816976E+02
  0
LINE
  8
0
 62
4
 10
1.49999981E+01
 20
2.54816976E+02
 11
1.49999981E+01
 21
2.56865087E+02
  0
LINE
  8
0
 62
4
 10
1.49999981E+01
 20
2.56865087E+02
 11
1.49999981E+01
 21
2.57139258E+02
  0
LINE
  8
0
 62
4
 10
-3.70000191E+00
 20
2.52370285E+02
 11
-3.70000191E+00
 21
2.53280247E+02
  0
LINE
  8
0
 62
4
 10
-1.13000019E+01
 20
2.53280247E+02
 11
-1.13000019E+01
 21
2.52370285E+02
  0
LINE
  8
0
 62
4
 10
-4.10000191E+00
 20
2.53280247E+02
 11
-4.10000191E+00
 21
2.54309233E+02
  0
LINE
  8
0
 62
4
 10
-1.09000019E+01
 20
2.53280247E+02
 11
-1.09000019E+01
 21
2.54309233E+02
  0
LINE
  8
0
 62
4
 10
-4.15000191E+00
 20
2.54550148E+02
 11
-4.15000191E+00
 21
2.55769029E+02
  0
LINE
  8
0
 62
4
 10
4.14999809E+00
 20
2.55769029E+02
 11
4.14999809E+00
 21
2.54167497E+02
  0
POLYLINE
  8
0
 62
4
 66
1
  0
VERTEX
  8
0
 62
4
 10
-3.70000190E+00
 20
2.53191433E+02
  0
VERTEX
  8
0
 62
4
 10
-3.55010124E+00
 20
2.53057416E+02
  0
VERTEX
  8
0
 62
4
 10
-3.37204167E+00
 20
2.52929461E+02
  0
VERTEX
  8
0
 62
4
 10
-3.16723556E+00
 20
2.52808584E+02
  0
VERTEX
  8
0
 62
4
 10
-2.93730739E+00
 20
2.52695743E+02
  0
VERTEX
  8
0
 62
4
 10
-2.68408092E+00
 20
2.52591832E+02
  0
VERTEX
  8
0
 62
4
 10
-2.40956471E+00
 20
2.52497677E+02
  0
VERTEX
  8
0
 62
4
 10
-2.11593618E+00
 20
2.52414024E+02
  0
VERTEX
  8
0
 62
4
 10
-1.80552435E+00
 20
2.52341537E+02
  0
VERTEX
  8
0
 62
4
 10
-1.48079137E+00
 20
2.52280790E+02
  0
VERTEX
  8
0
 62
4
 10
-1.14431297E+00
 20
2.52232265E+02
  0
VERTEX
  8
0
 62
4
 10
-7.98758056E-01
 20
2.52196348E+02
  0
VERTEX
  8
0
 62
4
 10
-4.46867520E-01
 20
2.52173323E+02
  0
VERTEX
  8
0
 62
4
 10
-9.14325067E-02
 20
2.52163372E+02
  0
VERTEX
  8
0
 62
4
 10
2.64727721E-01
 20
2.52166576E+02
  0
VERTEX
  8
0
 62
4
 10
6.18788150E-01
 20
2.52182908E+02
  0
VERTEX
  8
0
 62
4
 10
9.67940422E-01
 20
2.52212238E+02
  0
VERTEX
  8
0
 62
4
 10
1.30941511E+00
 20
2.52254335E+02
  0
VERTEX
  8
0
 62
4
 10
1.64050368E+00
 20
2.52308863E+02
  0
VERTEX
  8
0
 62
4
 10
1.95858000E+00
 20
2.52375392E+02
  0
VERTEX
  8
0
 62
4
 10
2.26112111E+00
 20
2.52453393E+02
  0
VERTEX
  8
0
 62
4
 10
2.54572730E+00
 20
2.52542246E+02
  0
VERTEX
  8
0
 62
4
 10
2.81014113E+00
 20
2.52641249E+02
  0
VERTEX
  8
0
 62
4
 10
3.05226529E+00
 20
2.52749614E+02
  0
VERTEX
  8
0
 62
4
 10
3.27017929E+00
 20
2.52866484E+02
  0
VERTEX
  8
0
 62
4
 10
3.46215467E+00
 20
2.52990930E+02
  0
VERTEX
  8
0
 62
4
 10
3.62666871E+00
 20
2.53121966E+02
  0
VERTEX
  8
0
 62
4
 10
3.76241649E+00
 20
2.53258552E+02
  0
VERTEX
  8
0
 62
4
 10
3.86832130E+00
 20
2.53399605E+02
  0
VERTEX
  8
0
 62
4
 10
3.94354310E+00
 20
2.53544006E+02
  0
VERTEX
  8
0
 62
4
 10
3.98748525E+00
 20
2.53690610E+02
  0
SEQEND
  8
0
  0
POLYLINE
  8
0
 62
4
 66
1
  0
VERTEX
  8
0
 62
4
 10
-3.71037642E+00
 20
2.53396611E+02
  0
VERTEX
  8
0
 62
4
 10
-3.52994558E+00
 20
2.53262553E+02
  0
VERTEX
  8
0
 62
4
 10
-3.32142301E+00
 20
2.53135697E+02
  0
VERTEX
  8
0
 62
4
 10
-3.08646814E+00
 20
2.53017052E+02
  0
VERTEX
  8
0
 62
4
 10
-2.82695077E+00
 20
2.52907562E+02
  0
VERTEX
  8
0
 62
4
 10
-2.54493619E+00
 20
2.52808099E+02
  0
VERTEX
  8
0
 62
4
 10
-2.24266870E+00
 20
2.52719455E+02
  0
VERTEX
  8
0
 62
4
 10
-1.92255377E+00
 20
2.52642334E+02
  0
VERTEX
  8
0
 62
4
 10
-1.58713893E+00
 20
2.52577350E+02
  0
VERTEX
  8
0
 62
4
 10
-1.23909346E+00
 20
2.52525021E+02
  0
VERTEX
  8
0
 62
4
 10
-8.81187132E-01
 20
2.52485763E+02
  0
VERTEX
  8
0
 62
4
 10
-5.16268221E-01
 20
2.52459889E+02
  0
VERTEX
  8
0
 62
4
 10
-1.47240798E-01
 20
2.52447604E+02
  0
VERTEX
  8
0
 62
4
 10
2.22958371E-01
 20
2.52449006E+02
  0
VERTEX
  8
0
 62
4
 10
5.91383194E-01
 20
2.52464084E+02
  0
VERTEX
  8
0
 62
4
 10
9.55101699E-01
 20
2.52492718E+02
  0
VERTEX
  8
0
 62
4
 10
1.31121937E+00
 20
2.52534680E+02
  0
VERTEX
  8
0
 62
4
 10
1.65690217E+00
 20
2.52589636E+02
  0
VERTEX
  8
0
 62
4
 10
1.98939912E+00
 20
2.52657149E+02
  0
VERTEX
  8
0
 62
4
 10
2.30606416E+00
 20
2.52736682E+02
  0
VERTEX
  8
0
 62
4
 10
2.60437723E+00
 20
2.52827601E+02
  0
VERTEX
  8
0
 62
4
 10
2.88196432E+00
 20
2.52929183E+02
  0
VERTEX
  8
0
 62
4
 10
3.13661635E+00
 20
2.53040620E+02
  0
VERTEX
  8
0
 62
4
 10
3.36630678E+00
 20
2.53161025E+02
  0
VERTEX
  8
0
 62
4
 10
3.56920769E+00
 20
2.53289439E+02
  0
VERTEX
  8
0
 62
4
 10
3.74370437E+00
 20
2.53424841E+02
  0
VERTEX
  8
0
 62
4
 10
3.88840817E+00
 20
2.53566154E+02
  0
VERTEX
  8
0
 62
4
 10
4.00216750E+00
 20
2.53712251E+02
  0
VERTEX
  8
0
 62
4
 10
4.08407705E+00
 20
2.53861972E+02
  0
VERTEX
  8
0
 62
4
 10
4.13348498E+00
 20
2.54014124E+02
  0
VERTEX
  8
0
 62
4
 10
4.14999809E+00
 20
2.54167497E+02
  0
SEQEND
  8
0
  0
POLYLINE
  8
0
 62
4
 66
1
  0
VERTEX
  8
0
 62
4
 10
4.14999809E+00
 20
2.55769029E+02
  0
VERTEX
  8
0
 62
4
 10
4.13420609E+00
 20
2.55919022E+02
  0
VERTEX
  8
0
 62
4
 10
4.08695027E+00
 20
2.56067874E+02
  0
VERTEX
  8
0
 62
4
 10
4.00859027E+00
 20
2.56214451E+02
  0
VERTEX
  8
0
 62
4
 10
3.89972247E+00
 20
2.56357638E+02
  0
VERTEX
  8
0
 62
4
 10
3.76117541E+00
 20
2.56496345E+02
  0
VERTEX
  8
0
 62
4
 10
3.59400352E+00
 20
2.56629517E+02
  0
VERTEX
  8
0
 62
4
 10
3.39947908E+00
 20
2.56756141E+02
  0
VERTEX
  8
0
 62
4
 10
3.17908253E+00
 20
2.56875252E+02
  0
VERTEX
  8
0
 62
4
 10
2.93449123E+00
 20
2.56985943E+02
  0
VERTEX
  8
0
 62
4
 10
2.66756667E+00
 20
2.57087374E+02
  0
VERTEX
  8
0
 62
4
 10
2.38034030E+00
 20
2.57178771E+02
  0
VERTEX
  8
0
 62
4
 10
2.07499809E+00
 20
2.57259439E+02
  0
VERTEX
  8
0
 62
4
 10
1.75386388E+00
 20
2.57328764E+02
  0
VERTEX
  8
0
 62
4
 10
1.41938169E+00
 20
2.57386218E+02
  0
VERTEX
  8
0
 62
4
 10
1.07409713E+00
 20
2.57431365E+02
  0
VERTEX
  8
0
 62
4
 10
7.20638027E-01
 20
2.57463860E+02
  0
VERTEX
  8
0
 62
4
 10
3.61694422E-01
 20
2.57483457E+02
  0
VERTEX
  8
0
 62
4
 10
-1.91027480E-06
 20
2.57490006E+02
  0
VERTEX
  8
0
 62
4
 10
-3.61698243E-01
 20
2.57483457E+02
  0
VERTEX
  8
0
 62
4
 10
-7.20641848E-01
 20
2.57463860E+02
  0
VERTEX
  8
0
 62
4
 10
-1.07410095E+00
 20
2.57431365E+02
  0
VERTEX
  8
0
 62
4
 10
-1.41938551E+00
 20
2.57386218E+02
  0
VERTEX
  8
0
 62
4
 10
-1.75386770E+00
 20
2.57328764E+02
  0
VERTEX
  8
0
 62
4
 10
-2.07500191E+00
 20
2.57259439E+02
  0
VERTEX
  8
0
 62
4
 10
-2.38034412E+00
 20
2.57178771E+02
  0
VERTEX
  8
0
 62
4
 10
-2.66757049E+00
 20
2.57087374E+02
  0
VERTEX
  8
0
 62
4
 10
-2.93449505E+00
 20
2.56985943E+02
  0
VERTEX
  8
0
 62
4
 10
-3.17908635E+00
 20
2.56875252E+02
  0
VERTEX
  8
0
 62
4
 10
-3.39948289E+00
 20
2.56756141E+02
  0
VERTEX
  8
0
 62
4
 10
-3.59400734E+00
 20
2.56629517E+02
  0
VERTEX
  8
0
 62
4
 10
-3.76117923E+00
 20
2.56496345E+02
  0
VERTEX
  8
0
 62
4
 10
-3.89972629E+00
 20
2.56357638E+02
  0
VERTEX
  8
0
 62
4
 10
-4.00859409E+00
 20
2.56214451E+02
  0
VERTEX
  8
0
 62
4
 10
-4.08695408E+00
 20
2.56067874E+02
  0
VERTEX
  8
0
 62
4
 10
-4.13420990E+00
 20
2.55919022E+02
  0
VERTEX
  8
0
 62
4
 10
-4.15000191E+00
 20
2.55769029E+02
  0
VERTEX
  8
0
 62
4
 10
-4.13420990E+00
 20
2.55619036E+02
  0
VERTEX
  8
0
 62
4
 10
-4.08695408E+00
 20
2.55470184E+02
  0
VERTEX
  8
0
 62
4
 10
-4.00859408E+00
 20
2.55323607E+02
  0
VERTEX
  8
0
 62
4
 10
-3.89972628E+00
 20
2.55180420E+02
  0
VERTEX
  8
0
 62
4
 10
-3.76117922E+00
 20
2.55041713E+02
  0
VERTEX
  8
0
 62
4
 10
-3.59400733E+00
 20
2.54908541E+02
  0
VERTEX
  8
0
 62
4
 10
-3.39948289E+00
 20
2.54781917E+02
  0
VERTEX
  8
0
 62
4
 10
-3.17908634E+00
 20
2.54662806E+02
  0
VERTEX
  8
0
 62
4
 10
-2.93449504E+00
 20
2.54552115E+02
  0
VERTEX
  8
0
 62
4
 10
-2.66757048E+00
 20
2.54450684E+02
  0
VERTEX
  8
0
 62
4
 10
-2.38034411E+00
 20
2.54359287E+02
  0
VERTEX
  8
0
 62
4
 10
-2.07500190E+00
 20
2.54278619E+02
  0
VERTEX
  8
0
 62
4
 10
-1.75386769E+00
 20
2.54209294E+02
  0
VERTEX
  8
0
 62
4
 10
-1.41938549E+00
 20
2.54151840E+02
  0
VERTEX
  8
0
 62
4
 10
-1.07410094E+00
 20
2.54106693E+02
  0
VERTEX
  8
0
 62
4
 10
-7.20641836E-01
 20
2.54074198E+02
  0
VERTEX
  8
0
 62
4
 10
-3.61698231E-01
 20
2.54054601E+02
  0
VERTEX
  8
0
 62
4
 10
-1.89857008E-06
 20
2.54048052E+02
  0
VERTEX
  8
0
 62
4
 10
3.61694434E-01
 20
2.54054601E+02
  0
VERTEX
  8
0
 62
4
 10
7.20638039E-01
 20
2.54074198E+02
  0
VERTEX
  8
0
 62
4
 10
1.07409714E+00
 20
2.54106693E+02
  0
VERTEX
  8
0
 62
4
 10
1.41938170E+00
 20
2.54151840E+02
  0
VERTEX
  8
0
 62
4
 10
1.75386389E+00
 20
2.54209294E+02
  0
VERTEX
  8
0
 62
4
 10
2.07499810E+00
 20
2.54278619E+02
  0
VERTEX
  8
0
 62
4
 10
2.38034031E+00
 20
2.54359287E+02
  0
VERTEX
  8
0
 62
4
 10
2.66756668E+00
 20
2.54450684E+02
  0
VERTEX
  8
0
 62
4
 10
2.93449124E+00
 20
2.54552115E+02
  0
VERTEX
  8
0
 62
4
 10
3.17908254E+00
 20
2.54662806E+02
  0
VERTEX
  8
0
 62
4
 10
3.39947908E+00
 20
2.54781917E+02
  0
VERTEX
  8
0
 62
4
 10
3.59400352E+00
 20
2.54908541E+02
  0
VERTEX
  8
0
 62
4
 10
3.76117541E+00
 20
2.55041713E+02
  0
VERTEX
  8
0
 62
4
 10
3.89972247E+00
 20
2.55180420E+02
  0
VERTEX
  8
0
 62
4
 10
4.00859027E+00
 20
2.55323607E+02
  0
VERTEX
  8
0
 62
4
 10
4.08695027E+00
 20
2.55470184E+02
  0
VERTEX
  8
0
 62
4
 10
4.13420609E+00
 20
2.55619036E+02
  0
VERTEX
  8
0
 62
4
 10
4.14999809E+00
 20
2.55769029E+02
  0
SEQEND
  8
0
  0
ARC
  8
0
 62
4
 10
6.36959878E+00
 20
2.40984410E+02
 40
1.67245585E+01
 50
1.05971208E+02
 51
1.19114206E+02
  0
ARC
  8
0
 62
4
 10
-6.36960596E+00
 20
2.40984401E+02
 40
1.67245676E+01
 50
6.08857978E+01
 51
7.40287885E+01
  0
POLYLINE
  8
0
 62
4
 66
1
  0
VERTEX
  8
0
 62
4
 10
-1.13000019E+01
 20
2.52370285E+02
  0
VERTEX
  8
0
 62
4
 10
-1.12847042E+01
 20
2.52229028E+02
  0
VERTEX
  8
0
 62
4
 10
-1.12389343E+01
 20
2.52088909E+02
  0
VERTEX
  8
0
 62
4
 10
-1.11630608E+01
 20
2.51951055E+02
  0
VERTEX
  8
0
 62
4
 10
-1.10576944E+01
 20
2.51816576E+02
  0
VERTEX
  8
0
 62
4
 10
-1.09236836E+01
 20
2.51686556E+02
  0
VERTEX
  8
0
 62
4
 10
-1.07621073E+01
 20
2.51562041E+02
  0
VERTEX
  8
0
 62
4
 10
-1.05742665E+01
 20
2.51444033E+02
  0
VERTEX
  8
0
 62
4
 10
-1.03616735E+01
 20
2.51333483E+02
  0
VERTEX
  8
0
 62
4
 10
-1.01260400E+01
 20
2.51231280E+02
  0
VERTEX
  8
0
 62
4
 10
-9.86926317E+00
 20
2.51138248E+02
  0
VERTEX
  8
0
 62
4
 10
-9.59341045E+00
 20
2.51055136E+02
  0
VERTEX
  8
0
 62
4
 10
-9.30070284E+00
 20
2.50982612E+02
  0
VERTEX
  8
0
 62
4
 10
-8.99349705E+00
 20
2.50921262E+02
  0
VERTEX
  8
0
 62
4
 10
-8.67426651E+00
 20
2.50871578E+02
  0
VERTEX
  8
0
 62
4
 10
-8.34558148E+00
 20
2.50833960E+02
  0
VERTEX
  8
0
 62
4
 10
-8.01008834E+00
 20
2.50808712E+02
  0
VERTEX
  8
0
 62
4
 10
-7.67048829E+00
 20
2.50796037E+02
  0
VERTEX
  8
0
 62
4
 10
-7.32951558E+00
 20
2.50796037E+02
  0
VERTEX
  8
0
 62
4
 10
-6.98991552E+00
 20
2.50808712E+02
  0
VERTEX
  8
0
 62
4
 10
-6.65442238E+00
 20
2.50833960E+02
  0
VERTEX
  8
0
 62
4
 10
-6.32573735E+00
 20
2.50871577E+02
  0
VERTEX
  8
0
 62
4
 10
-6.00650681E+00
 20
2.50921262E+02
  0
VERTEX
  8
0
 62
4
 10
-5.69930101E+00
 20
2.50982612E+02
  0
VERTEX
  8
0
 62
4
 10
-5.40659340E+00
 20
2.51055136E+02
  0
VERTEX
  8
0
 62
4
 10
-5.13074068E+00
 20
2.51138248E+02
  0
VERTEX
  8
0
 62
4
 10
-4.87396386E+00
 20
2.51231280E+02
  0
VERTEX
  8
0
 62
4
 10
-4.63833036E+00
 20
2.51333483E+02
  0
VERTEX
  8
0
 62
4
 10
-4.42573735E+00
 20
2.51444033E+02
  0
VERTEX
  8
0
 62
4
 10
-4.23789651E+00
 20
2.51562041E+02
  0
VERTEX
  8
0
 62
4
 10
-4.07632022E+00
 20
2.51686556E+02
  0
VERTEX
  8
0
 62
4
 10
-3.94230941E+00
 20
2.51816576E+02
  0
VERTEX
  8
0
 62
4
 10
-3.83694305E+00
 20
2.51951055E+02
  0
VERTEX
  8
0
 62
4
 10
-3.76106948E+00
 20
2.52088909E+02
  0
VERTEX
  8
0
 62
4
 10
-3.71529960E+00
 20
2.52229028E+02
  0
VERTEX
  8
0
 62
4
 10
-3.70000191E+00
 20
2.52370285E+02
  0
SEQEND
  8
0
  0
POLYLINE
  8
0
 62
4
 66
1
  0
VERTEX
  8
0
 62
4
 10
-1.09000019E+01
 20
2.53984005E+02
  0
VERTEX
  8
0
 62
4
 10
-1.10365836E+01
 20
2.53856744E+02
  0
VERTEX
  8
0
 62
4
 10
-1.11455314E+01
 20
2.53724978E+02
  0
VERTEX
  8
0
 62
4
 10
-1.12259942E+01
 20
2.53589737E+02
  0
VERTEX
  8
0
 62
4
 10
-1.12773432E+01
 20
2.53452079E+02
  0
VERTEX
  8
0
 62
4
 10
-1.12991772E+01
 20
2.53313077E+02
  0
VERTEX
  8
0
 62
4
 10
-1.12913255E+01
 20
2.53173819E+02
  0
VERTEX
  8
0
 62
4
 10
-1.12538495E+01
 20
2.53035393E+02
  0
VERTEX
  8
0
 62
4
 10
-1.11870421E+01
 20
2.52898879E+02
  0
VERTEX
  8
0
 62
4
 10
-1.10914253E+01
 20
2.52765346E+02
  0
VERTEX
  8
0
 62
4
 10
-1.09677461E+01
 20
2.52635836E+02
  0
VERTEX
  8
0
 62
4
 10
-1.08169711E+01
 20
2.52511361E+02
  0
VERTEX
  8
0
 62
4
 10
-1.06402782E+01
 20
2.52392894E+02
  0
VERTEX
  8
0
 62
4
 10
-1.04390481E+01
 20
2.52281361E+02
  0
VERTEX
  8
0
 62
4
 10
-1.02148532E+01
 20
2.52177632E+02
  0
VERTEX
  8
0
 62
4
 10
-9.96944519E+00
 20
2.52082519E+02
  0
VERTEX
  8
0
 62
4
 10
-9.70474173E+00
 20
2.51996765E+02
  0
VERTEX
  8
0
 62
4
 10
-9.42281109E+00
 20
2.51921039E+02
  0
VERTEX
  8
0
 62
4
 10
-9.12585619E+00
 20
2.51855934E+02
  0
VERTEX
  8
0
 62
4
 10
-8.81619735E+00
 20
2.51801958E+02
  0
VERTEX
  8
0
 62
4
 10
-8.49625414E+00
 20
2.51759533E+02
  0
VERTEX
  8
0
 62
4
 10
-8.16852652E+00
 20
2.51728991E+02
  0
VERTEX
  8
0
 62
4
 10
-7.83557524E+00
 20
2.51710569E+02
  0
VERTEX
  8
0
 62
4
 10
-7.50000189E+00
 20
2.51704413E+02
  0
VERTEX
  8
0
 62
4
 10
-7.16442854E+00
 20
2.51710569E+02
  0
VERTEX
  8
0
 62
4
 10
-6.83147727E+00
 20
2.51728991E+02
  0
VERTEX
  8
0
 62
4
 10
-6.50374964E+00
 20
2.51759533E+02
  0
VERTEX
  8
0
 62
4
 10
-6.18380644E+00
 20
2.51801958E+02
  0
VERTEX
  8
0
 62
4
 10
-5.87414760E+00
 20
2.51855934E+02
  0
VERTEX
  8
0
 62
4
 10
-5.57719270E+00
 20
2.51921039E+02
  0
VERTEX
  8
0
 62
4
 10
-5.29526206E+00
 20
2.51996765E+02
  0
VERTEX
  8
0
 62
4
 10
-5.03055860E+00
 20
2.52082519E+02
  0
VERTEX
  8
0
 62
4
 10
-4.78515064E+00
 20
2.52177632E+02
  0
VERTEX
  8
0
 62
4
 10
-4.56095573E+00
 20
2.52281361E+02
  0
VERTEX
  8
0
 62
4
 10
-4.35972565E+00
 20
2.52392894E+02
  0
VERTEX
  8
0
 62
4
 10
-4.18303275E+00
 20
2.52511361E+02
  0
VERTEX
  8
0
 62
4
 10
-4.03225767E+00
 20
2.52635836E+02
  0
VERTEX
  8
0
 62
4
 10
-3.90857852E+00
 20
2.52765346E+02
  0
VERTEX
  8
0
 62
4
 10
-3.81296168E+00
 20
2.52898879E+02
  0
VERTEX
  8
0
 62
4
 10
-3.74615428E+00
 20
2.53035393E+02
  0
VERTEX
  8
0
 62
4
 10
-3.70867833E+00
 20
2.53173819E+02
  0
VERTEX
  8
0
 62
4
 10
-3.70082666E+00
 20
2.53313077E+02
  0
VERTEX
  8
0
 62
4
 10
-3.72266062E+00
 20
2.53452079E+02
  0
VERTEX
  8
0
 62
4
 10
-3.77400960E+00
 20
2.53589737E+02
  0
VERTEX
  8
0
 62
4
 10
-3.85447238E+00
 20
2.53724978E+02
  0
VERTEX
  8
0
 62
4
 10
-3.96342025E+00
 20
2.53856744E+02
  0
VERTEX
  8
0
 62
4
 10
-4.10000192E+00
 20
2.53984005E+02
  0
SEQEND
  8
0
  0
POLYLINE
  8
0
 62
4
 66
1
  0
VERTEX
  8
0
 62
4
 10
-1.09000019E+01
 20
2.53280247E+02
  0
VERTEX
  8
0
 62
4
 10
-1.08863145E+01
 20
2.53153859E+02
  0
VERTEX
  8
0
 62
4
 10
-1.08453625E+01
 20
2.53028489E+02
  0
VERTEX
  8
0
 62
4
 10
-1.07774756E+01
 20
2.52905146E+02
  0
VERTEX
  8
0
 62
4
 10
-1.06832005E+01
 20
2.52784824E+02
  0
VERTEX
  8
0
 62
4
 10
-1.05632961E+01
 20
2.52668490E+02
  0
VERTEX
  8
0
 62
4
 10
-1.04187278E+01
 20
2.52557081E+02
  0
VERTEX
  8
0
 62
4
 10
-1.02506597E+01
 20
2.52451495E+02
  0
VERTEX
  8
0
 62
4
 10
-1.00604449E+01
 20
2.52352582E+02
  0
VERTEX
  8
0
 62
4
 10
-9.84961493E+00
 20
2.52261137E+02
  0
VERTEX
  8
0
 62
4
 10
-9.61986725E+00
 20
2.52177898E+02
  0
VERTEX
  8
0
 62
4
 10
-9.37305166E+00
 20
2.52103535E+02
  0
VERTEX
  8
0
 62
4
 10
-9.11115538E+00
 20
2.52038645E+02
  0
VERTEX
  8
0
 62
4
 10
-8.83628703E+00
 20
2.51983752E+02
  0
VERTEX
  8
0
 62
4
 10
-8.55065971E+00
 20
2.51939298E+02
  0
VERTEX
  8
0
 62
4
 10
-8.25657310E+00
 20
2.51905641E+02
  0
VERTEX
  8
0
 62
4
 10
-7.95639503E+00
 20
2.51883050E+02
  0
VERTEX
  8
0
 62
4
 10
-7.65254235E+00
 20
2.51871710E+02
  0
VERTEX
  8
0
 62
4
 10
-7.34746151E+00
 20
2.51871710E+02
  0
VERTEX
  8
0
 62
4
 10
-7.04360882E+00
 20
2.51883050E+02
  0
VERTEX
  8
0
 62
4
 10
-6.74343075E+00
 20
2.51905641E+02
  0
VERTEX
  8
0
 62
4
 10
-6.44934415E+00
 20
2.51939298E+02
  0
VERTEX
  8
0
 62
4
 10
-6.16371682E+00
 20
2.51983752E+02
  0
VERTEX
  8
0
 62
4
 10
-5.88884848E+00
 20
2.52038645E+02
  0
VERTEX
  8
0
 62
4
 10
-5.62695219E+00
 20
2.52103535E+02
  0
VERTEX
  8
0
 62
4
 10
-5.38013660E+00
 20
2.52177898E+02
  0
VERTEX
  8
0
 62
4
 10
-5.15038892E+00
 20
2.52261137E+02
  0
VERTEX
  8
0
 62
4
 10
-4.93955894E+00
 20
2.52352582E+02
  0
VERTEX
  8
0
 62
4
 10
-4.74934414E+00
 20
2.52451495E+02
  0
VERTEX
  8
0
 62
4
 10
-4.58127602E+00
 20
2.52557081E+02
  0
VERTEX
  8
0
 62
4
 10
-4.43670777E+00
 20
2.52668490E+02
  0
VERTEX
  8
0
 62
4
 10
-4.31680336E+00
 20
2.52784824E+02
  0
VERTEX
  8
0
 62
4
 10
-4.22252819E+00
 20
2.52905146E+02
  0
VERTEX
  8
0
 62
4
 10
-4.15464131E+00
 20
2.53028489E+02
  0
VERTEX
  8
0
 62
4
 10
-4.11368931E+00
 20
2.53153859E+02
  0
VERTEX
  8
0
 62
4
 10
-4.10000191E+00
 20
2.53280247E+02
  0
SEQEND
  8
0
  0
POLYLINE
  8
0
 62
4
 66
1
  0
VERTEX
  8
0
 62
4
 10
-4.10000191E+00
 20
2.54309233E+02
  0
VERTEX
  8
0
 62
4
 10
-4.11293994E+00
 20
2.54432119E+02
  0
VERTEX
  8
0
 62
4
 10
-4.15165555E+00
 20
2.54554069E+02
  0
VERTEX
  8
0
 62
4
 10
-4.21585410E+00
 20
2.54674157E+02
  0
VERTEX
  8
0
 62
4
 10
-4.30504700E+00
 20
2.54791467E+02
  0
VERTEX
  8
0
 62
4
 10
-4.41855543E+00
 20
2.54905107E+02
  0
VERTEX
  8
0
 62
4
 10
-4.55551554E+00
 20
2.55014212E+02
  0
VERTEX
  8
0
 62
4
 10
-4.71488496E+00
 20
2.55117951E+02
  0
VERTEX
  8
0
 62
4
 10
-4.89545080E+00
 20
2.55215536E+02
  0
VERTEX
  8
0
 62
4
 10
-5.09583885E+00
 20
2.55306223E+02
  0
VERTEX
  8
0
 62
4
 10
-5.31452404E+00
 20
2.55389323E+02
  0
VERTEX
  8
0
 62
4
 10
-5.54984203E+00
 20
2.55464202E+02
  0
VERTEX
  8
0
 62
4
 10
-5.80000191E+00
 20
2.55530292E+02
  0
VERTEX
  8
0
 62
4
 10
-6.06309982E+00
 20
2.55587088E+02
  0
VERTEX
  8
0
 62
4
 10
-6.33713342E+00
 20
2.55634159E+02
  0
VERTEX
  8
0
 62
4
 10
-6.62001716E+00
 20
2.55671147E+02
  0
VERTEX
  8
0
 62
4
 10
-6.90959811E+00
 20
2.55697770E+02
  0
VERTEX
  8
0
 62
4
 10
-7.20367239E+00
 20
2.55713825E+02
  0
VERTEX
  8
0
 62
4
 10
-7.50000191E+00
 20
2.55719190E+02
  0
VERTEX
  8
0
 62
4
 10
-7.79633144E+00
 20
2.55713825E+02
  0
VERTEX
  8
0
 62
4
 10
-8.09040572E+00
 20
2.55697770E+02
  0
VERTEX
  8
0
 62
4
 10
-8.37998667E+00
 20
2.55671147E+02
  0
VERTEX
  8
0
 62
4
 10
-8.66287040E+00
 20
2.55634159E+02
  0
VERTEX
  8
0
 62
4
 10
-8.93690400E+00
 20
2.55587088E+02
  0
VERTEX
  8
0
 62
4
 10
-9.20000191E+00
 20
2.55530292E+02
  0
VERTEX
  8
0
 62
4
 10
-9.45016180E+00
 20
2.55464202E+02
  0
VERTEX
  8
0
 62
4
 10
-9.68547979E+00
 20
2.55389323E+02
  0
VERTEX
  8
0
 62
4
 10
-9.90416497E+00
 20
2.55306223E+02
  0
VERTEX
  8
0
 62
4
 10
-1.01045530E+01
 20
2.55215536E+02
  0
VERTEX
  8
0
 62
4
 10
-1.02851189E+01
 20
2.55117951E+02
  0
VERTEX
  8
0
 62
4
 10
-1.04444883E+01
 20
2.55014212E+02
  0
VERTEX
  8
0
 62
4
 10
-1.05814484E+01
 20
2.54905107E+02
  0
VERTEX
  8
0
 62
4
 10
-1.06949568E+01
 20
2.54791467E+02
  0
VERTEX
  8
0
 62
4
 10
-1.07841497E+01
 20
2.54674157E+02
  0
VERTEX
  8
0
 62
4
 10
-1.08483483E+01
 20
2.54554069E+02
  0
VERTEX
  8
0
 62
4
 10
-1.08870639E+01
 20
2.54432119E+02
  0
VERTEX
  8
0
 62
4
 10
-1.09000019E+01
 20
2.54309233E+02
  0
VERTEX
  8
0
 62
4
 10
-1.08870639E+01
 20
2.54186347E+02
  0
VERTEX
  8
0
 62
4
 10
-1.08483483E+01
 20
2.54064397E+02
  0
VERTEX
  8
0
 62
4
 10
-1.07841497E+01
 20
2.53944309E+02
  0
VERTEX
  8
0
 62
4
 10
-1.06949568E+01
 20
2.53826999E+02
  0
VERTEX
  8
0
 62
4
 10
-1.05814484E+01
 20
2.53713359E+02
  0
VERTEX
  8
0
 62
4
 10
-1.04444883E+01
 20
2.53604254E+02
  0
VERTEX
  8
0
 62
4
 10
-1.02851189E+01
 20
2.53500515E+02
  0
VERTEX
  8
0
 62
4
 10
-1.01045530E+01
 20
2.53402930E+02
  0
VERTEX
  8
0
 62
4
 10
-9.90416496E+00
 20
2.53312243E+02
  0
VERTEX
  8
0
 62
4
 10
-9.68547978E+00
 20
2.53229143E+02
  0
VERTEX
  8
0
 62
4
 10
-9.45016179E+00
 20
2.53154264E+02
  0
VERTEX
  8
0
 62
4
 10
-9.20000190E+00
 20
2.53088174E+02
  0
VERTEX
  8
0
 62
4
 10
-8.93690399E+00
 20
2.53031378E+02
  0
VERTEX
  8
0
 62
4
 10
-8.66287039E+00
 20
2.52984307E+02
  0
VERTEX
  8
0
 62
4
 10
-8.37998666E+00
 20
2.52947319E+02
  0
VERTEX
  8
0
 62
4
 10
-8.09040571E+00
 20
2.52920696E+02
  0
VERTEX
  8
0
 62
4
 10
-7.79633143E+00
 20
2.52904641E+02
  0
VERTEX
  8
0
 62
4
 10
-7.50000190E+00
 20
2.52899276E+02
  0
VERTEX
  8
0
 62
4
 10
-7.20367238E+00
 20
2.52904641E+02
  0
VERTEX
  8
0
 62
4
 10
-6.90959810E+00
 20
2.52920696E+02
  0
VERTEX
  8
0
 62
4
 10
-6.62001715E+00
 20
2.52947319E+02
  0
VERTEX
  8
0
 62
4
 10
-6.33713342E+00
 20
2.52984307E+02
  0
VERTEX
  8
0
 62
4
 10
-6.06309981E+00
 20
2.53031378E+02
  0
VERTEX
  8
0
 62
4
 10
-5.80000190E+00
 20
2.53088174E+02
  0
VERTEX
  8
0
 62
4
 10
-5.54984202E+00
 20
2.53154264E+02
  0
VERTEX
  8
0
 62
4
 10
-5.31452403E+00
 20
2.53229143E+02
  0
VERTEX
  8
0
 62
4
 10
-5.09583885E+00
 20
2.53312243E+02
  0
VERTEX
  8
0
 62
4
 10
-4.89545080E+00
 20
2.53402930E+02
  0
VERTEX
  8
0
 62
4
 10
-4.71488495E+00
 20
2.53500515E+02
  0
VERTEX
  8
0
 62
4
 10
-4.55551553E+00
 20
2.53604254E+02
  0
VERTEX
  8
0
 62
4
 10
-4.41855543E+00
 20
2.53713359E+02
  0
VERTEX
  8
0
 62
4
 10
-4.30504700E+00
 20
2.53826999E+02
  0
VERTEX
  8
0
 62
4
 10
-4.21585410E+00
 20
2.53944309E+02
  0
VERTEX
  8
0
 62
4
 10
-4.15165555E+00
 20
2.54064397E+02
  0
VERTEX
  8
0
 62
4
 10
-4.11293994E+00
 20
2.54186347E+02
  0
VERTEX
  8
0
 62
4
 10
-4.10000191E+00
 20
2.54309233E+02
  0
SEQEND
  8
0
  0
ARC
  8
0
 62
4
 10
-1.25294370E+00
 20
2.40279330E+02
 40
1.64201370E+01
 50
1.10122188E+02
 51
1.19216401E+02
  0
ARC
  8
0
 62
4
 10
-1.37470607E+01
 20
2.40279328E+02
 40
1.64201386E+01
 50
6.07835994E+01
 51
6.98778124E+01
  0
LINE
  8
0
  6
CENTER
 62
6
 10
9.99999809E+00
 20
2.52370285E+02
 11
4.99999809E+00
 21
2.52370285E+02
  0
LINE
  8
0
 62
4
 10
-1.06718926E+01
 20
2.54816976E+02
 11
-1.50000019E+01
 21
2.54816976E+02
  0
LINE
  8
0
 62
4
 10
-4.15000191E+00
 20
2.54816976E+02
 11
-4.32811120E+00
 21
2.54816976E+02
  0
LINE
  8
0
 62
4
 10
-4.15000191E+00
 20
2.55206314E+02
 11
-4.87695259E+00
 21
2.55206314E+02
  0
LINE
  8
0
 62
4
 10
-3.19949272E+00
 20
2.56865087E+02
 11
-1.00000019E+01
 21
2.56865087E+02
  0
LINE
  8
0
 62
4
 10
-2.51093230E+00
 20
2.57139258E+02
 11
-1.50000019E+01
 21
2.57139258E+02
  0
LINE
  8
0
  6
CENTER
 62
6
 10
-1.90734862E-06
 20
2.51321712E+02
 11
-1.90734862E-06
 21
2.56321712E+02
  0
LINE
  8
0
  6
CENTER
 62
6
 10
2.49999809E+00
 20
2.53821712E+02
 11
-2.50000191E+00
 21
2.53821712E+02
  0
LINE
  8
0
  6
CENTER
 62
6
 10
-7.50000191E+00
 20
2.49870285E+02
 11
-7.50000191E+00
 21
2.54870285E+02
  0
LINE
  8
0
  6
CENTER
 62
6
 10
-5.00000191E+00
 20
2.52370285E+02
 11
-1.00000019E+01
 21
2.52370285E+02
  0
LINE
  8
0
 62
4
 10
-1.00000019E+01
 20
2.55715778E+02
 11
-1.50000019E+01
 21
2.55715778E+02
  0
LINE
  8
0
 62
6
 10
-5.69999981E+01
 20
3.34036669E+02
 11
-5.69999981E+01
 21
3.32982087E+02
  0
LINE
  8
0
 62
6
 10
-5.39999981E+01
 20
3.34036669E+02
 11
-5.39999981E+01
 21
3.32982087E+02
  0
LINE
  8
0
 62
4
 10
-5.74999981E+01
 20
3.33488082E+02
 11
-5.74999981E+01
 21
3.32982087E+02
  0
LINE
  8
0
 62
4
 10
-5.34999981E+01
 20
3.33488082E+02
 11
-5.34999981E+01
 21
3.32982087E+02
  0
LINE
  8
0
 62
4
 10
-5.89999981E+01
 20
3.32982087E+02
 11
-5.89999981E+01
 21
3.19868450E+02
  0
LINE
  8
0
 62
4
 10
-4.39999981E+01
 20
3.32982087E+02
 11
-4.39999981E+01
 21
3.03860757E+02
  0
LINE
  8
0
 62
4
 10
-7.39999981E+01
 20
3.19868450E+02
 11
-7.39999981E+01
 21
3.06183040E+02
  0
LINE
  8
0
  6
CENTER
 62
6
 10
-4.74999981E+01
 20
3.37765609E+02
 11
-4.74999981E+01
 21
3.27500031E+02
  0
LINE
  8
0
  6
CENTER
 62
6
 10
-5.54999981E+01
 20
3.37765609E+02
 11
-5.54999981E+01
 21
3.27500031E+02
  0
LINE
  8
0
  6
CENTER
 62
6
 10
-6.64999981E+01
 20
3.11129730E+02
 11
-6.64999981E+01
 21
3.06129730E+02
  0
LINE
  8
0
 62
4
 10
-4.89999981E+01
 20
3.05735186E+02
 11
-4.89999981E+01
 21
3.04134928E+02
  0
LINE
  8
0
 62
4
 10
-7.39999981E+01
 20
3.13000031E+02
 11
-7.39999981E+01
 21
3.13400031E+02
  0
LINE
  8
0
 62
4
 10
-5.04999981E+01
 20
3.05343189E+02
 11
-5.04999981E+01
 21
3.04134928E+02
  0
LINE
  8
0
 62
4
 10
-7.54999981E+01
 20
3.08285646E+02
 11
-7.54999981E+01
 21
3.05285304E+02
  0
POLYLINE
  8
0
 62
4
 66
1
  0
VERTEX
  8
0
 62
4
 10
-5.34999980E+01
 20
3.33488082E+02
  0
VERTEX
  8
0
 62
4
 10
-5.35080495E+01
 20
3.33562428E+02
  0
VERTEX
  8
0
 62
4
 10
-5.35321389E+01
 20
3.33636175E+02
  0
VERTEX
  8
0
 62
4
 10
-5.35720723E+01
 20
3.33708729E+02
  0
VERTEX
  8
0
 62
4
 10
-5.36275283E+01
 20
3.33779508E+02
  0
VERTEX
  8
0
 62
4
 10
-5.36980603E+01
 20
3.33847939E+02
  0
VERTEX
  8
0
 62
4
 10
-5.37831005E+01
 20
3.33913474E+02
  0
VERTEX
  8
0
 62
4
 10
-5.38819641E+01
 20
3.33975583E+02
  0
VERTEX
  8
0
 62
4
 10
-5.39938551E+01
 20
3.34033767E+02
  0
VERTEX
  8
0
 62
4
 10
-5.41178728E+01
 20
3.34087558E+02
  0
VERTEX
  8
0
 62
4
 10
-5.42530185E+01
 20
3.34136522E+02
  0
VERTEX
  8
0
 62
4
 10
-5.43982041E+01
 20
3.34180266E+02
  0
VERTEX
  8
0
 62
4
 10
-5.45522607E+01
 20
3.34218436E+02
  0
VERTEX
  8
0
 62
4
 10
-5.47139480E+01
 20
3.34250726E+02
  0
VERTEX
  8
0
 62
4
 10
-5.48819641E+01
 20
3.34276875E+02
  0
VERTEX
  8
0
 62
4
 10
-5.50549562E+01
 20
3.34296674E+02
  0
VERTEX
  8
0
 62
4
 10
-5.52315316E+01
 20
3.34309962E+02
  0
VERTEX
  8
0
 62
4
 10
-5.54102684E+01
 20
3.34316633E+02
  0
VERTEX
  8
0
 62
4
 10
-5.55897278E+01
 20
3.34316633E+02
  0
VERTEX
  8
0
 62
4
 10
-5.57684646E+01
 20
3.34309962E+02
  0
VERTEX
  8
0
 62
4
 10
-5.59450400E+01
 20
3.34296674E+02
  0
VERTEX
  8
0
 62
4
 10
-5.61180321E+01
 20
3.34276875E+02
  0
VERTEX
  8
0
 62
4
 10
-5.62860482E+01
 20
3.34250726E+02
  0
VERTEX
  8
0
 62
4
 10
-5.64477355E+01
 20
3.34218436E+02
  0
VERTEX
  8
0
 62
4
 10
-5.66017921E+01
 20
3.34180266E+02
  0
VERTEX
  8
0
 62
4
 10
-5.67469777E+01
 20
3.34136522E+02
  0
VERTEX
  8
0
 62
4
 10
-5.68821234E+01
 20
3.34087558E+02
  0
VERTEX
  8
0
 62
4
 10
-5.70061411E+01
 20
3.34033767E+02
  0
VERTEX
  8
0
 62
4
 10
-5.71180321E+01
 20
3.33975583E+02
  0
VERTEX
  8
0
 62
4
 10
-5.72168957E+01
 20
3.33913474E+02
  0
VERTEX
  8
0
 62
4
 10
-5.73019359E+01
 20
3.33847939E+02
  0
VERTEX
  8
0
 62
4
 10
-5.73724679E+01
 20
3.33779508E+02
  0
VERTEX
  8
0
 62
4
 10
-5.74279239E+01
 20
3.33708729E+02
  0
VERTEX
  8
0
 62
4
 10
-5.74678573E+01
 20
3.33636175E+02
  0
VERTEX
  8
0
 62
4
 10
-5.74919467E+01
 20
3.33562428E+02
  0
VERTEX
  8
0
 62
4
 10
-5.74999982E+01
 20
3.33488082E+02
  0
SEQEND
  8
0
  0
LINE
  8
0
 62
6
 10
-4.59999981E+01
 20
3.34036669E+02
 11
-4.59999981E+01
 21
3.32982087E+02
  0
LINE
  8
0
 62
4
 10
-4.54999981E+01
 20
3.33488082E+02
 11
-4.54999981E+01
 21
3.32982087E+02
  0
POLYLINE
  8
0
 62
4
 66
1
  0
VERTEX
  8
0
 62
4
 10
-4.54999980E+01
 20
3.33488082E+02
  0
VERTEX
  8
0
 62
4
 10
-4.55080495E+01
 20
3.33562428E+02
  0
VERTEX
  8
0
 62
4
 10
-4.55321389E+01
 20
3.33636175E+02
  0
VERTEX
  8
0
 62
4
 10
-4.55720723E+01
 20
3.33708729E+02
  0
VERTEX
  8
0
 62
4
 10
-4.56275283E+01
 20
3.33779508E+02
  0
VERTEX
  8
0
 62
4
 10
-4.56980603E+01
 20
3.33847939E+02
  0
VERTEX
  8
0
 62
4
 10
-4.57831005E+01
 20
3.33913474E+02
  0
VERTEX
  8
0
 62
4
 10
-4.58819641E+01
 20
3.33975583E+02
  0
VERTEX
  8
0
 62
4
 10
-4.59938551E+01
 20
3.34033767E+02
  0
VERTEX
  8
0
 62
4
 10
-4.61178728E+01
 20
3.34087558E+02
  0
VERTEX
  8
0
 62
4
 10
-4.62530185E+01
 20
3.34136522E+02
  0
VERTEX
  8
0
 62
4
 10
-4.63982041E+01
 20
3.34180266E+02
  0
VERTEX
  8
0
 62
4
 10
-4.65522607E+01
 20
3.34218436E+02
  0
VERTEX
  8
0
 62
4
 10
-4.67139480E+01
 20
3.34250726E+02
  0
VERTEX
  8
0
 62
4
 10
-4.68819641E+01
 20
3.34276875E+02
  0
VERTEX
  8
0
 62
4
 10
-4.70549562E+01
 20
3.34296674E+02
  0
VERTEX
  8
0
 62
4
 10
-4.72315316E+01
 20
3.34309962E+02
  0
VERTEX
  8
0
 62
4
 10
-4.74102684E+01
 20
3.34316633E+02
  0
VERTEX
  8
0
 62
4
 10
-4.75897278E+01
 20
3.34316633E+02
  0
VERTEX
  8
0
 62
4
 10
-4.77684646E+01
 20
3.34309962E+02
  0
VERTEX
  8
0
 62
4
 10
-4.79450400E+01
 20
3.34296674E+02
  0
VERTEX
  8
0
 62
4
 10
-4.81180321E+01
 20
3.34276875E+02
  0
VERTEX
  8
0
 62
4
 10
-4.82860482E+01
 20
3.34250726E+02
  0
VERTEX
  8
0
 62
4
 10
-4.84477355E+01
 20
3.34218436E+02
  0
VERTEX
  8
0
 62
4
 10
-4.86017921E+01
 20
3.34180266E+02
  0
VERTEX
  8
0
 62
4
 10
-4.87469777E+01
 20
3.34136522E+02
  0
VERTEX
  8
0
 62
4
 10
-4.88821234E+01
 20
3.34087558E+02
  0
VERTEX
  8
0
 62
4
 10
-4.90061411E+01
 20
3.34033767E+02
  0
VERTEX
  8
0
 62
4
 10
-4.91180321E+01
 20
3.33975583E+02
  0
VERTEX
  8
0
 62
4
 10
-4.92168957E+01
 20
3.33913474E+02
  0
VERTEX
  8
0
 62
4
 10
-4.93019359E+01
 20
3.33847939E+02
  0
VERTEX
  8
0
 62
4
 10
-4.93724679E+01
 20
3.33779508E+02
  0
VERTEX
  8
0
 62
4
 10
-4.94279239E+01
 20
3.33708729E+02
  0
VERTEX
  8
0
 62
4
 10
-4.94678573E+01
 20
3.33636175E+02
  0
VERTEX
  8
0
 62
4
 10
-4.94919467E+01
 20
3.33562428E+02
  0
VERTEX
  8
0
 62
4
 10
-4.94999982E+01
 20
3.33488082E+02
  0
SEQEND
  8
0
  0
LINE
  8
0
 62
6
 10
-4.89999981E+01
 20
3.34036669E+02
 11
-4.89999981E+01
 21
3.32982087E+02
  0
LINE
  8
0
 62
4
 10
-4.94999981E+01
 20
3.33488082E+02
 11
-4.94999981E+01
 21
3.32982087E+02
  0
LINE
  8
0
 62
4
 10
-5.89999981E+01
 20
3.32982087E+02
 11
-4.39999981E+01
 21
3.32982087E+02
  0
LINE
  8
0
 62
4
 10
-5.89999981E+01
 20
3.26238179E+02
 11
-4.39999981E+01
 21
3.26238179E+02
  0
LINE
  8
0
 62
4
 10
-7.39999981E+01
 20
3.19868450E+02
 11
-4.39999981E+01
 21
3.19868450E+02
  0
LINE
  8
0
 62
4
 10
-7.39999981E+01
 20
3.10495849E+02
 11
-4.39999981E+01
 21
3.10495849E+02
  0
LINE
  8
0
 62
4
 10
-7.39999981E+01
 20
3.03860757E+02
 11
-6.15109285E+01
 21
3.03860757E+02
  0
LINE
  8
0
 62
4
 10
-7.39999981E+01
 20
3.09433546E+02
 11
-7.54999981E+01
 21
3.08285646E+02
  0
LINE
  8
0
 62
4
 10
-7.39999981E+01
 20
3.05793701E+02
 11
-6.31499981E+01
 21
3.05793701E+02
  0
LINE
  8
0
 62
4
 10
-7.54999981E+01
 20
3.06224584E+02
 11
-7.39999981E+01
 21
3.05793701E+02
  0
LINE
  8
0
 62
4
 10
-7.39999981E+01
 20
3.04134928E+02
 11
-6.21994889E+01
 21
3.04134928E+02
  0
LINE
  8
0
 62
4
 10
-7.54999981E+01
 20
3.05285304E+02
 11
-7.39999981E+01
 21
3.04134928E+02
  0
LINE
  8
0
 62
4
 10
-7.39999981E+01
 20
3.06183040E+02
 11
-6.31499981E+01
 21
3.06183040E+02
  0
LINE
  8
0
 62
4
 10
-7.39999981E+01
 20
3.06183040E+02
 11
-7.39999981E+01
 21
3.04134928E+02
  0
LINE
  8
0
 62
4
 10
-7.39999981E+01
 20
3.04134928E+02
 11
-7.39999981E+01
 21
3.03860757E+02
  0
LINE
  8
0
 62
4
 10
-5.52999981E+01
 20
3.08629730E+02
 11
-5.52999981E+01
 21
3.07719769E+02
  0
LINE
  8
0
 62
4
 10
-4.76999981E+01
 20
3.07719769E+02
 11
-4.76999981E+01
 21
3.08629730E+02
  0
LINE
  8
0
 62
4
 10
-5.48999981E+01
 20
3.07719769E+02
 11
-5.48999981E+01
 21
3.06690782E+02
  0
LINE
  8
0
 62
4
 10
-4.80999981E+01
 20
3.07719769E+02
 11
-4.80999981E+01
 21
3.06690782E+02
  0
LINE
  8
0
 62
4
 10
-5.48499981E+01
 20
3.06449867E+02
 11
-5.48499981E+01
 21
3.05230986E+02
  0
LINE
  8
0
 62
4
 10
-6.31499981E+01
 20
3.05230986E+02
 11
-6.31499981E+01
 21
3.06832518E+02
  0
POLYLINE
  8
0
 62
4
 66
1
  0
VERTEX
  8
0
 62
4
 10
-5.52999981E+01
 20
3.07808582E+02
  0
VERTEX
  8
0
 62
4
 10
-5.54498988E+01
 20
3.07942599E+02
  0
VERTEX
  8
0
 62
4
 10
-5.56279583E+01
 20
3.08070554E+02
  0
VERTEX
  8
0
 62
4
 10
-5.58327644E+01
 20
3.08191431E+02
  0
VERTEX
  8
0
 62
4
 10
-5.60626926E+01
 20
3.08304272E+02
  0
VERTEX
  8
0
 62
4
 10
-5.63159191E+01
 20
3.08408183E+02
  0
VERTEX
  8
0
 62
4
 10
-5.65904353E+01
 20
3.08502338E+02
  0
VERTEX
  8
0
 62
4
 10
-5.68840638E+01
 20
3.08585991E+02
  0
VERTEX
  8
0
 62
4
 10
-5.71944757E+01
 20
3.08658478E+02
  0
VERTEX
  8
0
 62
4
 10
-5.75192086E+01
 20
3.08719225E+02
  0
VERTEX
  8
0
 62
4
 10
-5.78556870E+01
 20
3.08767750E+02
  0
VERTEX
  8
0
 62
4
 10
-5.82012419E+01
 20
3.08803667E+02
  0
VERTEX
  8
0
 62
4
 10
-5.85531325E+01
 20
3.08826692E+02
  0
VERTEX
  8
0
 62
4
 10
-5.89085675E+01
 20
3.08836643E+02
  0
VERTEX
  8
0
 62
4
 10
-5.92647277E+01
 20
3.08833439E+02
  0
VERTEX
  8
0
 62
4
 10
-5.96187882E+01
 20
3.08817107E+02
  0
VERTEX
  8
0
 62
4
 10
-5.99679404E+01
 20
3.08787777E+02
  0
VERTEX
  8
0
 62
4
 10
-6.03094151E+01
 20
3.08745680E+02
  0
VERTEX
  8
0
 62
4
 10
-6.06405037E+01
 20
3.08691152E+02
  0
VERTEX
  8
0
 62
4
 10
-6.09585800E+01
 20
3.08624623E+02
  0
VERTEX
  8
0
 62
4
 10
-6.12611211E+01
 20
3.08546622E+02
  0
VERTEX
  8
0
 62
4
 10
-6.15457273E+01
 20
3.08457769E+02
  0
VERTEX
  8
0
 62
4
 10
-6.18101411E+01
 20
3.08358766E+02
  0
VERTEX
  8
0
 62
4
 10
-6.20522653E+01
 20
3.08250401E+02
  0
VERTEX
  8
0
 62
4
 10
-6.22701793E+01
 20
3.08133531E+02
  0
VERTEX
  8
0
 62
4
 10
-6.24621547E+01
 20
3.08009085E+02
  0
VERTEX
  8
0
 62
4
 10
-6.26266687E+01
 20
3.07878049E+02
  0
VERTEX
  8
0
 62
4
 10
-6.27624165E+01
 20
3.07741463E+02
  0
VERTEX
  8
0
 62
4
 10
-6.28683213E+01
 20
3.07600410E+02
  0
VERTEX
  8
0
 62
4
 10
-6.29435431E+01
 20
3.07456009E+02
  0
VERTEX
  8
0
 62
4
 10
-6.29874853E+01
 20
3.07309405E+02
  0
SEQEND
  8
0
  0
POLYLINE
  8
0
 62
4
 66
1
  0
VERTEX
  8
0
 62
4
 10
-5.52896236E+01
 20
3.07603404E+02
  0
VERTEX
  8
0
 62
4
 10
-5.54700544E+01
 20
3.07737462E+02
  0
VERTEX
  8
0
 62
4
 10
-5.56785770E+01
 20
3.07864318E+02
  0
VERTEX
  8
0
 62
4
 10
-5.59135319E+01
 20
3.07982963E+02
  0
VERTEX
  8
0
 62
4
 10
-5.61730492E+01
 20
3.08092453E+02
  0
VERTEX
  8
0
 62
4
 10
-5.64550638E+01
 20
3.08191916E+02
  0
VERTEX
  8
0
 62
4
 10
-5.67573313E+01
 20
3.08280560E+02
  0
VERTEX
  8
0
 62
4
 10
-5.70774462E+01
 20
3.08357681E+02
  0
VERTEX
  8
0
 62
4
 10
-5.74128611E+01
 20
3.08422665E+02
  0
VERTEX
  8
0
 62
4
 10
-5.77609065E+01
 20
3.08474994E+02
  0
VERTEX
  8
0
 62
4
 10
-5.81188129E+01
 20
3.08514252E+02
  0
VERTEX
  8
0
 62
4
 10
-5.84837318E+01
 20
3.08540126E+02
  0
VERTEX
  8
0
 62
4
 10
-5.88527592E+01
 20
3.08552411E+02
  0
VERTEX
  8
0
 62
4
 10
-5.92229584E+01
 20
3.08551009E+02
  0
VERTEX
  8
0
 62
4
 10
-5.95913832E+01
 20
3.08535931E+02
  0
VERTEX
  8
0
 62
4
 10
-5.99551017E+01
 20
3.08507297E+02
  0
VERTEX
  8
0
 62
4
 10
-6.03112194E+01
 20
3.08465335E+02
  0
VERTEX
  8
0
 62
4
 10
-6.06569022E+01
 20
3.08410379E+02
  0
VERTEX
  8
0
 62
4
 10
-6.09893991E+01
 20
3.08342866E+02
  0
VERTEX
  8
0
 62
4
 10
-6.13060642E+01
 20
3.08263333E+02
  0
VERTEX
  8
0
 62
4
 10
-6.16043772E+01
 20
3.08172414E+02
  0
VERTEX
  8
0
 62
4
 10
-6.18819643E+01
 20
3.08070832E+02
  0
VERTEX
  8
0
 62
4
 10
-6.21366164E+01
 20
3.07959395E+02
  0
VERTEX
  8
0
 62
4
 10
-6.23663068E+01
 20
3.07838990E+02
  0
VERTEX
  8
0
 62
4
 10
-6.25692077E+01
 20
3.07710576E+02
  0
VERTEX
  8
0
 62
4
 10
-6.27437044E+01
 20
3.07575174E+02
  0
VERTEX
  8
0
 62
4
 10
-6.28884082E+01
 20
3.07433861E+02
  0
VERTEX
  8
0
 62
4
 10
-6.30021675E+01
 20
3.07287764E+02
  0
VERTEX
  8
0
 62
4
 10
-6.30840771E+01
 20
3.07138043E+02
  0
VERTEX
  8
0
 62
4
 10
-6.31334850E+01
 20
3.06985891E+02
  0
VERTEX
  8
0
 62
4
 10
-6.31499981E+01
 20
3.06832518E+02
  0
SEQEND
  8
0
  0
POLYLINE
  8
0
 62
4
 66
1
  0
VERTEX
  8
0
 62
4
 10
-6.31499981E+01
 20
3.05230986E+02
  0
VERTEX
  8
0
 62
4
 10
-6.31342061E+01
 20
3.05080993E+02
  0
VERTEX
  8
0
 62
4
 10
-6.30869503E+01
 20
3.04932142E+02
  0
VERTEX
  8
0
 62
4
 10
-6.30085903E+01
 20
3.04785564E+02
  0
VERTEX
  8
0
 62
4
 10
-6.28997225E+01
 20
3.04642377E+02
  0
VERTEX
  8
0
 62
4
 10
-6.27611754E+01
 20
3.04503670E+02
  0
VERTEX
  8
0
 62
4
 10
-6.25940035E+01
 20
3.04370498E+02
  0
VERTEX
  8
0
 62
4
 10
-6.23994791E+01
 20
3.04243874E+02
  0
VERTEX
  8
0
 62
4
 10
-6.21790825E+01
 20
3.04124763E+02
  0
VERTEX
  8
0
 62
4
 10
-6.19344912E+01
 20
3.04014072E+02
  0
VERTEX
  8
0
 62
4
 10
-6.16675667E+01
 20
3.03912641E+02
  0
VERTEX
  8
0
 62
4
 10
-6.13803403E+01
 20
3.03821244E+02
  0
VERTEX
  8
0
 62
4
 10
-6.10749981E+01
 20
3.03740576E+02
  0
VERTEX
  8
0
 62
4
 10
-6.07538639E+01
 20
3.03671251E+02
  0
VERTEX
  8
0
 62
4
 10
-6.04193817E+01
 20
3.03613797E+02
  0
VERTEX
  8
0
 62
4
 10
-6.00740971E+01
 20
3.03568650E+02
  0
VERTEX
  8
0
 62
4
 10
-5.97206380E+01
 20
3.03536155E+02
  0
VERTEX
  8
0
 62
4
 10
-5.93616944E+01
 20
3.03516558E+02
  0
VERTEX
  8
0
 62
4
 10
-5.89999981E+01
 20
3.03510009E+02
  0
VERTEX
  8
0
 62
4
 10
-5.86383018E+01
 20
3.03516558E+02
  0
VERTEX
  8
0
 62
4
 10
-5.82793582E+01
 20
3.03536155E+02
  0
VERTEX
  8
0
 62
4
 10
-5.79258991E+01
 20
3.03568650E+02
  0
VERTEX
  8
0
 62
4
 10
-5.75806145E+01
 20
3.03613797E+02
  0
VERTEX
  8
0
 62
4
 10
-5.72461323E+01
 20
3.03671251E+02
  0
VERTEX
  8
0
 62
4
 10
-5.69249981E+01
 20
3.03740576E+02
  0
VERTEX
  8
0
 62
4
 10
-5.66196559E+01
 20
3.03821244E+02
  0
VERTEX
  8
0
 62
4
 10
-5.63324295E+01
 20
3.03912641E+02
  0
VERTEX
  8
0
 62
4
 10
-5.60655050E+01
 20
3.04014072E+02
  0
VERTEX
  8
0
 62
4
 10
-5.58209137E+01
 20
3.04124763E+02
  0
VERTEX
  8
0
 62
4
 10
-5.56005171E+01
 20
3.04243874E+02
  0
VERTEX
  8
0
 62
4
 10
-5.54059927E+01
 20
3.04370498E+02
  0
VERTEX
  8
0
 62
4
 10
-5.52388208E+01
 20
3.04503670E+02
  0
VERTEX
  8
0
 62
4
 10
-5.51002737E+01
 20
3.04642377E+02
  0
VERTEX
  8
0
 62
4
 10
-5.49914059E+01
 20
3.04785564E+02
  0
VERTEX
  8
0
 62
4
 10
-5.49130459E+01
 20
3.04932141E+02
  0
VERTEX
  8
0
 62
4
 10
-5.48657901E+01
 20
3.05080993E+02
  0
VERTEX
  8
0
 62
4
 10
-5.48499981E+01
 20
3.05230986E+02
  0
VERTEX
  8
0
 62
4
 10
-5.48657901E+01
 20
3.05380979E+02
  0
VERTEX
  8
0
 62
4
 10
-5.49130459E+01
 20
3.05529830E+02
  0
VERTEX
  8
0
 62
4
 10
-5.49914059E+01
 20
3.05676408E+02
  0
VERTEX
  8
0
 62
4
 10
-5.51002737E+01
 20
3.05819595E+02
  0
VERTEX
  8
0
 62
4
 10
-5.52388208E+01
 20
3.05958302E+02
  0
VERTEX
  8
0
 62
4
 10
-5.54059927E+01
 20
3.06091474E+02
  0
VERTEX
  8
0
 62
4
 10
-5.56005171E+01
 20
3.06218098E+02
  0
VERTEX
  8
0
 62
4
 10
-5.58209137E+01
 20
3.06337209E+02
  0
VERTEX
  8
0
 62
4
 10
-5.60655050E+01
 20
3.06447900E+02
  0
VERTEX
  8
0
 62
4
 10
-5.63324295E+01
 20
3.06549331E+02
  0
VERTEX
  8
0
 62
4
 10
-5.66196559E+01
 20
3.06640728E+02
  0
VERTEX
  8
0
 62
4
 10
-5.69249981E+01
 20
3.06721396E+02
  0
VERTEX
  8
0
 62
4
 10
-5.72461323E+01
 20
3.06790721E+02
  0
VERTEX
  8
0
 62
4
 10
-5.75806145E+01
 20
3.06848175E+02
  0
VERTEX
  8
0
 62
4
 10
-5.79258991E+01
 20
3.06893322E+02
  0
VERTEX
  8
0
 62
4
 10
-5.82793582E+01
 20
3.06925817E+02
  0
VERTEX
  8
0
 62
4
 10
-5.86383018E+01
 20
3.06945414E+02
  0
VERTEX
  8
0
 62
4
 10
-5.89999981E+01
 20
3.06951963E+02
  0
VERTEX
  8
0
 62
4
 10
-5.93616944E+01
 20
3.06945414E+02
  0
VERTEX
  8
0
 62
4
 10
-5.97206380E+01
 20
3.06925817E+02
  0
VERTEX
  8
0
 62
4
 10
-6.00740971E+01
 20
3.06893322E+02
  0
VERTEX
  8
0
 62
4
 10
-6.04193817E+01
 20
3.06848175E+02
  0
VERTEX
  8
0
 62
4
 10
-6.07538639E+01
 20
3.06790721E+02
  0
VERTEX
  8
0
 62
4
 10
-6.10749981E+01
 20
3.06721396E+02
  0
VERTEX
  8
0
 62
4
 10
-6.13803403E+01
 20
3.06640728E+02
  0
VERTEX
  8
0
 62
4
 10
-6.16675667E+01
 20
3.06549331E+02
  0
VERTEX
  8
0
 62
4
 10
-6.19344912E+01
 20
3.06447900E+02
  0
VERTEX
  8
0
 62
4
 10
-6.21790825E+01
 20
3.06337209E+02
  0
VERTEX
  8
0
 62
4
 10
-6.23994791E+01
 20
3.06218098E+02
  0
VERTEX
  8
0
 62
4
 10
-6.25940035E+01
 20
3.06091474E+02
  0
VERTEX
  8
0
 62
4
 10
-6.27611754E+01
 20
3.05958302E+02
  0
VERTEX
  8
0
 62
4
 10
-6.28997225E+01
 20
3.05819595E+02
  0
VERTEX
  8
0
 62
4
 10
-6.30085903E+01
 20
3.05676408E+02
  0
VERTEX
  8
0
 62
4
 10
-6.30869503E+01
 20
3.05529831E+02
  0
VERTEX
  8
0
 62
4
 10
-6.31342061E+01
 20
3.05380979E+02
  0
VERTEX
  8
0
 62
4
 10
-6.31499981E+01
 20
3.05230986E+02
  0
SEQEND
  8
0
  0
ARC
  8
0
 62
4
 10
-6.53695988E+01
 20
3.20015606E+02
 40
1.67245585E+01
 50
2.85971208E+02
 51
2.99114206E+02
  0
ARC
  8
0
 62
4
 10
-5.26303940E+01
 20
3.20015614E+02
 40
1.67245676E+01
 50
2.40885798E+02
 51
2.54028789E+02
  0
POLYLINE
  8
0
 62
4
 66
1
  0
VERTEX
  8
0
 62
4
 10
-4.76999981E+01
 20
3.08629730E+02
  0
VERTEX
  8
0
 62
4
 10
-4.77152958E+01
 20
3.08770987E+02
  0
VERTEX
  8
0
 62
4
 10
-4.77610657E+01
 20
3.08911106E+02
  0
VERTEX
  8
0
 62
4
 10
-4.78369392E+01
 20
3.09048960E+02
  0
VERTEX
  8
0
 62
4
 10
-4.79423056E+01
 20
3.09183438E+02
  0
VERTEX
  8
0
 62
4
 10
-4.80763164E+01
 20
3.09313459E+02
  0
VERTEX
  8
0
 62
4
 10
-4.82378927E+01
 20
3.09437974E+02
  0
VERTEX
  8
0
 62
4
 10
-4.84257335E+01
 20
3.09555982E+02
  0
VERTEX
  8
0
 62
4
 10
-4.86383265E+01
 20
3.09666532E+02
  0
VERTEX
  8
0
 62
4
 10
-4.88739600E+01
 20
3.09768735E+02
  0
VERTEX
  8
0
 62
4
 10
-4.91307368E+01
 20
3.09861767E+02
  0
VERTEX
  8
0
 62
4
 10
-4.94065896E+01
 20
3.09944879E+02
  0
VERTEX
  8
0
 62
4
 10
-4.96992972E+01
 20
3.10017403E+02
  0
VERTEX
  8
0
 62
4
 10
-5.00065030E+01
 20
3.10078753E+02
  0
VERTEX
  8
0
 62
4
 10
-5.03257335E+01
 20
3.10128437E+02
  0
VERTEX
  8
0
 62
4
 10
-5.06544185E+01
 20
3.10166055E+02
  0
VERTEX
  8
0
 62
4
 10
-5.09899117E+01
 20
3.10191303E+02
  0
VERTEX
  8
0
 62
4
 10
-5.13295117E+01
 20
3.10203978E+02
  0
VERTEX
  8
0
 62
4
 10
-5.16704844E+01
 20
3.10203978E+02
  0
VERTEX
  8
0
 62
4
 10
-5.20100845E+01
 20
3.10191303E+02
  0
VERTEX
  8
0
 62
4
 10
-5.23455776E+01
 20
3.10166055E+02
  0
VERTEX
  8
0
 62
4
 10
-5.26742627E+01
 20
3.10128438E+02
  0
VERTEX
  8
0
 62
4
 10
-5.29934932E+01
 20
3.10078753E+02
  0
VERTEX
  8
0
 62
4
 10
-5.33006990E+01
 20
3.10017403E+02
  0
VERTEX
  8
0
 62
4
 10
-5.35934066E+01
 20
3.09944879E+02
  0
VERTEX
  8
0
 62
4
 10
-5.38692593E+01
 20
3.09861767E+02
  0
VERTEX
  8
0
 62
4
 10
-5.41260361E+01
 20
3.09768735E+02
  0
VERTEX
  8
0
 62
4
 10
-5.43616697E+01
 20
3.09666532E+02
  0
VERTEX
  8
0
 62
4
 10
-5.45742627E+01
 20
3.09555982E+02
  0
VERTEX
  8
0
 62
4
 10
-5.47621035E+01
 20
3.09437974E+02
  0
VERTEX
  8
0
 62
4
 10
-5.49236798E+01
 20
3.09313459E+02
  0
VERTEX
  8
0
 62
4
 10
-5.50576906E+01
 20
3.09183439E+02
  0
VERTEX
  8
0
 62
4
 10
-5.51630570E+01
 20
3.09048960E+02
  0
VERTEX
  8
0
 62
4
 10
-5.52389305E+01
 20
3.08911106E+02
  0
VERTEX
  8
0
 62
4
 10
-5.52847004E+01
 20
3.08770987E+02
  0
VERTEX
  8
0
 62
4
 10
-5.52999981E+01
 20
3.08629730E+02
  0
SEQEND
  8
0
  0
POLYLINE
  8
0
 62
4
 66
1
  0
VERTEX
  8
0
 62
4
 10
-4.80999981E+01
 20
3.07016011E+02
  0
VERTEX
  8
0
 62
4
 10
-4.79634164E+01
 20
3.07143272E+02
  0
VERTEX
  8
0
 62
4
 10
-4.78544686E+01
 20
3.07275038E+02
  0
VERTEX
  8
0
 62
4
 10
-4.77740058E+01
 20
3.07410279E+02
  0
VERTEX
  8
0
 62
4
 10
-4.77226568E+01
 20
3.07547937E+02
  0
VERTEX
  8
0
 62
4
 10
-4.77008228E+01
 20
3.07686939E+02
  0
VERTEX
  8
0
 62
4
 10
-4.77086745E+01
 20
3.07826197E+02
  0
VERTEX
  8
0
 62
4
 10
-4.77461505E+01
 20
3.07964623E+02
  0
VERTEX
  8
0
 62
4
 10
-4.78129579E+01
 20
3.08101137E+02
  0
VERTEX
  8
0
 62
4
 10
-4.79085747E+01
 20
3.08234670E+02
  0
VERTEX
  8
0
 62
4
 10
-4.80322539E+01
 20
3.08364180E+02
  0
VERTEX
  8
0
 62
4
 10
-4.81830290E+01
 20
3.08488655E+02
  0
VERTEX
  8
0
 62
4
 10
-4.83597219E+01
 20
3.08607122E+02
  0
VERTEX
  8
0
 62
4
 10
-4.85609519E+01
 20
3.08718655E+02
  0
VERTEX
  8
0
 62
4
 10
-4.87851469E+01
 20
3.08822384E+02
  0
VERTEX
  8
0
 62
4
 10
-4.90305548E+01
 20
3.08917497E+02
  0
VERTEX
  8
0
 62
4
 10
-4.92952583E+01
 20
3.09003251E+02
  0
VERTEX
  8
0
 62
4
 10
-4.95771889E+01
 20
3.09078977E+02
  0
VERTEX
  8
0
 62
4
 10
-4.98741438E+01
 20
3.09144082E+02
  0
VERTEX
  8
0
 62
4
 10
-5.01838027E+01
 20
3.09198058E+02
  0
VERTEX
  8
0
 62
4
 10
-5.05037459E+01
 20
3.09240483E+02
  0
VERTEX
  8
0
 62
4
 10
-5.08314735E+01
 20
3.09271025E+02
  0
VERTEX
  8
0
 62
4
 10
-5.11644248E+01
 20
3.09289447E+02
  0
VERTEX
  8
0
 62
4
 10
-5.14999981E+01
 20
3.09295603E+02
  0
VERTEX
  8
0
 62
4
 10
-5.18355715E+01
 20
3.09289447E+02
  0
VERTEX
  8
0
 62
4
 10
-5.21685227E+01
 20
3.09271025E+02
  0
VERTEX
  8
0
 62
4
 10
-5.24962504E+01
 20
3.09240483E+02
  0
VERTEX
  8
0
 62
4
 10
-5.28161936E+01
 20
3.09198058E+02
  0
VERTEX
  8
0
 62
4
 10
-5.31258524E+01
 20
3.09144082E+02
  0
VERTEX
  8
0
 62
4
 10
-5.34228073E+01
 20
3.09078977E+02
  0
VERTEX
  8
0
 62
4
 10
-5.37047379E+01
 20
3.09003251E+02
  0
VERTEX
  8
0
 62
4
 10
-5.39694414E+01
 20
3.08917497E+02
  0
VERTEX
  8
0
 62
4
 10
-5.42148494E+01
 20
3.08822384E+02
  0
VERTEX
  8
0
 62
4
 10
-5.44390443E+01
 20
3.08718655E+02
  0
VERTEX
  8
0
 62
4
 10
-5.46402744E+01
 20
3.08607122E+02
  0
VERTEX
  8
0
 62
4
 10
-5.48169673E+01
 20
3.08488655E+02
  0
VERTEX
  8
0
 62
4
 10
-5.49677423E+01
 20
3.08364180E+02
  0
VERTEX
  8
0
 62
4
 10
-5.50914215E+01
 20
3.08234670E+02
  0
VERTEX
  8
0
 62
4
 10
-5.51870383E+01
 20
3.08101137E+02
  0
VERTEX
  8
0
 62
4
 10
-5.52538457E+01
 20
3.07964623E+02
  0
VERTEX
  8
0
 62
4
 10
-5.52913217E+01
 20
3.07826197E+02
  0
VERTEX
  8
0
 62
4
 10
-5.52991734E+01
 20
3.07686939E+02
  0
VERTEX
  8
0
 62
4
 10
-5.52773394E+01
 20
3.07547937E+02
  0
VERTEX
  8
0
 62
4
 10
-5.52259904E+01
 20
3.07410279E+02
  0
VERTEX
  8
0
 62
4
 10
-5.51455276E+01
 20
3.07275038E+02
  0
VERTEX
  8
0
 62
4
 10
-5.50365798E+01
 20
3.07143272E+02
  0
VERTEX
  8
0
 62
4
 10
-5.48999981E+01
 20
3.07016011E+02
  0
SEQEND
  8
0
  0
POLYLINE
  8
0
 62
4
 66
1
  0
VERTEX
  8
0
 62
4
 10
-4.80999981E+01
 20
3.07719769E+02
  0
VERTEX
  8
0
 62
4
 10
-4.81136855E+01
 20
3.07846157E+02
  0
VERTEX
  8
0
 62
4
 10
-4.81546375E+01
 20
3.07971527E+02
  0
VERTEX
  8
0
 62
4
 10
-4.82225244E+01
 20
3.08094870E+02
  0
VERTEX
  8
0
 62
4
 10
-4.83167995E+01
 20
3.08215192E+02
  0
VERTEX
  8
0
 62
4
 10
-4.84367039E+01
 20
3.08331526E+02
  0
VERTEX
  8
0
 62
4
 10
-4.85812722E+01
 20
3.08442935E+02
  0
VERTEX
  8
0
 62
4
 10
-4.87493403E+01
 20
3.08548521E+02
  0
VERTEX
  8
0
 62
4
 10
-4.89395551E+01
 20
3.08647434E+02
  0
VERTEX
  8
0
 62
4
 10
-4.91503851E+01
 20
3.08738879E+02
  0
VERTEX
  8
0
 62
4
 10
-4.93801328E+01
 20
3.08822118E+02
  0
VERTEX
  8
0
 62
4
 10
-4.96269483E+01
 20
3.08896481E+02
  0
VERTEX
  8
0
 62
4
 10
-4.98888446E+01
 20
3.08961371E+02
  0
VERTEX
  8
0
 62
4
 10
-5.01637130E+01
 20
3.09016264E+02
  0
VERTEX
  8
0
 62
4
 10
-5.04493403E+01
 20
3.09060718E+02
  0
VERTEX
  8
0
 62
4
 10
-5.07434269E+01
 20
3.09094375E+02
  0
VERTEX
  8
0
 62
4
 10
-5.10436050E+01
 20
3.09116966E+02
  0
VERTEX
  8
0
 62
4
 10
-5.13474577E+01
 20
3.09128306E+02
  0
VERTEX
  8
0
 62
4
 10
-5.16525385E+01
 20
3.09128306E+02
  0
VERTEX
  8
0
 62
4
 10
-5.19563912E+01
 20
3.09116966E+02
  0
VERTEX
  8
0
 62
4
 10
-5.22565693E+01
 20
3.09094375E+02
  0
VERTEX
  8
0
 62
4
 10
-5.25506559E+01
 20
3.09060718E+02
  0
VERTEX
  8
0
 62
4
 10
-5.28362832E+01
 20
3.09016264E+02
  0
VERTEX
  8
0
 62
4
 10
-5.31111515E+01
 20
3.08961371E+02
  0
VERTEX
  8
0
 62
4
 10
-5.33730478E+01
 20
3.08896481E+02
  0
VERTEX
  8
0
 62
4
 10
-5.36198634E+01
 20
3.08822118E+02
  0
VERTEX
  8
0
 62
4
 10
-5.38496111E+01
 20
3.08738879E+02
  0
VERTEX
  8
0
 62
4
 10
-5.40604411E+01
 20
3.08647434E+02
  0
VERTEX
  8
0
 62
4
 10
-5.42506559E+01
 20
3.08548521E+02
  0
VERTEX
  8
0
 62
4
 10
-5.44187240E+01
 20
3.08442935E+02
  0
VERTEX
  8
0
 62
4
 10
-5.45632922E+01
 20
3.08331526E+02
  0
VERTEX
  8
0
 62
4
 10
-5.46831967E+01
 20
3.08215192E+02
  0
VERTEX
  8
0
 62
4
 10
-5.47774718E+01
 20
3.08094870E+02
  0
VERTEX
  8
0
 62
4
 10
-5.48453587E+01
 20
3.07971527E+02
  0
VERTEX
  8
0
 62
4
 10
-5.48863107E+01
 20
3.07846157E+02
  0
VERTEX
  8
0
 62
4
 10
-5.48999981E+01
 20
3.07719769E+02
  0
SEQEND
  8
0
  0
POLYLINE
  8
0
 62
4
 66
1
  0
VERTEX
  8
0
 62
4
 10
-5.48999981E+01
 20
3.06690782E+02
  0
VERTEX
  8
0
 62
4
 10
-5.48870601E+01
 20
3.06567896E+02
  0
VERTEX
  8
0
 62
4
 10
-5.48483445E+01
 20
3.06445946E+02
  0
VERTEX
  8
0
 62
4
 10
-5.47841459E+01
 20
3.06325858E+02
  0
VERTEX
  8
0
 62
4
 10
-5.46949530E+01
 20
3.06208548E+02
  0
VERTEX
  8
0
 62
4
 10
-5.45814446E+01
 20
3.06094908E+02
  0
VERTEX
  8
0
 62
4
 10
-5.44444845E+01
 20
3.05985803E+02
  0
VERTEX
  8
0
 62
4
 10
-5.42851151E+01
 20
3.05882064E+02
  0
VERTEX
  8
0
 62
4
 10
-5.41045492E+01
 20
3.05784479E+02
  0
VERTEX
  8
0
 62
4
 10
-5.39041612E+01
 20
3.05693792E+02
  0
VERTEX
  8
0
 62
4
 10
-5.36854760E+01
 20
3.05610692E+02
  0
VERTEX
  8
0
 62
4
 10
-5.34501580E+01
 20
3.05535813E+02
  0
VERTEX
  8
0
 62
4
 10
-5.31999981E+01
 20
3.05469723E+02
  0
VERTEX
  8
0
 62
4
 10
-5.29369002E+01
 20
3.05412927E+02
  0
VERTEX
  8
0
 62
4
 10
-5.26628666E+01
 20
3.05365856E+02
  0
VERTEX
  8
0
 62
4
 10
-5.23799829E+01
 20
3.05328868E+02
  0
VERTEX
  8
0
 62
4
 10
-5.20904019E+01
 20
3.05302245E+02
  0
VERTEX
  8
0
 62
4
 10
-5.17963276E+01
 20
3.05286190E+02
  0
VERTEX
  8
0
 62
4
 10
-5.14999981E+01
 20
3.05280825E+02
  0
VERTEX
  8
0
 62
4
 10
-5.12036686E+01
 20
3.05286190E+02
  0
VERTEX
  8
0
 62
4
 10
-5.09095943E+01
 20
3.05302245E+02
  0
VERTEX
  8
0
 62
4
 10
-5.06200133E+01
 20
3.05328868E+02
  0
VERTEX
  8
0
 62
4
 10
-5.03371296E+01
 20
3.05365856E+02
  0
VERTEX
  8
0
 62
4
 10
-5.00630960E+01
 20
3.05412927E+02
  0
VERTEX
  8
0
 62
4
 10
-4.97999981E+01
 20
3.05469723E+02
  0
VERTEX
  8
0
 62
4
 10
-4.95498382E+01
 20
3.05535813E+02
  0
VERTEX
  8
0
 62
4
 10
-4.93145202E+01
 20
3.05610692E+02
  0
VERTEX
  8
0
 62
4
 10
-4.90958350E+01
 20
3.05693792E+02
  0
VERTEX
  8
0
 62
4
 10
-4.88954470E+01
 20
3.05784479E+02
  0
VERTEX
  8
0
 62
4
 10
-4.87148812E+01
 20
3.05882064E+02
  0
VERTEX
  8
0
 62
4
 10
-4.85555117E+01
 20
3.05985803E+02
  0
VERTEX
  8
0
 62
4
 10
-4.84185516E+01
 20
3.06094908E+02
  0
VERTEX
  8
0
 62
4
 10
-4.83050432E+01
 20
3.06208548E+02
  0
VERTEX
  8
0
 62
4
 10
-4.82158503E+01
 20
3.06325858E+02
  0
VERTEX
  8
0
 62
4
 10
-4.81516517E+01
 20
3.06445946E+02
  0
VERTEX
  8
0
 62
4
 10
-4.81129361E+01
 20
3.06567896E+02
  0
VERTEX
  8
0
 62
4
 10
-4.80999981E+01
 20
3.06690782E+02
  0
VERTEX
  8
0
 62
4
 10
-4.81129361E+01
 20
3.06813668E+02
  0
VERTEX
  8
0
 62
4
 10
-4.81516517E+01
 20
3.06935618E+02
  0
VERTEX
  8
0
 62
4
 10
-4.82158503E+01
 20
3.07055706E+02
  0
VERTEX
  8
0
 62
4
 10
-4.83050432E+01
 20
3.07173016E+02
  0
VERTEX
  8
0
 62
4
 10
-4.84185516E+01
 20
3.07286656E+02
  0
VERTEX
  8
0
 62
4
 10
-4.85555117E+01
 20
3.07395761E+02
  0
VERTEX
  8
0
 62
4
 10
-4.87148811E+01
 20
3.07499500E+02
  0
VERTEX
  8
0
 62
4
 10
-4.88954470E+01
 20
3.07597085E+02
  0
VERTEX
  8
0
 62
4
 10
-4.90958350E+01
 20
3.07687772E+02
  0
VERTEX
  8
0
 62
4
 10
-4.93145202E+01
 20
3.07770872E+02
  0
VERTEX
  8
0
 62
4
 10
-4.95498382E+01
 20
3.07845751E+02
  0
VERTEX
  8
0
 62
4
 10
-4.97999981E+01
 20
3.07911841E+02
  0
VERTEX
  8
0
 62
4
 10
-5.00630960E+01
 20
3.07968637E+02
  0
VERTEX
  8
0
 62
4
 10
-5.03371296E+01
 20
3.08015708E+02
  0
VERTEX
  8
0
 62
4
 10
-5.06200133E+01
 20
3.08052696E+02
  0
VERTEX
  8
0
 62
4
 10
-5.09095943E+01
 20
3.08079319E+02
  0
VERTEX
  8
0
 62
4
 10
-5.12036686E+01
 20
3.08095374E+02
  0
VERTEX
  8
0
 62
4
 10
-5.14999981E+01
 20
3.08100739E+02
  0
VERTEX
  8
0
 62
4
 10
-5.17963276E+01
 20
3.08095374E+02
  0
VERTEX
  8
0
 62
4
 10
-5.20904019E+01
 20
3.08079319E+02
  0
VERTEX
  8
0
 62
4
 10
-5.23799829E+01
 20
3.08052696E+02
  0
VERTEX
  8
0
 62
4
 10
-5.26628666E+01
 20
3.08015708E+02
  0
VERTEX
  8
0
 62
4
 10
-5.29369002E+01
 20
3.07968637E+02
  0
VERTEX
  8
0
 62
4
 10
-5.31999981E+01
 20
3.07911841E+02
  0
VERTEX
  8
0
 62
4
 10
-5.34501580E+01
 20
3.07845751E+02
  0
VERTEX
  8
0
 62
4
 10
-5.36854760E+01
 20
3.07770872E+02
  0
VERTEX
  8
0
 62
4
 10
-5.39041612E+01
 20
3.07687772E+02
  0
VERTEX
  8
0
 62
4
 10
-5.41045492E+01
 20
3.07597085E+02
  0
VERTEX
  8
0
 62
4
 10
-5.42851151E+01
 20
3.07499500E+02
  0
VERTEX
  8
0
 62
4
 10
-5.44444845E+01
 20
3.07395761E+02
  0
VERTEX
  8
0
 62
4
 10
-5.45814446E+01
 20
3.07286656E+02
  0
VERTEX
  8
0
 62
4
 10
-5.46949530E+01
 20
3.07173016E+02
  0
VERTEX
  8
0
 62
4
 10
-5.47841459E+01
 20
3.07055706E+02
  0
VERTEX
  8
0
 62
4
 10
-5.48483445E+01
 20
3.06935618E+02
  0
VERTEX
  8
0
 62
4
 10
-5.48870601E+01
 20
3.06813668E+02
  0
VERTEX
  8
0
 62
4
 10
-5.48999981E+01
 20
3.06690782E+02
  0
SEQEND
  8
0
  0
ARC
  8
0
 62
4
 10
-5.77470563E+01
 20
3.20720686E+02
 40
1.64201370E+01
 50
2.90122188E+02
 51
2.99216401E+02
  0
ARC
  8
0
 62
4
 10
-4.52529393E+01
 20
3.20720687E+02
 40
1.64201386E+01
 50
2.40783600E+02
 51
2.49877812E+02
  0
LINE
  8
0
  6
CENTER
 62
6
 10
-6.89999981E+01
 20
3.08629730E+02
 11
-6.39999981E+01
 21
3.08629730E+02
  0
LINE
  8
0
 62
4
 10
-4.83281074E+01
 20
3.06183040E+02
 11
-4.39999981E+01
 21
3.06183040E+02
  0
LINE
  8
0
 62
4
 10
-5.48499981E+01
 20
3.06183040E+02
 11
-5.46718888E+01
 21
3.06183040E+02
  0
LINE
  8
0
 62
4
 10
-5.48499981E+01
 20
3.05793701E+02
 11
-5.41230474E+01
 21
3.05793701E+02
  0
LINE
  8
0
 62
4
 10
-5.58005073E+01
 20
3.04134928E+02
 11
-4.89999981E+01
 21
3.04134928E+02
  0
LINE
  8
0
 62
4
 10
-5.64890677E+01
 20
3.03860757E+02
 11
-4.39999981E+01
 21
3.03860757E+02
  0
LINE
  8
0
  6
CENTER
 62
6
 10
-5.89999981E+01
 20
3.09678303E+02
 11
-5.89999981E+01
 21
3.04678303E+02
  0
LINE
  8
0
  6
CENTER
 62
6
 10
-6.14999981E+01
 20
3.07178303E+02
 11
-5.64999981E+01
 21
3.07178303E+02
  0
LINE
  8
0
  6
CENTER
 62
6
 10
-5.14999981E+01
 20
3.11129730E+02
 11
-5.14999981E+01
 21
3.06129730E+02
  0
LINE
  8
0
  6
CENTER
 62
6
 10
-5.39999981E+01
 20
3.08629730E+02
 11
-4.89999981E+01
 21
3.08629730E+02
  0
LINE
  8
0
 62
4
 10
-4.89999981E+01
 20
3.05284237E+02
 11
-4.39999981E+01
 21
3.05284237E+02
  0
LINE
  8
0
 62
7
 10
-1.39999968E+02
 20
2.56936768E+02
 11
-1.39999968E+02
 21
3.04063293E+02
  0
LINE
  8
0
  6
CENTER
 62
2
 10
-2.07798323E+02
 20
2.80500000E+02
 11
6.68777752E+01
 21
2.80500000E+02
  0
LINE
  8
0
  6
CENTER
 62
2
 10
2.99999638E+01
 20
2.70047729E+02
 11
2.99999638E+01
 21
2.55434341E+02
  0
LINE
  8
0
  6
CENTER
 62
2
 10
2.18053989E+01
 20
2.62500000E+02
 11
3.80744076E+01
 21
2.62500000E+02
  0
LINE
  8
0
 62
7
 10
-1.98999998E+02
 20
2.68999939E+02
 11
-1.98999998E+02
 21
2.91999695E+02
  0
LINE
  8
0
 62
7
 10
-1.61999983E+02
 20
2.67500000E+02
 11
-1.61999983E+02
 21
2.93500000E+02
  0
LINE
  8
0
 62
7
 10
-1.97500013E+02
 20
2.93499969E+02
 11
-1.87499983E+02
 21
2.93499969E+02
  0
LINE
  8
0
 62
7
 10
-1.97499983E+02
 20
2.67500000E+02
 11
-1.97499983E+02
 21
2.93500000E+02
  0
LINE
  8
0
 62
7
 10
-1.98999842E+02
 20
2.91999805E+02
 11
-1.97499828E+02
 21
2.93499819E+02
  0
LINE
  8
0
 62
2
 10
-1.98320021E+02
 20
2.92679962E+02
 11
-1.87499983E+02
 21
2.92679962E+02
  0
LINE
  8
0
 62
7
 10
-1.97500013E+02
 20
2.67500000E+02
 11
-1.87499983E+02
 21
2.67500000E+02
  0
LINE
  8
0
 62
7
 10
-1.99000029E+02
 20
2.68999961E+02
 11
-1.97500016E+02
 21
2.67499948E+02
  0
LINE
  8
0
 62
2
 10
-1.98320021E+02
 20
2.68320007E+02
 11
-1.87499983E+02
 21
2.68320007E+02
  0
LINE
  8
0
 62
7
 10
3.17321255E+01
 20
2.62499859E+02
 11
3.08661016E+01
 21
2.63999866E+02
  0
LINE
  8
0
 62
7
 10
3.08660030E+01
 20
2.63999985E+02
 11
2.91339130E+01
 21
2.63999985E+02
  0
LINE
  8
0
 62
7
 10
2.82682668E+01
 20
2.62499763E+02
 11
2.91342754E+01
 21
2.63999743E+02
  0
LINE
  8
0
 62
7
 10
2.91339523E+01
 20
2.60999936E+02
 11
2.82678826E+01
 21
2.62500021E+02
  0
LINE
  8
0
 62
7
 10
3.08660030E+01
 20
2.60999954E+02
 11
2.91339130E+01
 21
2.60999954E+02
  0
LINE
  8
0
 62
7
 10
3.17322727E+01
 20
2.62499851E+02
 11
3.08662412E+01
 21
2.60999831E+02
  0
LINE
  8
0
 62
7
 10
-1.58999983E+02
 20
2.80500000E+02
 11
-1.58999983E+02
 21
2.93500000E+02
  0
LINE
  8
0
 62
7
 10
-1.58999983E+02
 20
2.80500000E+02
 11
-1.58999983E+02
 21
2.67500000E+02
  0
LINE
  8
0
  6
CENTER
 62
2
 10
-9.49999676E+01
 20
2.70047729E+02
 11
-9.49999676E+01
 21
2.55434341E+02
  0
LINE
  8
0
  6
CENTER
 62
2
 10
-1.03194548E+02
 20
2.62499969E+02
 11
-8.69255505E+01
 21
2.62499969E+02
  0
LINE
  8
0
 62
7
 10
-9.32678671E+01
 20
2.62499877E+02
 11
-9.41338910E+01
 21
2.63999884E+02
  0
LINE
  8
0
 62
7
 10
-9.41339550E+01
 20
2.63999954E+02
 11
-9.58660259E+01
 21
2.63999954E+02
  0
LINE
  8
0
 62
7
 10
-9.67317452E+01
 20
2.62499721E+02
 11
-9.58657366E+01
 21
2.63999701E+02
  0
LINE
  8
0
 62
7
 10
-9.58658952E+01
 20
2.60999949E+02
 11
-9.67319649E+01
 21
2.62500035E+02
  0
LINE
  8
0
 62
7
 10
-9.41339550E+01
 20
2.60999954E+02
 11
-9.58660259E+01
 21
2.60999954E+02
  0
LINE
  8
0
 62
7
 10
-9.32677088E+01
 20
2.62499862E+02
 11
-9.41337556E+01
 21
2.60999816E+02
  0
LINE
  8
0
  6
CENTER
 62
2
 10
6.17792034E+01
 20
2.38499985E+02
 11
-1.26524473E+02
 21
2.38499985E+02
  0
LINE
  8
0
 62
7
 10
2.29999981E+01
 20
2.43000000E+02
 11
1.49999981E+01
 21
2.43000000E+02
  0
LINE
  8
0
 62
7
 10
2.29999981E+01
 20
2.33999954E+02
 11
-1.90734862E-06
 21
2.33999954E+02
  0
LINE
  8
0
 62
7
 10
-1.19999968E+02
 20
3.13500061E+02
 11
-1.19999968E+02
 21
2.47500046E+02
  0
LINE
  8
0
  6
CENTER
 62
2
 10
-9.02976360E+01
 20
2.92499969E+02
 11
-1.18094908E+02
 21
2.92499969E+02
  0
LINE
  8
0
 62
7
 10
-1.25499937E+02
 20
3.05499939E+02
 11
-1.23999922E+02
 21
3.05499939E+02
  0
LINE
  8
0
 62
7
 10
-1.23999983E+02
 20
2.25619736E+02
 11
-1.23999983E+02
 21
3.35380280E+02
  0
LINE
  8
0
 62
7
 10
-1.44999968E+02
 20
2.58000046E+02
 11
-1.44999968E+02
 21
3.03000061E+02
  0
LINE
  8
0
 62
7
 10
-1.23508648E+02
 20
3.35880468E+02
 11
-8.79999119E+01
 21
3.36500275E+02
  0
LINE
  8
0
 62
7
 10
-1.44499937E+02
 20
3.03499969E+02
 11
-1.39999937E+02
 21
3.03499969E+02
  0
LINE
  8
0
 62
7
 10
-1.39517424E+02
 20
3.04528198E+02
 11
-1.25999968E+02
 21
3.05000238E+02
  0
LINE
  8
0
 62
7
 10
-1.25499937E+02
 20
2.55499954E+02
 11
-1.23999922E+02
 21
2.55499954E+02
  0
LINE
  8
0
 62
7
 10
-1.23508638E+02
 20
2.25119980E+02
 11
-8.79999320E+01
 21
2.24500173E+02
  0
LINE
  8
0
 62
7
 10
-1.44499937E+02
 20
2.57499969E+02
 11
-1.39999937E+02
 21
2.57499969E+02
  0
LINE
  8
0
 62
7
 10
-1.39517403E+02
 20
2.56472353E+02
 11
-1.25999946E+02
 21
2.56000313E+02
  0
LINE
  8
0
 62
7
 10
-8.79999981E+01
 20
3.36500183E+02
 11
-8.79999981E+01
 21
2.24499985E+02
  0
LINE
  8
0
  6
CENTER
 62
2
 10
-1.03999983E+02
 20
2.78394165E+02
 11
-1.03999983E+02
 21
3.06323273E+02
  0
LINE
  8
0
 62
7
 10
-1.17999937E+02
 20
2.45499954E+02
 11
-8.79999523E+01
 21
2.45499954E+02
  0
LINE
  8
0
 62
7
 10
-1.17999937E+02
 20
3.15499939E+02
 11
-8.79999523E+01
 21
3.15499939E+02
  0
LINE
  8
0
 62
7
 10
-1.25999968E+02
 20
2.56000107E+02
 11
-1.25999968E+02
 21
3.05000031E+02
  0
LINE
  8
0
 62
7
 10
5.49999523E+01
 20
2.47499893E+02
 11
5.49999523E+01
 21
3.13499908E+02
  0
LINE
  8
0
  6
CENTER
 62
2
 10
2.52976627E+01
 20
2.92500000E+02
 11
5.30949116E+01
 21
2.92500000E+02
  0
LINE
  8
0
 62
7
 10
6.04999371E+01
 20
2.55500000E+02
 11
5.89999371E+01
 21
2.55500000E+02
  0
LINE
  8
0
 62
7
 10
5.89999676E+01
 20
3.35380219E+02
 11
5.89999676E+01
 21
2.25619629E+02
  0
LINE
  8
0
 62
7
 10
5.85086483E+01
 20
2.25119596E+02
 11
2.29999528E+01
 21
2.24499784E+02
  0
LINE
  8
0
 62
7
 10
6.04999371E+01
 20
3.05500000E+02
 11
5.89999371E+01
 21
3.05500000E+02
  0
LINE
  8
0
 62
7
 10
5.85087030E+01
 20
3.35880144E+02
 11
2.29999799E+01
 21
3.36499945E+02
  0
LINE
  8
0
 62
7
 10
2.29999981E+01
 20
2.24499756E+02
 11
2.29999981E+01
 21
3.36499969E+02
  0
LINE
  8
0
  6
CENTER
 62
2
 10
3.89999676E+01
 20
2.78394135E+02
 11
3.89999676E+01
 21
3.06323273E+02
  0
LINE
  8
0
 62
7
 10
5.29999371E+01
 20
3.15500000E+02
 11
2.29999332E+01
 21
3.15500000E+02
  0
LINE
  8
0
 62
7
 10
5.29999371E+01
 20
2.45500000E+02
 11
2.29999332E+01
 21
2.45500000E+02
  0
LINE
  8
0
 62
7
 10
6.09999599E+01
 20
3.04999847E+02
 11
6.09999599E+01
 21
2.55999908E+02
  0
LINE
  8
0
 62
7
 10
-1.47000013E+02
 20
2.95500061E+02
 11
-1.44999968E+02
 21
2.95500061E+02
  0
LINE
  8
0
 62
7
 10
-1.55999968E+02
 20
2.67500000E+02
 11
-1.55999968E+02
 21
2.93500000E+02
  0
LINE
  8
0
 62
7
 10
-1.46999907E+02
 20
2.65499954E+02
 11
-1.44999983E+02
 21
2.65499954E+02
  0
LINE
  8
0
 62
7
 10
-8.79999981E+01
 20
2.26999985E+02
 11
-1.30735169E+01
 21
2.26999985E+02
  0
LINE
  8
0
 62
7
 10
-1.58999983E+02
 20
2.93500000E+02
 11
-1.49000059E+02
 21
2.93500000E+02
  0
LINE
  8
0
 62
7
 10
-1.58999983E+02
 20
2.67500000E+02
 11
-1.48999952E+02
 21
2.67500000E+02
  0
LINE
  8
0
 62
7
 10
-1.48999974E+02
 20
2.67500015E+02
 11
-1.46999907E+02
 21
2.65499948E+02
  0
LINE
  8
0
 62
7
 10
-1.49000040E+02
 20
2.93500058E+02
 11
-1.47000016E+02
 21
2.95500081E+02
  0
LINE
  8
0
  6
CENTER
 62
2
 10
6.17792034E+01
 20
3.22500031E+02
 11
-1.26524473E+02
 21
3.22500031E+02
  0
LINE
  8
0
 62
7
 10
2.29999981E+01
 20
3.18000000E+02
 11
-4.39999981E+01
 21
3.18000000E+02
  0
LINE
  8
0
 62
7
 10
2.29999981E+01
 20
3.27000031E+02
 11
-4.39999981E+01
 21
3.27000031E+02
  0
LINE
  8
0
 62
7
 10
-8.79999981E+01
 20
3.34000000E+02
 11
-5.70735708E+01
 21
3.34000000E+02
  0
LINE
  8
0
 62
7
 10
-1.61999983E+02
 20
2.92679962E+02
 11
-1.58999983E+02
 21
2.92679962E+02
  0
LINE
  8
0
 62
7
 10
-1.61999983E+02
 20
2.68320007E+02
 11
-1.58999983E+02
 21
2.68320007E+02
  0
CIRCLE
  8
0
 62
7
 10
2.99999638E+01
 20
2.62500000E+02
 40
5.00000000E+00
  0
CIRCLE
  8
0
 62
7
 10
-9.49999676E+01
 20
2.62499969E+02
 40
5.00000000E+00
  0
ARC
  8
0
 62
7
 10
-1.23499952E+02
 20
3.35380310E+02
 40
5.00000000E-01
 50
9.10002493E+01
 51
1.79999951E+02
  0
ARC
  8
0
 62
7
 10
-1.44499952E+02
 20
3.03000061E+02
 40
5.00000000E-01
 50
8.99999818E+01
 51
1.79999951E+02
  0
ARC
  8
0
 62
7
 10
-1.39499952E+02
 20
3.04028320E+02
 40
5.00000000E-01
 50
9.20007356E+01
 51
1.79999951E+02
  0
ARC
  8
0
 62
7
 10
-1.25499937E+02
 20
3.05000061E+02
 40
5.00000000E-01
 50
8.99999818E+01
 51
1.79999951E+02
  0
ARC
  8
0
 62
7
 10
-1.39499952E+02
 20
2.56971817E+02
 40
5.00000000E-01
 50
1.79999977E+02
 51
2.67999192E+02
  0
ARC
  8
0
 62
7
 10
-1.25499937E+02
 20
2.56000061E+02
 40
5.00000000E-01
 50
1.79999977E+02
 51
2.69999974E+02
  0
ARC
  8
0
 62
7
 10
-1.44499952E+02
 20
2.58000046E+02
 40
5.00000000E-01
 50
1.79999977E+02
 51
2.69999974E+02
  0
ARC
  8
0
 62
7
 10
-1.23499952E+02
 20
2.25619736E+02
 40
5.00000000E-01
 50
1.79999977E+02
 51
2.68999679E+02
  0
CIRCLE
  8
0
 62
7
 10
-1.03999952E+02
 20
2.92500061E+02
 40
9.25000000E+00
  0
ARC
  8
0
 62
7
 10
-1.17999937E+02
 20
3.13500061E+02
 40
2.00000000E+00
 50
8.99999818E+01
 51
1.79999951E+02
  0
ARC
  8
0
 62
7
 10
-1.17999937E+02
 20
2.47500076E+02
 40
2.00000000E+00
 50
1.79999977E+02
 51
2.70000028E+02
  0
CIRCLE
  8
0
 62
7
 10
-1.03999952E+02
 20
2.92500000E+02
 40
1.10000000E+01
  0
CIRCLE
  8
0
 62
2
 10
-1.03999983E+02
 20
2.92500000E+02
 40
1.04775000E+01
  0
ARC
  8
0
 62
7
 10
5.84999638E+01
 20
2.25619675E+02
 40
5.00000000E-01
 50
2.71000258E+02
 51
3.59999959E+02
  0
ARC
  8
0
 62
7
 10
6.04999561E+01
 20
2.55999924E+02
 40
5.00000000E-01
 50
2.69999991E+02
 51
3.59999959E+02
  0
ARC
  8
0
 62
7
 10
6.04999561E+01
 20
3.04999908E+02
 40
5.00000000E-01
 50
3.59999986E+02
 51
8.99999549E+01
  0
ARC
  8
0
 62
7
 10
5.84999638E+01
 20
3.35380280E+02
 40
5.00000000E-01
 50
3.59999986E+02
 51
8.89996737E+01
  0
CIRCLE
  8
0
 62
7
 10
3.89999409E+01
 20
2.92500061E+02
 40
9.25000000E+00
  0
ARC
  8
0
 62
7
 10
5.29999561E+01
 20
2.47499924E+02
 40
2.00000000E+00
 50
2.69999991E+02
 51
3.59999959E+02
  0
ARC
  8
0
 62
7
 10
5.29999561E+01
 20
3.13499939E+02
 40
2.00000000E+00
 50
3.59999986E+02
 51
9.00000094E+01
  0
CIRCLE
  8
0
 62
7
 10
3.89999409E+01
 20
2.92500000E+02
 40
1.10000000E+01
  0
CIRCLE
  8
0
 62
2
 10
3.89999943E+01
 20
2.92500000E+02
 40
1.04775000E+01
  0
CIRCLE
  8
0
 62
7
 10
-9.49999676E+01
 20
2.62499969E+02
 40
2.59999990E+00
  0
CIRCLE
  8
0
 62
7
 10
2.99999638E+01
 20
2.62500000E+02
 40
2.59999990E+00
  0
LINE
  8
0
 62
2
 10
-5.05000456E+01
 20
-2.65930275E+02
 11
-5.05000456E+01
 21
-2.65999985E+02
  0
LINE
  8
0
 62
4
 10
-7.65000456E+01
 20
-2.23100758E+02
 11
-6.15000456E+01
 21
-2.23100758E+02
  0
LINE
  8
0
 62
4
 10
-7.85000456E+01
 20
-2.44913216E+02
 11
-5.95000456E+01
 21
-2.44913216E+02
  0
LINE
  8
0
 62
4
 10
-8.10000456E+01
 20
-2.49804222E+02
 11
-8.10000456E+01
 21
-2.61076519E+02
  0
LINE
  8
0
 62
4
 10
-7.85000456E+01
 20
-2.44913216E+02
 11
-7.85000456E+01
 21
-2.48304222E+02
  0
LINE
  8
0
 62
4
 10
-6.15000456E+01
 20
-2.23100758E+02
 11
-6.15000456E+01
 21
-2.44913216E+02
  0
LINE
  8
0
 62
4
 10
-7.65000456E+01
 20
-2.23100758E+02
 11
-7.65000456E+01
 21
-2.44913216E+02
  0
LINE
  8
0
 62
4
 10
-5.95000456E+01
 20
-2.44913216E+02
 11
-5.95000456E+01
 21
-2.48304222E+02
  0
LINE
  8
0
 62
4
 10
-7.65000456E+01
 20
-2.44852145E+02
 11
-6.15000456E+01
 21
-2.44852145E+02
  0
LINE
  8
0
 62
4
 10
-4.20000456E+01
 20
-2.49804222E+02
 11
-4.20000456E+01
 21
-2.61076519E+02
  0
LINE
  8
0
 62
4
 10
-7.80000456E+01
 20
-2.65969605E+02
 11
-4.50000456E+01
 21
-2.65969605E+02
  0
LINE
  8
0
 62
4
 10
-8.10000456E+01
 20
-2.61076519E+02
 11
-4.20000456E+01
 21
-2.61076519E+02
  0
LINE
  8
0
 62
4
 10
-8.10000456E+01
 20
-2.59717057E+02
 11
-4.20000456E+01
 21
-2.59717057E+02
  0
LINE
  8
0
 62
4
 10
-7.95000456E+01
 20
-2.48304222E+02
 11
-4.35000456E+01
 21
-2.48304222E+02
  0
LINE
  8
0
 62
4
 10
-9.60000456E+01
 20
-2.24910934E+02
 11
-9.10000456E+01
 21
-2.24910934E+02
  0
LINE
  8
0
 62
4
 10
-8.55000456E+01
 20
-2.38708267E+02
 11
-7.70000456E+01
 21
-2.38708267E+02
  0
LINE
  8
0
 62
4
 10
-7.65000456E+01
 20
-2.24708267E+02
 11
-8.55000456E+01
 21
-2.24708267E+02
  0
LINE
  8
0
 62
4
 10
-8.60000456E+01
 20
-2.25208267E+02
 11
-8.60000456E+01
 21
-2.38208267E+02
  0
LINE
  8
0
 62
4
 10
-9.60000456E+01
 20
-2.24910934E+02
 11
-9.60000456E+01
 21
-2.38514613E+02
  0
LINE
  8
0
 62
4
 10
-9.10000456E+01
 20
-2.24910934E+02
 11
-9.10000456E+01
 21
-2.38514613E+02
  0
LINE
  8
0
 62
4
 10
-9.10000456E+01
 20
-2.25458267E+02
 11
-8.60000456E+01
 21
-2.25458267E+02
  0
LINE
  8
0
 62
4
 10
-9.10000456E+01
 20
-2.37958267E+02
 11
-8.60000456E+01
 21
-2.37958267E+02
  0
LINE
  8
0
 62
4
 10
-8.95000456E+01
 20
-2.25458267E+02
 11
-8.95000456E+01
 21
-2.37958267E+02
  0
LINE
  8
0
 62
4
 10
-8.95000456E+01
 20
-2.25958267E+02
 11
-8.60000456E+01
 21
-2.25958267E+02
  0
LINE
  8
0
 62
4
 10
-8.95000456E+01
 20
-2.37458267E+02
 11
-8.60000456E+01
 21
-2.37458267E+02
  0
ARC
  8
0
 62
4
 10
-8.55000413E+01
 20
-2.25208271E+02
 40
5.00004272E-01
 50
9.00004895E+01
 51
1.79999510E+02
  0
ARC
  8
0
 62
4
 10
-7.70000498E+01
 20
-2.39208271E+02
 40
5.00004272E-01
 50
4.89585868E-04
 51
8.99995103E+01
  0
ARC
  8
0
 62
4
 10
-4.35000484E+01
 20
-2.49804225E+02
 40
1.50000284E+00
 50
1.08554370E-04
 51
8.99998913E+01
  0
ARC
  8
0
 62
4
 10
-8.55000498E+01
 20
-2.38208271E+02
 40
4.99995728E-01
 50
1.79999510E+02
 51
2.70000490E+02
  0
ARC
  8
0
 62
4
 10
-7.95000427E+01
 20
-2.49804225E+02
 40
1.50000284E+00
 50
9.00001085E+01
 51
1.79999892E+02
  0
LINE
  8
0
 62
4
 10
-4.20000456E+01
 20
-2.61076519E+02
 11
-4.50000456E+01
 21
-2.65969605E+02
  0
LINE
  8
0
 62
4
 10
-8.10000456E+01
 20
-2.61076519E+02
 11
-7.80000456E+01
 21
-2.65969605E+02
  0
LINE
  8
0
  6
CENTER
 62
6
 10
-7.50640509E+01
 20
-2.52804612E+02
 11
-6.31177620E+01
 21
-2.52804612E+02
  0
LINE
  8
0
  6
CENTER
 62
6
 10
-6.90000456E+01
 20
-2.48201077E+02
 11
-6.90000456E+01
 21
-2.59168484E+02
  0
POLYLINE
  8
0
 62
4
 66
1
  0
VERTEX
  8
0
 62
4
 10
-7.17327933E+01
 20
-2.51449101E+02
  0
VERTEX
  8
0
 62
4
 10
-7.19802649E+01
 20
-2.51685043E+02
  0
VERTEX
  8
0
 62
4
 10
-7.22044104E+01
 20
-2.51940463E+02
  0
VERTEX
  8
0
 62
4
 10
-7.24034754E+01
 20
-2.52213361E+02
  0
VERTEX
  8
0
 62
4
 10
-7.25759019E+01
 20
-2.52501602E+02
  0
VERTEX
  8
0
 62
4
 10
-7.27203402E+01
 20
-2.52802929E+02
  0
VERTEX
  8
0
 62
4
 10
-7.28356599E+01
 20
-2.53114984E+02
  0
VERTEX
  8
0
 62
4
 10
-7.29209583E+01
 20
-2.53435324E+02
  0
VERTEX
  8
0
 62
4
 10
-7.29755679E+01
 20
-2.53761442E+02
  0
VERTEX
  8
0
 62
4
 10
-7.29990611E+01
 20
-2.54090786E+02
  0
VERTEX
  8
0
 62
4
 10
-7.29912542E+01
 20
-2.54420778E+02
  0
VERTEX
  8
0
 62
4
 10
-7.29522082E+01
 20
-2.54748835E+02
  0
VERTEX
  8
0
 62
4
 10
-7.28822287E+01
 20
-2.55072389E+02
  0
VERTEX
  8
0
 62
4
 10
-7.27818634E+01
 20
-2.55388908E+02
  0
VERTEX
  8
0
 62
4
 10
-7.26518980E+01
 20
-2.55695915E+02
  0
VERTEX
  8
0
 62
4
 10
-7.24933496E+01
 20
-2.55991006E+02
  0
VERTEX
  8
0
 62
4
 10
-7.23074592E+01
 20
-2.56271871E+02
  0
VERTEX
  8
0
 62
4
 10
-7.20956818E+01
 20
-2.56536314E+02
  0
VERTEX
  8
0
 62
4
 10
-7.18596749E+01
 20
-2.56782263E+02
  0
VERTEX
  8
0
 62
4
 10
-7.16012858E+01
 20
-2.57007794E+02
  0
VERTEX
  8
0
 62
4
 10
-7.13225368E+01
 20
-2.57211141E+02
  0
VERTEX
  8
0
 62
4
 10
-7.10256098E+01
 20
-2.57390714E+02
  0
VERTEX
  8
0
 62
4
 10
-7.07128287E+01
 20
-2.57545105E+02
  0
VERTEX
  8
0
 62
4
 10
-7.03866417E+01
 20
-2.57673108E+02
  0
VERTEX
  8
0
 62
4
 10
-7.00496019E+01
 20
-2.57773720E+02
  0
VERTEX
  8
0
 62
4
 10
-6.97043472E+01
 20
-2.57846153E+02
  0
VERTEX
  8
0
 62
4
 10
-6.93535799E+01
 20
-2.57889841E+02
  0
VERTEX
  8
0
 62
4
 10
-6.90000456E+01
 20
-2.57904442E+02
  0
VERTEX
  8
0
 62
4
 10
-6.86465112E+01
 20
-2.57889841E+02
  0
VERTEX
  8
0
 62
4
 10
-6.82957440E+01
 20
-2.57846153E+02
  0
VERTEX
  8
0
 62
4
 10
-6.79504893E+01
 20
-2.57773720E+02
  0
VERTEX
  8
0
 62
4
 10
-6.76134495E+01
 20
-2.57673108E+02
  0
VERTEX
  8
0
 62
4
 10
-6.72872625E+01
 20
-2.57545105E+02
  0
VERTEX
  8
0
 62
4
 10
-6.69744814E+01
 20
-2.57390713E+02
  0
VERTEX
  8
0
 62
4
 10
-6.66775544E+01
 20
-2.57211141E+02
  0
VERTEX
  8
0
 62
4
 10
-6.63988054E+01
 20
-2.57007794E+02
  0
VERTEX
  8
0
 62
4
 10
-6.61404163E+01
 20
-2.56782263E+02
  0
VERTEX
  8
0
 62
4
 10
-6.59044094E+01
 20
-2.56536314E+02
  0
VERTEX
  8
0
 62
4
 10
-6.56926320E+01
 20
-2.56271871E+02
  0
VERTEX
  8
0
 62
4
 10
-6.55067416E+01
 20
-2.55991006E+02
  0
VERTEX
  8
0
 62
4
 10
-6.53481932E+01
 20
-2.55695915E+02
  0
VERTEX
  8
0
 62
4
 10
-6.52182278E+01
 20
-2.55388908E+02
  0
VERTEX
  8
0
 62
4
 10
-6.51178625E+01
 20
-2.55072389E+02
  0
VERTEX
  8
0
 62
4
 10
-6.50478830E+01
 20
-2.54748835E+02
  0
VERTEX
  8
0
 62
4
 10
-6.50088370E+01
 20
-2.54420778E+02
  0
VERTEX
  8
0
 62
4
 10
-6.50010301E+01
 20
-2.54090786E+02
  0
VERTEX
  8
0
 62
4
 10
-6.50245233E+01
 20
-2.53761442E+02
  0
VERTEX
  8
0
 62
4
 10
-6.50791329E+01
 20
-2.53435324E+02
  0
VERTEX
  8
0
 62
4
 10
-6.51644313E+01
 20
-2.53114984E+02
  0
VERTEX
  8
0
 62
4
 10
-6.52797510E+01
 20
-2.52802929E+02
  0
VERTEX
  8
0
 62
4
 10
-6.54241893E+01
 20
-2.52501602E+02
  0
VERTEX
  8
0
 62
4
 10
-6.55966158E+01
 20
-2.52213361E+02
  0
VERTEX
  8
0
 62
4
 10
-6.57956808E+01
 20
-2.51940463E+02
  0
VERTEX
  8
0
 62
4
 10
-6.60198263E+01
 20
-2.51685043E+02
  0
VERTEX
  8
0
 62
4
 10
-6.62672979E+01
 20
-2.51449101E+02
  0
SEQEND
  8
0
  0
POLYLINE
  8
0
 62
4
 66
1
  0
VERTEX
  8
0
 62
4
 10
-7.30000456E+01
 20
-2.54173556E+02
  0
VERTEX
  8
0
 62
4
 10
-7.29848244E+01
 20
-2.54480308E+02
  0
VERTEX
  8
0
 62
4
 10
-7.29392765E+01
 20
-2.54784725E+02
  0
VERTEX
  8
0
 62
4
 10
-7.28637487E+01
 20
-2.55084490E+02
  0
VERTEX
  8
0
 62
4
 10
-7.27588156E+01
 20
-2.55377323E+02
  0
VERTEX
  8
0
 62
4
 10
-7.26252761E+01
 20
-2.55660995E+02
  0
VERTEX
  8
0
 62
4
 10
-7.24641462E+01
 20
-2.55933346E+02
  0
VERTEX
  8
0
 62
4
 10
-7.22766524E+01
 20
-2.56192304E+02
  0
VERTEX
  8
0
 62
4
 10
-7.20642217E+01
 20
-2.56435898E+02
  0
VERTEX
  8
0
 62
4
 10
-7.18284706E+01
 20
-2.56662274E+02
  0
VERTEX
  8
0
 62
4
 10
-7.15711935E+01
 20
-2.56869710E+02
  0
VERTEX
  8
0
 62
4
 10
-7.12943484E+01
 20
-2.57056626E+02
  0
VERTEX
  8
0
 62
4
 10
-7.10000422E+01
 20
-2.57221600E+02
  0
VERTEX
  8
0
 62
4
 10
-7.06905147E+01
 20
-2.57363377E+02
  0
VERTEX
  8
0
 62
4
 10
-7.03681218E+01
 20
-2.57480878E+02
  0
VERTEX
  8
0
 62
4
 10
-7.00353170E+01
 20
-2.57573207E+02
  0
VERTEX
  8
0
 62
4
 10
-6.96946331E+01
 20
-2.57639663E+02
  0
VERTEX
  8
0
 62
4
 10
-6.93486629E+01
 20
-2.57679740E+02
  0
VERTEX
  8
0
 62
4
 10
-6.90000396E+01
 20
-2.57693133E+02
  0
VERTEX
  8
0
 62
4
 10
-6.86514163E+01
 20
-2.57679739E+02
  0
VERTEX
  8
0
 62
4
 10
-6.83054463E+01
 20
-2.57639661E+02
  0
VERTEX
  8
0
 62
4
 10
-6.79647627E+01
 20
-2.57573204E+02
  0
VERTEX
  8
0
 62
4
 10
-6.76319582E+01
 20
-2.57480874E+02
  0
VERTEX
  8
0
 62
4
 10
-6.73095656E+01
 20
-2.57363373E+02
  0
VERTEX
  8
0
 62
4
 10
-6.70000387E+01
 20
-2.57221595E+02
  0
VERTEX
  8
0
 62
4
 10
-6.67057330E+01
 20
-2.57056620E+02
  0
VERTEX
  8
0
 62
4
 10
-6.64288885E+01
 20
-2.56869703E+02
  0
VERTEX
  8
0
 62
4
 10
-6.61716121E+01
 20
-2.56662267E+02
  0
VERTEX
  8
0
 62
4
 10
-6.59358618E+01
 20
-2.56435890E+02
  0
VERTEX
  8
0
 62
4
 10
-6.57234319E+01
 20
-2.56192295E+02
  0
VERTEX
  8
0
 62
4
 10
-6.55359390E+01
 20
-2.55933337E+02
  0
VERTEX
  8
0
 62
4
 10
-6.53748101E+01
 20
-2.55660985E+02
  0
VERTEX
  8
0
 62
4
 10
-6.52412715E+01
 20
-2.55377313E+02
  0
VERTEX
  8
0
 62
4
 10
-6.51363395E+01
 20
-2.55084480E+02
  0
VERTEX
  8
0
 62
4
 10
-6.50608126E+01
 20
-2.54784714E+02
  0
VERTEX
  8
0
 62
4
 10
-6.50152658E+01
 20
-2.54480297E+02
  0
VERTEX
  8
0
 62
4
 10
-6.50000456E+01
 20
-2.54173545E+02
  0
SEQEND
  8
0
  0
POLYLINE
  8
0
 62
4
 66
1
  0
VERTEX
  8
0
 62
4
 10
-6.56000456E+01
 20
-2.53337911E+02
  0
VERTEX
  8
0
 62
4
 10
-6.56129836E+01
 20
-2.53061223E+02
  0
VERTEX
  8
0
 62
4
 10
-6.56516992E+01
 20
-2.52786640E+02
  0
VERTEX
  8
0
 62
4
 10
-6.57158978E+01
 20
-2.52516254E+02
  0
VERTEX
  8
0
 62
4
 10
-6.58050907E+01
 20
-2.52252120E+02
  0
VERTEX
  8
0
 62
4
 10
-6.59185991E+01
 20
-2.51996250E+02
  0
VERTEX
  8
0
 62
4
 10
-6.60555592E+01
 20
-2.51750591E+02
  0
VERTEX
  8
0
 62
4
 10
-6.62149286E+01
 20
-2.51517012E+02
  0
VERTEX
  8
0
 62
4
 10
-6.63954945E+01
 20
-2.51297291E+02
  0
VERTEX
  8
0
 62
4
 10
-6.65958825E+01
 20
-2.51093101E+02
  0
VERTEX
  8
0
 62
4
 10
-6.68145677E+01
 20
-2.50905995E+02
  0
VERTEX
  8
0
 62
4
 10
-6.70498857E+01
 20
-2.50737398E+02
  0
VERTEX
  8
0
 62
4
 10
-6.73000456E+01
 20
-2.50588591E+02
  0
VERTEX
  8
0
 62
4
 10
-6.75631435E+01
 20
-2.50460709E+02
  0
VERTEX
  8
0
 62
4
 10
-6.78371771E+01
 20
-2.50354725E+02
  0
VERTEX
  8
0
 62
4
 10
-6.81200608E+01
 20
-2.50271444E+02
  0
VERTEX
  8
0
 62
4
 10
-6.84096418E+01
 20
-2.50211500E+02
  0
VERTEX
  8
0
 62
4
 10
-6.87037161E+01
 20
-2.50175351E+02
  0
VERTEX
  8
0
 62
4
 10
-6.90000456E+01
 20
-2.50163270E+02
  0
VERTEX
  8
0
 62
4
 10
-6.92963751E+01
 20
-2.50175351E+02
  0
VERTEX
  8
0
 62
4
 10
-6.95904494E+01
 20
-2.50211500E+02
  0
VERTEX
  8
0
 62
4
 10
-6.98800304E+01
 20
-2.50271444E+02
  0
VERTEX
  8
0
 62
4
 10
-7.01629141E+01
 20
-2.50354725E+02
  0
VERTEX
  8
0
 62
4
 10
-7.04369477E+01
 20
-2.50460709E+02
  0
VERTEX
  8
0
 62
4
 10
-7.07000456E+01
 20
-2.50588591E+02
  0
VERTEX
  8
0
 62
4
 10
-7.09502055E+01
 20
-2.50737398E+02
  0
VERTEX
  8
0
 62
4
 10
-7.11855235E+01
 20
-2.50905995E+02
  0
VERTEX
  8
0
 62
4
 10
-7.14042087E+01
 20
-2.51093101E+02
  0
VERTEX
  8
0
 62
4
 10
-7.16045967E+01
 20
-2.51297291E+02
  0
VERTEX
  8
0
 62
4
 10
-7.17851626E+01
 20
-2.51517012E+02
  0
VERTEX
  8
0
 62
4
 10
-7.19445320E+01
 20
-2.51750591E+02
  0
VERTEX
  8
0
 62
4
 10
-7.20814921E+01
 20
-2.51996250E+02
  0
VERTEX
  8
0
 62
4
 10
-7.21950005E+01
 20
-2.52252120E+02
  0
VERTEX
  8
0
 62
4
 10
-7.22841934E+01
 20
-2.52516254E+02
  0
VERTEX
  8
0
 62
4
 10
-7.23483920E+01
 20
-2.52786640E+02
  0
VERTEX
  8
0
 62
4
 10
-7.23871076E+01
 20
-2.53061223E+02
  0
VERTEX
  8
0
 62
4
 10
-7.24000456E+01
 20
-2.53337911E+02
  0
VERTEX
  8
0
 62
4
 10
-7.23871076E+01
 20
-2.53614599E+02
  0
VERTEX
  8
0
 62
4
 10
-7.23483920E+01
 20
-2.53889182E+02
  0
VERTEX
  8
0
 62
4
 10
-7.22841934E+01
 20
-2.54159568E+02
  0
VERTEX
  8
0
 62
4
 10
-7.21950005E+01
 20
-2.54423702E+02
  0
VERTEX
  8
0
 62
4
 10
-7.20814921E+01
 20
-2.54679572E+02
  0
VERTEX
  8
0
 62
4
 10
-7.19445320E+01
 20
-2.54925231E+02
  0
VERTEX
  8
0
 62
4
 10
-7.17851625E+01
 20
-2.55158810E+02
  0
VERTEX
  8
0
 62
4
 10
-7.16045967E+01
 20
-2.55378531E+02
  0
VERTEX
  8
0
 62
4
 10
-7.14042087E+01
 20
-2.55582721E+02
  0
VERTEX
  8
0
 62
4
 10
-7.11855235E+01
 20
-2.55769827E+02
  0
VERTEX
  8
0
 62
4
 10
-7.09502055E+01
 20
-2.55938424E+02
  0
VERTEX
  8
0
 62
4
 10
-7.07000456E+01
 20
-2.56087231E+02
  0
VERTEX
  8
0
 62
4
 10
-7.04369477E+01
 20
-2.56215113E+02
  0
VERTEX
  8
0
 62
4
 10
-7.01629141E+01
 20
-2.56321097E+02
  0
VERTEX
  8
0
 62
4
 10
-6.98800303E+01
 20
-2.56404378E+02
  0
VERTEX
  8
0
 62
4
 10
-6.95904494E+01
 20
-2.56464322E+02
  0
VERTEX
  8
0
 62
4
 10
-6.92963751E+01
 20
-2.56500471E+02
  0
VERTEX
  8
0
 62
4
 10
-6.90000456E+01
 20
-2.56512552E+02
  0
VERTEX
  8
0
 62
4
 10
-6.87037161E+01
 20
-2.56500471E+02
  0
VERTEX
  8
0
 62
4
 10
-6.84096418E+01
 20
-2.56464322E+02
  0
VERTEX
  8
0
 62
4
 10
-6.81200608E+01
 20
-2.56404378E+02
  0
VERTEX
  8
0
 62
4
 10
-6.78371771E+01
 20
-2.56321097E+02
  0
VERTEX
  8
0
 62
4
 10
-6.75631435E+01
 20
-2.56215113E+02
  0
VERTEX
  8
0
 62
4
 10
-6.73000456E+01
 20
-2.56087231E+02
  0
VERTEX
  8
0
 62
4
 10
-6.70498857E+01
 20
-2.55938424E+02
  0
VERTEX
  8
0
 62
4
 10
-6.68145677E+01
 20
-2.55769827E+02
  0
VERTEX
  8
0
 62
4
 10
-6.65958825E+01
 20
-2.55582721E+02
  0
VERTEX
  8
0
 62
4
 10
-6.63954945E+01
 20
-2.55378531E+02
  0
VERTEX
  8
0
 62
4
 10
-6.62149286E+01
 20
-2.55158810E+02
  0
VERTEX
  8
0
 62
4
 10
-6.60555592E+01
 20
-2.54925231E+02
  0
VERTEX
  8
0
 62
4
 10
-6.59185991E+01
 20
-2.54679572E+02
  0
VERTEX
  8
0
 62
4
 10
-6.58050907E+01
 20
-2.54423702E+02
  0
VERTEX
  8
0
 62
4
 10
-6.57158978E+01
 20
-2.54159568E+02
  0
VERTEX
  8
0
 62
4
 10
-6.56516992E+01
 20
-2.53889182E+02
  0
VERTEX
  8
0
 62
4
 10
-6.56129836E+01
 20
-2.53614599E+02
  0
VERTEX
  8
0
 62
4
 10
-6.56000456E+01
 20
-2.53337911E+02
  0
SEQEND
  8
0
  0
POLYLINE
  8
0
 62
4
 66
1
  0
VERTEX
  8
0
 62
4
 10
-7.23768202E+01
 20
-2.53708343E+02
  0
VERTEX
  8
0
 62
4
 10
-7.23987012E+01
 20
-2.53981255E+02
  0
VERTEX
  8
0
 62
4
 10
-7.23937826E+01
 20
-2.54254850E+02
  0
VERTEX
  8
0
 62
4
 10
-7.23621030E+01
 20
-2.54526971E+02
  0
VERTEX
  8
0
 62
4
 10
-7.23039124E+01
 20
-2.54795471E+02
  0
VERTEX
  8
0
 62
4
 10
-7.22196696E+01
 20
-2.55058235E+02
  0
VERTEX
  8
0
 62
4
 10
-7.21100389E+01
 20
-2.55313190E+02
  0
VERTEX
  8
0
 62
4
 10
-7.19758847E+01
 20
-2.55558325E+02
  0
VERTEX
  8
0
 62
4
 10
-7.18182649E+01
 20
-2.55791707E+02
  0
VERTEX
  8
0
 62
4
 10
-7.16384224E+01
 20
-2.56011497E+02
  0
VERTEX
  8
0
 62
4
 10
-7.14377753E+01
 20
-2.56215960E+02
  0
VERTEX
  8
0
 62
4
 10
-7.12179058E+01
 20
-2.56403486E+02
  0
VERTEX
  8
0
 62
4
 10
-7.09805476E+01
 20
-2.56572594E+02
  0
VERTEX
  8
0
 62
4
 10
-7.07275725E+01
 20
-2.56721952E+02
  0
VERTEX
  8
0
 62
4
 10
-7.04609752E+01
 20
-2.56850382E+02
  0
VERTEX
  8
0
 62
4
 10
-7.01828579E+01
 20
-2.56956871E+02
  0
VERTEX
  8
0
 62
4
 10
-6.98954136E+01
 20
-2.57040579E+02
  0
VERTEX
  8
0
 62
4
 10
-6.96009091E+01
 20
-2.57100847E+02
  0
VERTEX
  8
0
 62
4
 10
-6.93016666E+01
 20
-2.57137198E+02
  0
VERTEX
  8
0
 62
4
 10
-6.90000456E+01
 20
-2.57149347E+02
  0
VERTEX
  8
0
 62
4
 10
-6.86984246E+01
 20
-2.57137198E+02
  0
VERTEX
  8
0
 62
4
 10
-6.83991821E+01
 20
-2.57100847E+02
  0
VERTEX
  8
0
 62
4
 10
-6.81046776E+01
 20
-2.57040579E+02
  0
VERTEX
  8
0
 62
4
 10
-6.78172333E+01
 20
-2.56956871E+02
  0
VERTEX
  8
0
 62
4
 10
-6.75391160E+01
 20
-2.56850382E+02
  0
VERTEX
  8
0
 62
4
 10
-6.72725187E+01
 20
-2.56721952E+02
  0
VERTEX
  8
0
 62
4
 10
-6.70195436E+01
 20
-2.56572594E+02
  0
VERTEX
  8
0
 62
4
 10
-6.67821854E+01
 20
-2.56403486E+02
  0
VERTEX
  8
0
 62
4
 10
-6.65623159E+01
 20
-2.56215960E+02
  0
VERTEX
  8
0
 62
4
 10
-6.63616688E+01
 20
-2.56011497E+02
  0
VERTEX
  8
0
 62
4
 10
-6.61818263E+01
 20
-2.55791707E+02
  0
VERTEX
  8
0
 62
4
 10
-6.60242065E+01
 20
-2.55558325E+02
  0
VERTEX
  8
0
 62
4
 10
-6.58900523E+01
 20
-2.55313190E+02
  0
VERTEX
  8
0
 62
4
 10
-6.57804216E+01
 20
-2.55058235E+02
  0
VERTEX
  8
0
 62
4
 10
-6.56961788E+01
 20
-2.54795471E+02
  0
VERTEX
  8
0
 62
4
 10
-6.56379882E+01
 20
-2.54526971E+02
  0
VERTEX
  8
0
 62
4
 10
-6.56063086E+01
 20
-2.54254850E+02
  0
VERTEX
  8
0
 62
4
 10
-6.56013900E+01
 20
-2.53981255E+02
  0
VERTEX
  8
0
 62
4
 10
-6.56232710E+01
 20
-2.53708343E+02
  0
SEQEND
  8
0
  0
LINE
  8
0
 62
6
 10
-6.72851083E+01
 20
-2.54519547E+02
 11
-7.07149829E+01
 21
-2.51089677E+02
  0
LINE
  8
0
 62
6
 10
-7.07149804E+01
 20
-2.54519549E+02
 11
-6.72851107E+01
 21
-2.51089675E+02
  0
LINE
  8
0
 62
4
 10
-9.60000456E+01
 20
-2.25562569E+02
 11
-9.10000456E+01
 21
-2.25562569E+02
  0
LINE
  8
0
 62
4
 10
-9.60000456E+01
 20
-2.32368941E+02
 11
-9.10000456E+01
 21
-2.32368941E+02
  0
LINE
  8
0
 62
4
 10
-9.60000456E+01
 20
-2.38514613E+02
 11
-9.10000456E+01
 21
-2.38514613E+02
  0
LINE
  8
0
  6
CENTER
 62
6
 10
-5.30000456E+01
 20
-2.45639053E+02
 11
-5.30000456E+01
 21
-2.50212543E+02
  0
LINE
  8
0
 62
4
 10
-4.09848412E+02
 20
-2.63500000E+02
 11
-4.09738149E+02
 21
-2.63268828E+02
  0
LINE
  8
0
 62
4
 10
-4.09856736E+02
 20
-2.63299446E+02
 11
-4.03518041E+02
 21
-2.60343664E+02
  0
LINE
  8
0
 62
4
 10
-4.09856736E+02
 20
-2.63299446E+02
 11
-4.09950257E+02
 21
-2.63500000E+02
  0
LINE
  8
0
 62
4
 10
-4.12963440E+02
 20
-2.29440032E+02
 11
-4.08531595E+02
 21
-2.27373429E+02
  0
LINE
  8
0
 62
4
 10
-3.99368823E+02
 20
-2.23100758E+02
 11
-3.88803367E+02
 21
-2.45758453E+02
  0
LINE
  8
0
 62
4
 10
-4.12963440E+02
 20
-2.29440032E+02
 11
-4.02397983E+02
 21
-2.52097727E+02
  0
LINE
  8
0
 62
4
 10
-4.04210599E+02
 20
-2.52942963E+02
 11
-3.86990751E+02
 21
-2.44913216E+02
  0
LINE
  8
0
 62
4
 10
-4.02820602E+02
 20
-2.51191419E+02
 11
-3.89225985E+02
 21
-2.44852145E+02
  0
LINE
  8
0
 62
4
 10
-3.86990751E+02
 20
-2.44913216E+02
 11
-3.85300278E+02
 21
-2.48538448E+02
  0
LINE
  8
0
 62
4
 10
-4.04210599E+02
 20
-2.52942963E+02
 11
-4.02520126E+02
 21
-2.56568195E+02
  0
LINE
  8
0
 62
4
 10
-4.02520126E+02
 20
-2.56568195E+02
 11
-3.85300278E+02
 21
-2.48538448E+02
  0
LINE
  8
0
 62
4
 10
-3.81892407E+02
 20
-2.63500000E+02
 11
-3.76695235E+02
 21
-2.61076519E+02
  0
LINE
  8
0
 62
4
 10
-3.81977963E+02
 20
-2.49747671E+02
 11
-3.76695235E+02
 21
-2.61076519E+02
  0
LINE
  8
0
 62
4
 10
-4.03729350E+02
 20
-2.59890510E+02
 11
-4.02046217E+02
 21
-2.63500000E+02
  0
LINE
  8
0
 62
4
 10
-3.76695235E+02
 20
-2.61076519E+02
 11
-3.77204613E+02
 21
-2.63500000E+02
  0
LINE
  8
0
 62
4
 10
-3.85441709E+02
 20
-2.63500000E+02
 11
-3.77329162E+02
 21
-2.59717057E+02
  0
LINE
  8
0
 62
4
 10
-3.92341871E+02
 20
-2.60649020E+02
 11
-3.88716640E+02
 21
-2.58958547E+02
  0
LINE
  8
0
 62
4
 10
-3.91285326E+02
 20
-2.62914789E+02
 11
-3.87660095E+02
 21
-2.61224316E+02
  0
LINE
  8
0
 62
4
 10
-3.92341871E+02
 20
-2.60649020E+02
 11
-3.91285326E+02
 21
-2.62914789E+02
  0
LINE
  8
0
 62
4
 10
-3.88716640E+02
 20
-2.58958547E+02
 11
-3.87660095E+02
 21
-2.61224316E+02
  0
LINE
  8
0
 62
4
 10
-4.00456559E+02
 20
-2.38514613E+02
 11
-3.96150377E+02
 21
-2.32368941E+02
  0
LINE
  8
0
 62
4
 10
-4.11106241E+02
 20
-2.31056606E+02
 11
-4.06800059E+02
 21
-2.24910934E+02
  0
LINE
  8
0
 62
4
 10
-4.11106241E+02
 20
-2.31056606E+02
 11
-4.07932378E+02
 21
-2.37862978E+02
  0
LINE
  8
0
 62
4
 10
-3.99324240E+02
 20
-2.25562569E+02
 11
-3.96150377E+02
 21
-2.32368941E+02
  0
LINE
  8
0
 62
4
 10
-4.07932378E+02
 20
-2.37862978E+02
 11
-4.00456559E+02
 21
-2.38514613E+02
  0
LINE
  8
0
 62
4
 10
-4.06800059E+02
 20
-2.24910934E+02
 11
-3.99324240E+02
 21
-2.25562569E+02
  0
LINE
  8
0
 62
4
 10
-4.03809731E+02
 20
-2.25171588E+02
 11
-3.99368823E+02
 21
-2.23100758E+02
  0
LINE
  8
0
 62
4
 10
-3.81555345E+02
 20
-2.50653979E+02
 11
-3.81102191E+02
 21
-2.50442670E+02
  0
LINE
  8
0
 62
4
 10
-3.78174398E+02
 20
-2.57904442E+02
 11
-3.77721245E+02
 21
-2.57693132E+02
  0
LINE
  8
0
 62
4
 10
-3.80848620E+02
 20
-2.50986455E+02
 11
-3.79280707E+02
 21
-2.50255325E+02
  0
LINE
  8
0
 62
4
 10
-3.76406903E+02
 20
-2.56418218E+02
 11
-3.77974816E+02
 21
-2.57149348E+02
  0
LINE
  8
0
  6
CENTER
 62
6
 10
-3.99638919E+02
 20
-2.63500000E+02
 11
-3.73973871E+02
 21
-2.51532192E+02
  0
LINE
  8
0
 62
4
 10
-3.81102191E+02
 20
-2.50442670E+02
 11
-3.77721245E+02
 21
-2.57693132E+02
  0
ARC
  8
0
 62
4
 10
-3.76830526E+02
 20
-2.55514207E+02
 40
9.98345090E-01
 50
2.95107939E+02
 51
1.17781676E+01
  0
ARC
  8
0
 62
4
 10
-3.78862232E+02
 20
-2.51160479E+02
 40
9.97209177E-01
 50
3.75805360E+01
 51
1.14812291E+02
  0
CIRCLE
  8
0
 62
4
 10
-4.03630420E+02
 20
-2.31708267E+02
 40
3.75000000E+00
  0
ARC
  8
0
 62
4
 10
-3.87386333E+02
 20
-2.57822901E+02
 40
1.18036308E+01
 50
1.22898056E+01
 51
3.79747793E+01
  0
ARC
  8
0
 62
4
 10
-4.01463564E+02
 20
-2.58833970E+02
 40
2.50001192E+00
 50
1.15000273E+02
 51
2.04999727E+02
  0
ARC
  8
0
 62
4
 10
-3.84243740E+02
 20
-2.50804238E+02
 40
2.50001570E+00
 50
2.50003598E+01
 51
1.14999640E+02
  0
ARC
  8
0
 62
4
 10
-4.03630420E+02
 20
-2.31708267E+02
 40
7.00000000E+00
 50
8.39976594E+01
 51
1.06884035E+02
  0
ARC
  8
0
 62
4
 10
-4.03630420E+02
 20
-2.31708267E+02
 40
7.00000000E+00
 50
1.23115777E+02
 51
1.46002341E+02
  0
LINE
  8
0
 62
4
 10
1.42203400E+02
 20
-2.63500000E+02
 11
1.42208080E+02
 21
-2.63489730E+02
  0
ARC
  8
0
 62
4
 10
1.36243664E+02
 20
-2.50804238E+02
 40
2.50001570E+00
 50
6.50003596E+01
 51
1.54999640E+02
  0
ARC
  8
0
 62
4
 10
1.53463489E+02
 20
-2.58833970E+02
 40
2.50001192E+00
 50
3.35000273E+02
 51
6.49997271E+01
  0
ARC
  8
0
 62
4
 10
1.39386257E+02
 20
-2.57822901E+02
 40
1.18036308E+01
 50
1.42025221E+02
 51
1.67710194E+02
  0
ARC
  8
0
 62
4
 10
1.30862156E+02
 20
-2.51160479E+02
 40
9.97209177E-01
 50
6.51877094E+01
 51
1.42419464E+02
  0
ARC
  8
0
 62
4
 10
1.28830450E+02
 20
-2.55514207E+02
 40
9.98345090E-01
 50
1.68221832E+02
 51
2.44892061E+02
  0
LINE
  8
0
 62
4
 10
1.33102115E+02
 20
-2.50442670E+02
 11
1.29721169E+02
 21
-2.57693132E+02
  0
LINE
  8
0
  6
CENTER
 62
6
 10
1.51638843E+02
 20
-2.63500000E+02
 11
1.25973795E+02
 21
-2.51532192E+02
  0
LINE
  8
0
 62
4
 10
1.28406827E+02
 20
-2.56418218E+02
 11
1.29974740E+02
 21
-2.57149348E+02
  0
LINE
  8
0
 62
4
 10
1.32848544E+02
 20
-2.50986455E+02
 11
1.31280631E+02
 21
-2.50255325E+02
  0
LINE
  8
0
 62
4
 10
1.30174323E+02
 20
-2.57904442E+02
 11
1.29721169E+02
 21
-2.57693132E+02
  0
LINE
  8
0
 62
4
 10
1.33555269E+02
 20
-2.50653979E+02
 11
1.33102115E+02
 21
-2.50442670E+02
  0
LINE
  8
0
 62
4
 10
1.58799983E+02
 20
-2.24910934E+02
 11
1.57663396E+02
 21
-2.25010005E+02
  0
LINE
  8
0
 62
4
 10
1.59454674E+02
 20
-2.25845292E+02
 11
1.58799983E+02
 21
-2.24910934E+02
  0
LINE
  8
0
 62
4
 10
1.40716564E+02
 20
-2.58958547E+02
 11
1.39660019E+02
 21
-2.61224316E+02
  0
LINE
  8
0
 62
4
 10
1.44341796E+02
 20
-2.60649020E+02
 11
1.43285250E+02
 21
-2.62914789E+02
  0
LINE
  8
0
 62
4
 10
1.43285250E+02
 20
-2.62914789E+02
 11
1.39660019E+02
 21
-2.61224316E+02
  0
LINE
  8
0
 62
4
 10
1.44341796E+02
 20
-2.60649020E+02
 11
1.40716564E+02
 21
-2.58958547E+02
  0
LINE
  8
0
 62
4
 10
1.37441633E+02
 20
-2.63500000E+02
 11
1.29329086E+02
 21
-2.59717057E+02
  0
LINE
  8
0
 62
4
 10
1.28695159E+02
 20
-2.61076519E+02
 11
1.29204537E+02
 21
-2.63500000E+02
  0
LINE
  8
0
 62
4
 10
1.55729274E+02
 20
-2.59890510E+02
 11
1.54046141E+02
 21
-2.63500000E+02
  0
LINE
  8
0
 62
4
 10
1.33977887E+02
 20
-2.49747671E+02
 11
1.28695159E+02
 21
-2.61076519E+02
  0
LINE
  8
0
 62
4
 10
1.33892331E+02
 20
-2.63500000E+02
 11
1.28695159E+02
 21
-2.61076519E+02
  0
LINE
  8
0
 62
4
 10
1.54520050E+02
 20
-2.56568195E+02
 11
1.37300202E+02
 21
-2.48538448E+02
  0
LINE
  8
0
 62
4
 10
1.56210523E+02
 20
-2.52942963E+02
 11
1.54520050E+02
 21
-2.56568195E+02
  0
LINE
  8
0
 62
4
 10
1.38990675E+02
 20
-2.44913216E+02
 11
1.37300202E+02
 21
-2.48538448E+02
  0
LINE
  8
0
 62
4
 10
1.54820526E+02
 20
-2.51191419E+02
 11
1.41225909E+02
 21
-2.44852145E+02
  0
LINE
  8
0
 62
4
 10
1.56210523E+02
 20
-2.52942963E+02
 11
1.38990675E+02
 21
-2.44913216E+02
  0
LINE
  8
0
 62
4
 10
1.64963364E+02
 20
-2.29440032E+02
 11
1.54397908E+02
 21
-2.52097727E+02
  0
LINE
  8
0
 62
4
 10
1.51368747E+02
 20
-2.23100758E+02
 11
1.40803291E+02
 21
-2.45758453E+02
  0
LINE
  8
0
 62
4
 10
1.51368747E+02
 20
-2.23100758E+02
 11
1.64963364E+02
 21
-2.29440032E+02
  0
LINE
  8
0
 62
4
 10
1.61856660E+02
 20
-2.63299446E+02
 11
1.61950181E+02
 21
-2.63500000E+02
  0
LINE
  8
0
 62
4
 10
1.61856660E+02
 20
-2.63299446E+02
 11
1.55517965E+02
 21
-2.60343664E+02
  0
ARC
  8
0
 62
4
 10
1.55630336E+02
 20
-2.31708264E+02
 40
7.00000000E+00
 50
3.39976591E+01
 51
9.60023410E+01
  0
LINE
  8
0
  6
CENTER
 62
6
 10
1.47281824E+02
 20
-2.49611705E+02
 11
1.45280425E+02
 21
-2.53903720E+02
  0
LINE
  8
0
 62
4
 10
1.42738049E+02
 20
-2.51074157E+02
 11
1.43486938E+02
 21
-2.50319992E+02
  0
LINE
  8
0
 62
4
 10
1.49178551E+02
 20
-2.52974035E+02
 11
1.49082203E+02
 21
-2.54032485E+02
  0
LINE
  8
0
 62
4
 10
1.43486938E+02
 20
-2.50319992E+02
 11
1.49178551E+02
 21
-2.52974035E+02
  0
LINE
  8
0
  6
CENTER
 62
6
 10
-6.90000456E+01
 20
-8.49318751E+01
 11
-6.90000456E+01
 21
-1.37499969E+02
  0
ARC
  8
0
 62
4
 10
-7.95000456E+01
 20
-1.18965521E+02
 40
1.50000046E+00
 50
1.80000018E+02
 51
2.69999983E+02
  0
ARC
  8
0
 62
4
 10
-4.35000427E+01
 20
-1.18965525E+02
 40
1.49999664E+00
 50
2.69999872E+02
 51
1.28225561E-04
  0
LINE
  8
0
  6
CENTER
 62
6
 10
-6.50000456E+01
 20
-8.43199695E+01
 11
-6.50000456E+01
 21
-9.48199695E+01
  0
LINE
  8
0
 62
4
 10
-7.65000456E+01
 20
-8.70196596E+01
 11
-7.65000456E+01
 21
-1.14696664E+02
  0
LINE
  8
0
 62
4
 10
-6.15000456E+01
 20
-8.70196596E+01
 11
-6.15000456E+01
 21
-1.14696664E+02
  0
LINE
  8
0
 62
4
 10
-6.15000456E+01
 20
-9.05365904E+01
 11
-7.65000456E+01
 21
-9.05365904E+01
  0
LINE
  8
0
 62
4
 10
-6.15000456E+01
 20
-8.70196596E+01
 11
-7.65000456E+01
 21
-8.70196596E+01
  0
LINE
  8
0
  6
CENTER
 62
6
 10
-7.30000456E+01
 20
-8.43199695E+01
 11
-7.30000456E+01
 21
-9.48199695E+01
  0
LINE
  8
0
 62
4
 10
-8.55000456E+01
 20
-1.06869611E+02
 11
-7.65000456E+01
 21
-1.06869611E+02
  0
LINE
  8
0
 62
4
 10
-7.65000456E+01
 20
-9.28696107E+01
 11
-8.55000456E+01
 21
-9.28696107E+01
  0
LINE
  8
0
 62
4
 10
-8.60000456E+01
 20
-9.33696107E+01
 11
-8.60000456E+01
 21
-1.06369611E+02
  0
LINE
  8
0
 62
4
 10
-9.60000456E+01
 20
-9.23937892E+01
 11
-9.60000456E+01
 21
-1.07349654E+02
  0
LINE
  8
0
 62
4
 10
-9.10000456E+01
 20
-9.23937892E+01
 11
-9.10000456E+01
 21
-1.07349654E+02
  0
LINE
  8
0
 62
4
 10
-9.10000456E+01
 20
-9.36196107E+01
 11
-8.60000456E+01
 21
-9.36196107E+01
  0
LINE
  8
0
 62
4
 10
-9.10000456E+01
 20
-1.06119611E+02
 11
-8.60000456E+01
 21
-1.06119611E+02
  0
LINE
  8
0
 62
4
 10
-8.95000456E+01
 20
-9.36196107E+01
 11
-8.95000456E+01
 21
-1.06119611E+02
  0
LINE
  8
0
 62
4
 10
-8.95000456E+01
 20
-9.41196107E+01
 11
-8.60000456E+01
 21
-9.41196107E+01
  0
LINE
  8
0
 62
4
 10
-8.95000456E+01
 20
-1.05619611E+02
 11
-8.60000456E+01
 21
-1.05619611E+02
  0
LINE
  8
0
 62
4
 10
-7.65000456E+01
 20
-1.04131207E+02
 11
-6.15000456E+01
 21
-1.04131207E+02
  0
LINE
  8
0
 62
4
 10
-7.65000456E+01
 20
-1.14696664E+02
 11
-6.15000456E+01
 21
-1.14696664E+02
  0
LINE
  8
0
 62
4
 10
-9.60000456E+01
 20
-9.23937892E+01
 11
-9.10000456E+01
 21
-9.23937892E+01
  0
LINE
  8
0
 62
4
 10
-4.20000456E+01
 20
-1.01036454E+02
 11
-4.20000456E+01
 21
-1.25304796E+02
  0
LINE
  8
0
 62
4
 10
-7.85000456E+01
 20
-1.06869611E+02
 11
-7.85000456E+01
 21
-1.18199738E+02
  0
LINE
  8
0
 62
4
 10
-5.95000456E+01
 20
-9.92894313E+01
 11
-5.95000456E+01
 21
-1.18199738E+02
  0
LINE
  8
0
 62
4
 10
-8.10000456E+01
 20
-1.06869611E+02
 11
-8.10000456E+01
 21
-1.25304796E+02
  0
LINE
  8
0
 62
4
 10
-7.85000456E+01
 20
-1.16509279E+02
 11
-5.95000456E+01
 21
-1.16509279E+02
  0
LINE
  8
0
 62
4
 10
-7.95000456E+01
 20
-1.26804796E+02
 11
-7.20090061E+01
 21
-1.26804796E+02
  0
LINE
  8
0
 62
4
 10
-5.95000456E+01
 20
-9.92894313E+01
 11
-6.15000456E+01
 21
-9.92894313E+01
  0
ARC
  8
0
 62
4
 10
-4.35000489E+01
 20
-1.01036457E+02
 40
1.50000336E+00
 50
1.28225275E-04
 51
8.99998718E+01
  0
ARC
  8
0
 62
4
 10
-4.35000422E+01
 20
-1.25304799E+02
 40
1.49999664E+00
 50
2.69999872E+02
 51
1.28225561E-04
  0
ARC
  8
0
 62
4
 10
-8.55000413E+01
 20
-1.06369606E+02
 40
5.00004272E-01
 50
1.80000490E+02
 51
2.69999511E+02
  0
ARC
  8
0
 62
4
 10
-8.55000460E+01
 20
-9.33696102E+01
 40
4.99999542E-01
 50
8.99999475E+01
 51
1.80000053E+02
  0
ARC
  8
0
 62
4
 10
-7.95000451E+01
 20
-1.25304795E+02
 40
1.50000046E+00
 50
1.80000018E+02
 51
2.69999983E+02
  0
LINE
  8
0
 62
4
 10
-5.95000456E+01
 20
-9.95364540E+01
 11
-4.35000456E+01
 21
-9.95364540E+01
  0
LINE
  8
0
 62
4
 10
-7.95000456E+01
 20
-1.20465522E+02
 11
-4.35000456E+01
 21
-1.20465522E+02
  0
LINE
  8
0
 62
4
 10
-9.60000456E+01
 20
-9.66999714E+01
 11
-9.10000456E+01
 21
-9.66999714E+01
  0
LINE
  8
0
 62
4
 10
-9.60000456E+01
 20
-1.04175790E+02
 11
-9.10000456E+01
 21
-1.04175790E+02
  0
LINE
  8
0
 62
4
 10
-9.60000456E+01
 20
-1.07349654E+02
 11
-9.10000456E+01
 21
-1.07349654E+02
  0
LINE
  8
0
  6
CENTER
 62
6
 10
-7.45010530E+01
 20
-9.73338988E+01
 11
-6.34990380E+01
 21
-9.73338988E+01
  0
POLYLINE
  8
0
 62
4
 66
1
  0
VERTEX
  8
0
 62
4
 10
-6.60000456E+01
 20
-9.73338988E+01
  0
VERTEX
  8
0
 62
4
 10
-6.60114615E+01
 20
-9.70969290E+01
  0
VERTEX
  8
0
 62
4
 10
-6.60456223E+01
 20
-9.68617627E+01
  0
VERTEX
  8
0
 62
4
 10
-6.61022681E+01
 20
-9.66301897E+01
  0
VERTEX
  8
0
 62
4
 10
-6.61809677E+01
 20
-9.64039722E+01
  0
VERTEX
  8
0
 62
4
 10
-6.62811222E+01
 20
-9.61848321E+01
  0
VERTEX
  8
0
 62
4
 10
-6.64019694E+01
 20
-9.59744371E+01
  0
VERTEX
  8
0
 62
4
 10
-6.65425895E+01
 20
-9.57743884E+01
  0
VERTEX
  8
0
 62
4
 10
-6.67019123E+01
 20
-9.55862086E+01
  0
VERTEX
  8
0
 62
4
 10
-6.68787253E+01
 20
-9.54113297E+01
  0
VERTEX
  8
0
 62
4
 10
-6.70716828E+01
 20
-9.52510827E+01
  0
VERTEX
  8
0
 62
4
 10
-6.72793163E+01
 20
-9.51066872E+01
  0
VERTEX
  8
0
 62
4
 10
-6.75000456E+01
 20
-9.49792421E+01
  0
VERTEX
  8
0
 62
4
 10
-6.77321908E+01
 20
-9.48697174E+01
  0
VERTEX
  8
0
 62
4
 10
-6.79739852E+01
 20
-9.47789466E+01
  0
VERTEX
  8
0
 62
4
 10
-6.82235885E+01
 20
-9.47076205E+01
  0
VERTEX
  8
0
 62
4
 10
-6.84791011E+01
 20
-9.46562820E+01
  0
VERTEX
  8
0
 62
4
 10
-6.87385784E+01
 20
-9.46253218E+01
  0
VERTEX
  8
0
 62
4
 10
-6.90000456E+01
 20
-9.46149754E+01
  0
VERTEX
  8
0
 62
4
 10
-6.92615128E+01
 20
-9.46253218E+01
  0
VERTEX
  8
0
 62
4
 10
-6.95209901E+01
 20
-9.46562820E+01
  0
VERTEX
  8
0
 62
4
 10
-6.97765027E+01
 20
-9.47076205E+01
  0
VERTEX
  8
0
 62
4
 10
-7.00261060E+01
 20
-9.47789466E+01
  0
VERTEX
  8
0
 62
4
 10
-7.02679004E+01
 20
-9.48697174E+01
  0
VERTEX
  8
0
 62
4
 10
-7.05000456E+01
 20
-9.49792421E+01
  0
VERTEX
  8
0
 62
4
 10
-7.07207749E+01
 20
-9.51066872E+01
  0
VERTEX
  8
0
 62
4
 10
-7.09284084E+01
 20
-9.52510827E+01
  0
VERTEX
  8
0
 62
4
 10
-7.11213659E+01
 20
-9.54113297E+01
  0
VERTEX
  8
0
 62
4
 10
-7.12981789E+01
 20
-9.55862086E+01
  0
VERTEX
  8
0
 62
4
 10
-7.14575017E+01
 20
-9.57743884E+01
  0
VERTEX
  8
0
 62
4
 10
-7.15981218E+01
 20
-9.59744371E+01
  0
VERTEX
  8
0
 62
4
 10
-7.17189690E+01
 20
-9.61848321E+01
  0
VERTEX
  8
0
 62
4
 10
-7.18191235E+01
 20
-9.64039722E+01
  0
VERTEX
  8
0
 62
4
 10
-7.18978231E+01
 20
-9.66301897E+01
  0
VERTEX
  8
0
 62
4
 10
-7.19544689E+01
 20
-9.68617627E+01
  0
VERTEX
  8
0
 62
4
 10
-7.19886297E+01
 20
-9.70969290E+01
  0
VERTEX
  8
0
 62
4
 10
-7.20000456E+01
 20
-9.73338988E+01
  0
VERTEX
  8
0
 62
4
 10
-7.19886297E+01
 20
-9.75708686E+01
  0
VERTEX
  8
0
 62
4
 10
-7.19544689E+01
 20
-9.78060349E+01
  0
VERTEX
  8
0
 62
4
 10
-7.18978231E+01
 20
-9.80376080E+01
  0
VERTEX
  8
0
 62
4
 10
-7.18191235E+01
 20
-9.82638254E+01
  0
VERTEX
  8
0
 62
4
 10
-7.17189690E+01
 20
-9.84829655E+01
  0
VERTEX
  8
0
 62
4
 10
-7.15981218E+01
 20
-9.86933605E+01
  0
VERTEX
  8
0
 62
4
 10
-7.14575017E+01
 20
-9.88934092E+01
  0
VERTEX
  8
0
 62
4
 10
-7.12981789E+01
 20
-9.90815891E+01
  0
VERTEX
  8
0
 62
4
 10
-7.11213659E+01
 20
-9.92564679E+01
  0
VERTEX
  8
0
 62
4
 10
-7.09284084E+01
 20
-9.94167149E+01
  0
VERTEX
  8
0
 62
4
 10
-7.07207749E+01
 20
-9.95611104E+01
  0
VERTEX
  8
0
 62
4
 10
-7.05000456E+01
 20
-9.96885555E+01
  0
VERTEX
  8
0
 62
4
 10
-7.02679004E+01
 20
-9.97980802E+01
  0
VERTEX
  8
0
 62
4
 10
-7.00261060E+01
 20
-9.98888510E+01
  0
VERTEX
  8
0
 62
4
 10
-6.97765027E+01
 20
-9.99601771E+01
  0
VERTEX
  8
0
 62
4
 10
-6.95209901E+01
 20
-1.00011516E+02
  0
VERTEX
  8
0
 62
4
 10
-6.92615128E+01
 20
-1.00042476E+02
  0
VERTEX
  8
0
 62
4
 10
-6.90000456E+01
 20
-1.00052822E+02
  0
VERTEX
  8
0
 62
4
 10
-6.87385784E+01
 20
-1.00042476E+02
  0
VERTEX
  8
0
 62
4
 10
-6.84791011E+01
 20
-1.00011516E+02
  0
VERTEX
  8
0
 62
4
 10
-6.82235885E+01
 20
-9.99601771E+01
  0
VERTEX
  8
0
 62
4
 10
-6.79739852E+01
 20
-9.98888510E+01
  0
VERTEX
  8
0
 62
4
 10
-6.77321908E+01
 20
-9.97980802E+01
  0
VERTEX
  8
0
 62
4
 10
-6.75000456E+01
 20
-9.96885555E+01
  0
VERTEX
  8
0
 62
4
 10
-6.72793163E+01
 20
-9.95611104E+01
  0
VERTEX
  8
0
 62
4
 10
-6.70716828E+01
 20
-9.94167149E+01
  0
VERTEX
  8
0
 62
4
 10
-6.68787253E+01
 20
-9.92564679E+01
  0
VERTEX
  8
0
 62
4
 10
-6.67019123E+01
 20
-9.90815890E+01
  0
VERTEX
  8
0
 62
4
 10
-6.65425895E+01
 20
-9.88934092E+01
  0
VERTEX
  8
0
 62
4
 10
-6.64019694E+01
 20
-9.86933605E+01
  0
VERTEX
  8
0
 62
4
 10
-6.62811222E+01
 20
-9.84829655E+01
  0
VERTEX
  8
0
 62
4
 10
-6.61809677E+01
 20
-9.82638254E+01
  0
VERTEX
  8
0
 62
4
 10
-6.61022681E+01
 20
-9.80376079E+01
  0
VERTEX
  8
0
 62
4
 10
-6.60456223E+01
 20
-9.78060349E+01
  0
VERTEX
  8
0
 62
4
 10
-6.60114615E+01
 20
-9.75708686E+01
  0
VERTEX
  8
0
 62
4
 10
-6.60000456E+01
 20
-9.73338988E+01
  0
SEQEND
  8
0
  0
LINE
  8
0
  6
CENTER
 62
6
 10
-5.86090623E+01
 20
-1.09167241E+02
 11
-4.73910288E+01
 21
-1.09167241E+02
  0
LINE
  8
0
  6
CENTER
 62
6
 10
-5.30000456E+01
 20
-1.03558224E+02
 11
-5.30000456E+01
 21
-1.14776257E+02
  0
POLYLINE
  8
0
 62
4
 66
1
  0
VERTEX
  8
0
 62
4
 10
-6.56000456E+01
 20
-1.24978825E+02
  0
VERTEX
  8
0
 62
4
 10
-6.54269936E+01
 20
-1.24848239E+02
  0
VERTEX
  8
0
 62
4
 10
-6.52819506E+01
 20
-1.24711696E+02
  0
VERTEX
  8
0
 62
4
 10
-6.51660538E+01
 20
-1.24570266E+02
  0
VERTEX
  8
0
 62
4
 10
-6.50802115E+01
 20
-1.24425058E+02
  0
VERTEX
  8
0
 62
4
 10
-6.50250967E+01
 20
-1.24277210E+02
  0
VERTEX
  8
0
 62
4
 10
-6.50011415E+01
 20
-1.24127882E+02
  0
VERTEX
  8
0
 62
4
 10
-6.50085337E+01
 20
-1.23978243E+02
  0
VERTEX
  8
0
 62
4
 10
-6.50472152E+01
 20
-1.23829468E+02
  0
VERTEX
  8
0
 62
4
 10
-6.51168829E+01
 20
-1.23682721E+02
  0
VERTEX
  8
0
 62
4
 10
-6.52169906E+01
 20
-1.23539154E+02
  0
VERTEX
  8
0
 62
4
 10
-6.53467537E+01
 20
-1.23399892E+02
  0
VERTEX
  8
0
 62
4
 10
-6.55051548E+01
 20
-1.23266026E+02
  0
VERTEX
  8
0
 62
4
 10
-6.56909523E+01
 20
-1.23138606E+02
  0
VERTEX
  8
0
 62
4
 10
-6.59026898E+01
 20
-1.23018631E+02
  0
VERTEX
  8
0
 62
4
 10
-6.61387074E+01
 20
-1.22907041E+02
  0
VERTEX
  8
0
 62
4
 10
-6.63971549E+01
 20
-1.22804711E+02
  0
VERTEX
  8
0
 62
4
 10
-6.66760065E+01
 20
-1.22712443E+02
  0
VERTEX
  8
0
 62
4
 10
-6.69730761E+01
 20
-1.22630960E+02
  0
VERTEX
  8
0
 62
4
 10
-6.72860352E+01
 20
-1.22560902E+02
  0
VERTEX
  8
0
 62
4
 10
-6.76124303E+01
 20
-1.22502817E+02
  0
VERTEX
  8
0
 62
4
 10
-6.79497030E+01
 20
-1.22457161E+02
  0
VERTEX
  8
0
 62
4
 10
-6.82952092E+01
 20
-1.22424291E+02
  0
VERTEX
  8
0
 62
4
 10
-6.86462407E+01
 20
-1.22404466E+02
  0
VERTEX
  8
0
 62
4
 10
-6.90000456E+01
 20
-1.22397840E+02
  0
VERTEX
  8
0
 62
4
 10
-6.93538505E+01
 20
-1.22404466E+02
  0
VERTEX
  8
0
 62
4
 10
-6.97048820E+01
 20
-1.22424291E+02
  0
VERTEX
  8
0
 62
4
 10
-7.00503882E+01
 20
-1.22457161E+02
  0
VERTEX
  8
0
 62
4
 10
-7.03876608E+01
 20
-1.22502817E+02
  0
VERTEX
  8
0
 62
4
 10
-7.07140560E+01
 20
-1.22560902E+02
  0
VERTEX
  8
0
 62
4
 10
-7.10270150E+01
 20
-1.22630960E+02
  0
VERTEX
  8
0
 62
4
 10
-7.13240847E+01
 20
-1.22712443E+02
  0
VERTEX
  8
0
 62
4
 10
-7.16029363E+01
 20
-1.22804711E+02
  0
VERTEX
  8
0
 62
4
 10
-7.18613838E+01
 20
-1.22907041E+02
  0
VERTEX
  8
0
 62
4
 10
-7.20974014E+01
 20
-1.23018631E+02
  0
VERTEX
  8
0
 62
4
 10
-7.23091388E+01
 20
-1.23138606E+02
  0
VERTEX
  8
0
 62
4
 10
-7.24949364E+01
 20
-1.23266026E+02
  0
VERTEX
  8
0
 62
4
 10
-7.26533375E+01
 20
-1.23399892E+02
  0
VERTEX
  8
0
 62
4
 10
-7.27831006E+01
 20
-1.23539154E+02
  0
VERTEX
  8
0
 62
4
 10
-7.28832083E+01
 20
-1.23682721E+02
  0
VERTEX
  8
0
 62
4
 10
-7.29528760E+01
 20
-1.23829468E+02
  0
VERTEX
  8
0
 62
4
 10
-7.29915575E+01
 20
-1.23978243E+02
  0
VERTEX
  8
0
 62
4
 10
-7.29989497E+01
 20
-1.24127882E+02
  0
VERTEX
  8
0
 62
4
 10
-7.29749945E+01
 20
-1.24277210E+02
  0
VERTEX
  8
0
 62
4
 10
-7.29198797E+01
 20
-1.24425058E+02
  0
VERTEX
  8
0
 62
4
 10
-7.28340374E+01
 20
-1.24570266E+02
  0
VERTEX
  8
0
 62
4
 10
-7.27181406E+01
 20
-1.24711696E+02
  0
VERTEX
  8
0
 62
4
 10
-7.25730976E+01
 20
-1.24848239E+02
  0
VERTEX
  8
0
 62
4
 10
-7.24000456E+01
 20
-1.24978825E+02
  0
SEQEND
  8
0
  0
POLYLINE
  8
0
 62
4
 66
1
  0
VERTEX
  8
0
 62
4
 10
-6.50000456E+01
 20
-1.23635159E+02
  0
VERTEX
  8
0
 62
4
 10
-6.50161484E+01
 20
-1.23483626E+02
  0
VERTEX
  8
0
 62
4
 10
-6.50643272E+01
 20
-1.23333313E+02
  0
VERTEX
  8
0
 62
4
 10
-6.51441942E+01
 20
-1.23185431E+02
  0
VERTEX
  8
0
 62
4
 10
-6.52551061E+01
 20
-1.23041169E+02
  0
VERTEX
  8
0
 62
4
 10
-6.53961701E+01
 20
-1.22901690E+02
  0
VERTEX
  8
0
 62
4
 10
-6.55662504E+01
 20
-1.22768117E+02
  0
VERTEX
  8
0
 62
4
 10
-6.57639776E+01
 20
-1.22641524E+02
  0
VERTEX
  8
0
 62
4
 10
-6.59877597E+01
 20
-1.22522931E+02
  0
VERTEX
  8
0
 62
4
 10
-6.62357950E+01
 20
-1.22413294E+02
  0
VERTEX
  8
0
 62
4
 10
-6.65060864E+01
 20
-1.22313494E+02
  0
VERTEX
  8
0
 62
4
 10
-6.67964577E+01
 20
-1.22224335E+02
  0
VERTEX
  8
0
 62
4
 10
-6.71045709E+01
 20
-1.22146536E+02
  0
VERTEX
  8
0
 62
4
 10
-6.74279455E+01
 20
-1.22080722E+02
  0
VERTEX
  8
0
 62
4
 10
-6.77639776E+01
 20
-1.22027424E+02
  0
VERTEX
  8
0
 62
4
 10
-6.81099619E+01
 20
-1.21987070E+02
  0
VERTEX
  8
0
 62
4
 10
-6.84631125E+01
 20
-1.21959985E+02
  0
VERTEX
  8
0
 62
4
 10
-6.88205863E+01
 20
-1.21946388E+02
  0
VERTEX
  8
0
 62
4
 10
-6.91795049E+01
 20
-1.21946388E+02
  0
VERTEX
  8
0
 62
4
 10
-6.95369787E+01
 20
-1.21959985E+02
  0
VERTEX
  8
0
 62
4
 10
-6.98901293E+01
 20
-1.21987070E+02
  0
VERTEX
  8
0
 62
4
 10
-7.02361136E+01
 20
-1.22027424E+02
  0
VERTEX
  8
0
 62
4
 10
-7.05721457E+01
 20
-1.22080722E+02
  0
VERTEX
  8
0
 62
4
 10
-7.08955202E+01
 20
-1.22146536E+02
  0
VERTEX
  8
0
 62
4
 10
-7.12036335E+01
 20
-1.22224335E+02
  0
VERTEX
  8
0
 62
4
 10
-7.14940048E+01
 20
-1.22313494E+02
  0
VERTEX
  8
0
 62
4
 10
-7.17642962E+01
 20
-1.22413294E+02
  0
VERTEX
  8
0
 62
4
 10
-7.20123315E+01
 20
-1.22522931E+02
  0
VERTEX
  8
0
 62
4
 10
-7.22361136E+01
 20
-1.22641524E+02
  0
VERTEX
  8
0
 62
4
 10
-7.24338408E+01
 20
-1.22768117E+02
  0
VERTEX
  8
0
 62
4
 10
-7.26039211E+01
 20
-1.22901690E+02
  0
VERTEX
  8
0
 62
4
 10
-7.27449851E+01
 20
-1.23041169E+02
  0
VERTEX
  8
0
 62
4
 10
-7.28558970E+01
 20
-1.23185431E+02
  0
VERTEX
  8
0
 62
4
 10
-7.29357640E+01
 20
-1.23333313E+02
  0
VERTEX
  8
0
 62
4
 10
-7.29839428E+01
 20
-1.23483626E+02
  0
VERTEX
  8
0
 62
4
 10
-7.30000456E+01
 20
-1.23635159E+02
  0
SEQEND
  8
0
  0
LINE
  8
0
 62
4
 10
-6.50000456E+01
 20
-1.23635159E+02
 11
-6.50000456E+01
 21
-1.24088313E+02
  0
LINE
  8
0
 62
4
 10
-7.30000456E+01
 20
-1.23635159E+02
 11
-7.30000456E+01
 21
-1.24088313E+02
  0
LINE
  8
0
 62
4
 10
-6.56000456E+01
 20
-1.24088313E+02
 11
-6.56000456E+01
 21
-1.26052814E+02
  0
LINE
  8
0
 62
4
 10
-7.24000456E+01
 20
-1.24088313E+02
 11
-7.24000456E+01
 21
-1.26052814E+02
  0
POLYLINE
  8
0
 62
4
 66
1
  0
VERTEX
  8
0
 62
4
 10
-6.56000456E+01
 20
-1.24088313E+02
  0
VERTEX
  8
0
 62
4
 10
-6.56137330E+01
 20
-1.23959510E+02
  0
VERTEX
  8
0
 62
4
 10
-6.56546850E+01
 20
-1.23831744E+02
  0
VERTEX
  8
0
 62
4
 10
-6.57225719E+01
 20
-1.23706044E+02
  0
VERTEX
  8
0
 62
4
 10
-6.58168470E+01
 20
-1.23583422E+02
  0
VERTEX
  8
0
 62
4
 10
-6.59367514E+01
 20
-1.23464865E+02
  0
VERTEX
  8
0
 62
4
 10
-6.60813197E+01
 20
-1.23351327E+02
  0
VERTEX
  8
0
 62
4
 10
-6.62493878E+01
 20
-1.23243723E+02
  0
VERTEX
  8
0
 62
4
 10
-6.64396026E+01
 20
-1.23142919E+02
  0
VERTEX
  8
0
 62
4
 10
-6.66504326E+01
 20
-1.23049728E+02
  0
VERTEX
  8
0
 62
4
 10
-6.68801803E+01
 20
-1.22964898E+02
  0
VERTEX
  8
0
 62
4
 10
-6.71269959E+01
 20
-1.22889113E+02
  0
VERTEX
  8
0
 62
4
 10
-6.73888921E+01
 20
-1.22822983E+02
  0
VERTEX
  8
0
 62
4
 10
-6.76637605E+01
 20
-1.22767042E+02
  0
VERTEX
  8
0
 62
4
 10
-6.79493878E+01
 20
-1.22721738E+02
  0
VERTEX
  8
0
 62
4
 10
-6.82434744E+01
 20
-1.22687437E+02
  0
VERTEX
  8
0
 62
4
 10
-6.85436525E+01
 20
-1.22664415E+02
  0
VERTEX
  8
0
 62
4
 10
-6.88475052E+01
 20
-1.22652858E+02
  0
VERTEX
  8
0
 62
4
 10
-6.91525860E+01
 20
-1.22652858E+02
  0
VERTEX
  8
0
 62
4
 10
-6.94564387E+01
 20
-1.22664415E+02
  0
VERTEX
  8
0
 62
4
 10
-6.97566168E+01
 20
-1.22687437E+02
  0
VERTEX
  8
0
 62
4
 10
-7.00507034E+01
 20
-1.22721738E+02
  0
VERTEX
  8
0
 62
4
 10
-7.03363307E+01
 20
-1.22767042E+02
  0
VERTEX
  8
0
 62
4
 10
-7.06111990E+01
 20
-1.22822983E+02
  0
VERTEX
  8
0
 62
4
 10
-7.08730953E+01
 20
-1.22889113E+02
  0
VERTEX
  8
0
 62
4
 10
-7.11199109E+01
 20
-1.22964898E+02
  0
VERTEX
  8
0
 62
4
 10
-7.13496586E+01
 20
-1.23049728E+02
  0
VERTEX
  8
0
 62
4
 10
-7.15604886E+01
 20
-1.23142919E+02
  0
VERTEX
  8
0
 62
4
 10
-7.17507034E+01
 20
-1.23243723E+02
  0
VERTEX
  8
0
 62
4
 10
-7.19187715E+01
 20
-1.23351327E+02
  0
VERTEX
  8
0
 62
4
 10
-7.20633397E+01
 20
-1.23464865E+02
  0
VERTEX
  8
0
 62
4
 10
-7.21832442E+01
 20
-1.23583422E+02
  0
VERTEX
  8
0
 62
4
 10
-7.22775193E+01
 20
-1.23706044E+02
  0
VERTEX
  8
0
 62
4
 10
-7.23454062E+01
 20
-1.23831744E+02
  0
VERTEX
  8
0
 62
4
 10
-7.23863582E+01
 20
-1.23959510E+02
  0
VERTEX
  8
0
 62
4
 10
-7.24000456E+01
 20
-1.24088313E+02
  0
SEQEND
  8
0
  0
POLYLINE
  8
0
 62
4
 66
1
  0
VERTEX
  8
0
 62
4
 10
-6.56000456E+01
 20
-1.26052814E+02
  0
VERTEX
  8
0
 62
4
 10
-6.56129836E+01
 20
-1.25912054E+02
  0
VERTEX
  8
0
 62
4
 10
-6.56516992E+01
 20
-1.25772366E+02
  0
VERTEX
  8
0
 62
4
 10
-6.57158978E+01
 20
-1.25634812E+02
  0
VERTEX
  8
0
 62
4
 10
-6.58050907E+01
 20
-1.25500439E+02
  0
VERTEX
  8
0
 62
4
 10
-6.59185991E+01
 20
-1.25370270E+02
  0
VERTEX
  8
0
 62
4
 10
-6.60555592E+01
 20
-1.25245296E+02
  0
VERTEX
  8
0
 62
4
 10
-6.62149286E+01
 20
-1.25126468E+02
  0
VERTEX
  8
0
 62
4
 10
-6.63954945E+01
 20
-1.25014689E+02
  0
VERTEX
  8
0
 62
4
 10
-6.65958825E+01
 20
-1.24910811E+02
  0
VERTEX
  8
0
 62
4
 10
-6.68145677E+01
 20
-1.24815625E+02
  0
VERTEX
  8
0
 62
4
 10
-6.70498857E+01
 20
-1.24729854E+02
  0
VERTEX
  8
0
 62
4
 10
-6.73000456E+01
 20
-1.24654152E+02
  0
VERTEX
  8
0
 62
4
 10
-6.75631435E+01
 20
-1.24589095E+02
  0
VERTEX
  8
0
 62
4
 10
-6.78371771E+01
 20
-1.24535177E+02
  0
VERTEX
  8
0
 62
4
 10
-6.81200608E+01
 20
-1.24492809E+02
  0
VERTEX
  8
0
 62
4
 10
-6.84096418E+01
 20
-1.24462314E+02
  0
VERTEX
  8
0
 62
4
 10
-6.87037161E+01
 20
-1.24443924E+02
  0
VERTEX
  8
0
 62
4
 10
-6.90000456E+01
 20
-1.24437778E+02
  0
VERTEX
  8
0
 62
4
 10
-6.92963751E+01
 20
-1.24443924E+02
  0
VERTEX
  8
0
 62
4
 10
-6.95904494E+01
 20
-1.24462314E+02
  0
VERTEX
  8
0
 62
4
 10
-6.98800304E+01
 20
-1.24492809E+02
  0
VERTEX
  8
0
 62
4
 10
-7.01629141E+01
 20
-1.24535177E+02
  0
VERTEX
  8
0
 62
4
 10
-7.04369477E+01
 20
-1.24589095E+02
  0
VERTEX
  8
0
 62
4
 10
-7.07000456E+01
 20
-1.24654152E+02
  0
VERTEX
  8
0
 62
4
 10
-7.09502055E+01
 20
-1.24729854E+02
  0
VERTEX
  8
0
 62
4
 10
-7.11855235E+01
 20
-1.24815625E+02
  0
VERTEX
  8
0
 62
4
 10
-7.14042087E+01
 20
-1.24910811E+02
  0
VERTEX
  8
0
 62
4
 10
-7.16045967E+01
 20
-1.25014689E+02
  0
VERTEX
  8
0
 62
4
 10
-7.17851626E+01
 20
-1.25126468E+02
  0
VERTEX
  8
0
 62
4
 10
-7.19445320E+01
 20
-1.25245296E+02
  0
VERTEX
  8
0
 62
4
 10
-7.20814921E+01
 20
-1.25370270E+02
  0
VERTEX
  8
0
 62
4
 10
-7.21950005E+01
 20
-1.25500439E+02
  0
VERTEX
  8
0
 62
4
 10
-7.22841934E+01
 20
-1.25634812E+02
  0
VERTEX
  8
0
 62
4
 10
-7.23483920E+01
 20
-1.25772366E+02
  0
VERTEX
  8
0
 62
4
 10
-7.23871076E+01
 20
-1.25912054E+02
  0
VERTEX
  8
0
 62
4
 10
-7.24000456E+01
 20
-1.26052814E+02
  0
VERTEX
  8
0
 62
4
 10
-7.23871076E+01
 20
-1.26193574E+02
  0
VERTEX
  8
0
 62
4
 10
-7.23483920E+01
 20
-1.26333262E+02
  0
VERTEX
  8
0
 62
4
 10
-7.22841934E+01
 20
-1.26470816E+02
  0
VERTEX
  8
0
 62
4
 10
-7.21950005E+01
 20
-1.26605189E+02
  0
VERTEX
  8
0
 62
4
 10
-7.20814921E+01
 20
-1.26735358E+02
  0
VERTEX
  8
0
 62
4
 10
-7.19445320E+01
 20
-1.26860332E+02
  0
VERTEX
  8
0
 62
4
 10
-7.17851625E+01
 20
-1.26979160E+02
  0
VERTEX
  8
0
 62
4
 10
-7.16045967E+01
 20
-1.27090939E+02
  0
VERTEX
  8
0
 62
4
 10
-7.14042087E+01
 20
-1.27194817E+02
  0
VERTEX
  8
0
 62
4
 10
-7.11855235E+01
 20
-1.27290003E+02
  0
VERTEX
  8
0
 62
4
 10
-7.09502055E+01
 20
-1.27375774E+02
  0
VERTEX
  8
0
 62
4
 10
-7.07000456E+01
 20
-1.27451476E+02
  0
VERTEX
  8
0
 62
4
 10
-7.04369477E+01
 20
-1.27516533E+02
  0
VERTEX
  8
0
 62
4
 10
-7.01629141E+01
 20
-1.27570451E+02
  0
VERTEX
  8
0
 62
4
 10
-6.98800303E+01
 20
-1.27612819E+02
  0
VERTEX
  8
0
 62
4
 10
-6.95904494E+01
 20
-1.27643314E+02
  0
VERTEX
  8
0
 62
4
 10
-6.92963751E+01
 20
-1.27661704E+02
  0
VERTEX
  8
0
 62
4
 10
-6.90000456E+01
 20
-1.27667850E+02
  0
VERTEX
  8
0
 62
4
 10
-6.87037161E+01
 20
-1.27661704E+02
  0
VERTEX
  8
0
 62
4
 10
-6.84096418E+01
 20
-1.27643314E+02
  0
VERTEX
  8
0
 62
4
 10
-6.81200608E+01
 20
-1.27612819E+02
  0
VERTEX
  8
0
 62
4
 10
-6.78371771E+01
 20
-1.27570451E+02
  0
VERTEX
  8
0
 62
4
 10
-6.75631435E+01
 20
-1.27516533E+02
  0
VERTEX
  8
0
 62
4
 10
-6.73000456E+01
 20
-1.27451476E+02
  0
VERTEX
  8
0
 62
4
 10
-6.70498857E+01
 20
-1.27375774E+02
  0
VERTEX
  8
0
 62
4
 10
-6.68145677E+01
 20
-1.27290003E+02
  0
VERTEX
  8
0
 62
4
 10
-6.65958825E+01
 20
-1.27194817E+02
  0
VERTEX
  8
0
 62
4
 10
-6.63954945E+01
 20
-1.27090939E+02
  0
VERTEX
  8
0
 62
4
 10
-6.62149286E+01
 20
-1.26979160E+02
  0
VERTEX
  8
0
 62
4
 10
-6.60555592E+01
 20
-1.26860332E+02
  0
VERTEX
  8
0
 62
4
 10
-6.59185991E+01
 20
-1.26735358E+02
  0
VERTEX
  8
0
 62
4
 10
-6.58050907E+01
 20
-1.26605189E+02
  0
VERTEX
  8
0
 62
4
 10
-6.57158978E+01
 20
-1.26470816E+02
  0
VERTEX
  8
0
 62
4
 10
-6.56516992E+01
 20
-1.26333262E+02
  0
VERTEX
  8
0
 62
4
 10
-6.56129836E+01
 20
-1.26193574E+02
  0
VERTEX
  8
0
 62
4
 10
-6.56000456E+01
 20
-1.26052814E+02
  0
SEQEND
  8
0
  0
ARC
  8
0
 62
4
 10
-7.32356405E+01
 20
-1.15380859E+02
 40
1.21769740E+01
 50
2.81737853E+02
 51
2.99537899E+02
  0
ARC
  8
0
 62
4
 10
-6.47644506E+01
 20
-1.15380859E+02
 40
1.21769740E+01
 50
2.40462101E+02
 51
2.58262147E+02
  0
LINE
  8
0
 62
4
 10
-6.59910851E+01
 20
-1.26804796E+02
 11
-4.35000456E+01
 21
-1.26804796E+02
  0
POLYLINE
  8
0
 62
4
 66
1
  0
VERTEX
  8
0
 62
4
 10
-5.51050035E+01
 20
-1.07055572E+02
  0
VERTEX
  8
0
 62
4
 10
-5.53415471E+01
 20
-1.07232173E+02
  0
VERTEX
  8
0
 62
4
 10
-5.55601381E+01
 20
-1.07426851E+02
  0
VERTEX
  8
0
 62
4
 10
-5.57591006E+01
 20
-1.07638113E+02
  0
VERTEX
  8
0
 62
4
 10
-5.59369090E+01
 20
-1.07864339E+02
  0
VERTEX
  8
0
 62
4
 10
-5.60922000E+01
 20
-1.08103795E+02
  0
VERTEX
  8
0
 62
4
 10
-5.62237831E+01
 20
-1.08354644E+02
  0
VERTEX
  8
0
 62
4
 10
-5.63306494E+01
 20
-1.08614964E+02
  0
VERTEX
  8
0
 62
4
 10
-5.64119795E+01
 20
-1.08882759E+02
  0
VERTEX
  8
0
 62
4
 10
-5.64671498E+01
 20
-1.09155976E+02
  0
VERTEX
  8
0
 62
4
 10
-5.64957374E+01
 20
-1.09432519E+02
  0
VERTEX
  8
0
 62
4
 10
-5.64975231E+01
 20
-1.09710268E+02
  0
VERTEX
  8
0
 62
4
 10
-5.64724931E+01
 20
-1.09987094E+02
  0
VERTEX
  8
0
 62
4
 10
-5.64208395E+01
 20
-1.10260875E+02
  0
VERTEX
  8
0
 62
4
 10
-5.63429581E+01
 20
-1.10529510E+02
  0
VERTEX
  8
0
 62
4
 10
-5.62394462E+01
 20
-1.10790941E+02
  0
VERTEX
  8
0
 62
4
 10
-5.61110973E+01
 20
-1.11043164E+02
  0
VERTEX
  8
0
 62
4
 10
-5.59588957E+01
 20
-1.11284243E+02
  0
VERTEX
  8
0
 62
4
 10
-5.57840081E+01
 20
-1.11512332E+02
  0
VERTEX
  8
0
 62
4
 10
-5.55877755E+01
 20
-1.11725681E+02
  0
VERTEX
  8
0
 62
4
 10
-5.53717024E+01
 20
-1.11922654E+02
  0
VERTEX
  8
0
 62
4
 10
-5.51374456E+01
 20
-1.12101741E+02
  0
VERTEX
  8
0
 62
4
 10
-5.48868010E+01
 20
-1.12261569E+02
  0
VERTEX
  8
0
 62
4
 10
-5.46216904E+01
 20
-1.12400913E+02
  0
VERTEX
  8
0
 62
4
 10
-5.43441464E+01
 20
-1.12518704E+02
  0
VERTEX
  8
0
 62
4
 10
-5.40562971E+01
 20
-1.12614040E+02
  0
VERTEX
  8
0
 62
4
 10
-5.37603493E+01
 20
-1.12686188E+02
  0
VERTEX
  8
0
 62
4
 10
-5.34585721E+01
 20
-1.12734597E+02
  0
VERTEX
  8
0
 62
4
 10
-5.31532794E+01
 20
-1.12758894E+02
  0
VERTEX
  8
0
 62
4
 10
-5.28468118E+01
 20
-1.12758894E+02
  0
VERTEX
  8
0
 62
4
 10
-5.25415191E+01
 20
-1.12734597E+02
  0
VERTEX
  8
0
 62
4
 10
-5.22397420E+01
 20
-1.12686188E+02
  0
VERTEX
  8
0
 62
4
 10
-5.19437942E+01
 20
-1.12614040E+02
  0
VERTEX
  8
0
 62
4
 10
-5.16559448E+01
 20
-1.12518704E+02
  0
VERTEX
  8
0
 62
4
 10
-5.13784009E+01
 20
-1.12400913E+02
  0
VERTEX
  8
0
 62
4
 10
-5.11132903E+01
 20
-1.12261569E+02
  0
VERTEX
  8
0
 62
4
 10
-5.08626457E+01
 20
-1.12101741E+02
  0
VERTEX
  8
0
 62
4
 10
-5.06283888E+01
 20
-1.11922654E+02
  0
VERTEX
  8
0
 62
4
 10
-5.04123157E+01
 20
-1.11725681E+02
  0
VERTEX
  8
0
 62
4
 10
-5.02160831E+01
 20
-1.11512332E+02
  0
VERTEX
  8
0
 62
4
 10
-5.00411956E+01
 20
-1.11284243E+02
  0
VERTEX
  8
0
 62
4
 10
-4.98889939E+01
 20
-1.11043164E+02
  0
VERTEX
  8
0
 62
4
 10
-4.97606450E+01
 20
-1.10790941E+02
  0
VERTEX
  8
0
 62
4
 10
-4.96571331E+01
 20
-1.10529510E+02
  0
VERTEX
  8
0
 62
4
 10
-4.95792518E+01
 20
-1.10260875E+02
  0
VERTEX
  8
0
 62
4
 10
-4.95275981E+01
 20
-1.09987094E+02
  0
VERTEX
  8
0
 62
4
 10
-4.95025681E+01
 20
-1.09710268E+02
  0
VERTEX
  8
0
 62
4
 10
-4.95043538E+01
 20
-1.09432519E+02
  0
VERTEX
  8
0
 62
4
 10
-4.95329414E+01
 20
-1.09155976E+02
  0
VERTEX
  8
0
 62
4
 10
-4.95881117E+01
 20
-1.08882759E+02
  0
VERTEX
  8
0
 62
4
 10
-4.96694418E+01
 20
-1.08614965E+02
  0
VERTEX
  8
0
 62
4
 10
-4.97763081E+01
 20
-1.08354644E+02
  0
VERTEX
  8
0
 62
4
 10
-4.99078912E+01
 20
-1.08103795E+02
  0
VERTEX
  8
0
 62
4
 10
-5.00631822E+01
 20
-1.07864339E+02
  0
VERTEX
  8
0
 62
4
 10
-5.02409906E+01
 20
-1.07638113E+02
  0
VERTEX
  8
0
 62
4
 10
-5.04399530E+01
 20
-1.07426851E+02
  0
VERTEX
  8
0
 62
4
 10
-5.06585440E+01
 20
-1.07232173E+02
  0
VERTEX
  8
0
 62
4
 10
-5.08950876E+01
 20
-1.07055572E+02
  0
SEQEND
  8
0
  0
POLYLINE
  8
0
 62
4
 66
1
  0
VERTEX
  8
0
 62
4
 10
-4.98600456E+01
 20
-1.09167241E+02
  0
VERTEX
  8
0
 62
4
 10
-4.98719942E+01
 20
-1.08919213E+02
  0
VERTEX
  8
0
 62
4
 10
-4.99077493E+01
 20
-1.08673072E+02
  0
VERTEX
  8
0
 62
4
 10
-4.99670385E+01
 20
-1.08430692E+02
  0
VERTEX
  8
0
 62
4
 10
-5.00494108E+01
 20
-1.08193918E+02
  0
VERTEX
  8
0
 62
4
 10
-5.01542391E+01
 20
-1.07964551E+02
  0
VERTEX
  8
0
 62
4
 10
-5.02807258E+01
 20
-1.07744338E+02
  0
VERTEX
  8
0
 62
4
 10
-5.04279082E+01
 20
-1.07534953E+02
  0
VERTEX
  8
0
 62
4
 10
-5.05946660E+01
 20
-1.07337992E+02
  0
VERTEX
  8
0
 62
4
 10
-5.07797303E+01
 20
-1.07154952E+02
  0
VERTEX
  8
0
 62
4
 10
-5.09816925E+01
 20
-1.06987227E+02
  0
VERTEX
  8
0
 62
4
 10
-5.11990156E+01
 20
-1.06836093E+02
  0
VERTEX
  8
0
 62
4
 10
-5.14300456E+01
 20
-1.06702700E+02
  0
VERTEX
  8
0
 62
4
 10
-5.16730243E+01
 20
-1.06588064E+02
  0
VERTEX
  8
0
 62
4
 10
-5.19261024E+01
 20
-1.06493058E+02
  0
VERTEX
  8
0
 62
4
 10
-5.21873538E+01
 20
-1.06418403E+02
  0
VERTEX
  8
0
 62
4
 10
-5.24547903E+01
 20
-1.06364669E+02
  0
VERTEX
  8
0
 62
4
 10
-5.27263766E+01
 20
-1.06332264E+02
  0
VERTEX
  8
0
 62
4
 10
-5.30000456E+01
 20
-1.06321435E+02
  0
VERTEX
  8
0
 62
4
 10
-5.32737146E+01
 20
-1.06332264E+02
  0
VERTEX
  8
0
 62
4
 10
-5.35453009E+01
 20
-1.06364669E+02
  0
VERTEX
  8
0
 62
4
 10
-5.38127374E+01
 20
-1.06418403E+02
  0
VERTEX
  8
0
 62
4
 10
-5.40739889E+01
 20
-1.06493058E+02
  0
VERTEX
  8
0
 62
4
 10
-5.43270669E+01
 20
-1.06588064E+02
  0
VERTEX
  8
0
 62
4
 10
-5.45700456E+01
 20
-1.06702700E+02
  0
VERTEX
  8
0
 62
4
 10
-5.48010756E+01
 20
-1.06836093E+02
  0
VERTEX
  8
0
 62
4
 10
-5.50183987E+01
 20
-1.06987227E+02
  0
VERTEX
  8
0
 62
4
 10
-5.52203609E+01
 20
-1.07154952E+02
  0
VERTEX
  8
0
 62
4
 10
-5.54054252E+01
 20
-1.07337992E+02
  0
VERTEX
  8
0
 62
4
 10
-5.55721830E+01
 20
-1.07534953E+02
  0
VERTEX
  8
0
 62
4
 10
-5.57193654E+01
 20
-1.07744338E+02
  0
VERTEX
  8
0
 62
4
 10
-5.58458521E+01
 20
-1.07964551E+02
  0
VERTEX
  8
0
 62
4
 10
-5.59506804E+01
 20
-1.08193918E+02
  0
VERTEX
  8
0
 62
4
 10
-5.60330527E+01
 20
-1.08430692E+02
  0
VERTEX
  8
0
 62
4
 10
-5.60923419E+01
 20
-1.08673072E+02
  0
VERTEX
  8
0
 62
4
 10
-5.61280970E+01
 20
-1.08919213E+02
  0
VERTEX
  8
0
 62
4
 10
-5.61400456E+01
 20
-1.09167241E+02
  0
VERTEX
  8
0
 62
4
 10
-5.61280970E+01
 20
-1.09415269E+02
  0
VERTEX
  8
0
 62
4
 10
-5.60923419E+01
 20
-1.09661410E+02
  0
VERTEX
  8
0
 62
4
 10
-5.60330527E+01
 20
-1.09903790E+02
  0
VERTEX
  8
0
 62
4
 10
-5.59506804E+01
 20
-1.10140564E+02
  0
VERTEX
  8
0
 62
4
 10
-5.58458520E+01
 20
-1.10369931E+02
  0
VERTEX
  8
0
 62
4
 10
-5.57193654E+01
 20
-1.10590144E+02
  0
VERTEX
  8
0
 62
4
 10
-5.55721830E+01
 20
-1.10799529E+02
  0
VERTEX
  8
0
 62
4
 10
-5.54054251E+01
 20
-1.10996490E+02
  0
VERTEX
  8
0
 62
4
 10
-5.52203609E+01
 20
-1.11179530E+02
  0
VERTEX
  8
0
 62
4
 10
-5.50183987E+01
 20
-1.11347255E+02
  0
VERTEX
  8
0
 62
4
 10
-5.48010756E+01
 20
-1.11498389E+02
  0
VERTEX
  8
0
 62
4
 10
-5.45700456E+01
 20
-1.11631782E+02
  0
VERTEX
  8
0
 62
4
 10
-5.43270669E+01
 20
-1.11746418E+02
  0
VERTEX
  8
0
 62
4
 10
-5.40739888E+01
 20
-1.11841424E+02
  0
VERTEX
  8
0
 62
4
 10
-5.38127374E+01
 20
-1.11916079E+02
  0
VERTEX
  8
0
 62
4
 10
-5.35453009E+01
 20
-1.11969813E+02
  0
VERTEX
  8
0
 62
4
 10
-5.32737146E+01
 20
-1.12002218E+02
  0
VERTEX
  8
0
 62
4
 10
-5.30000456E+01
 20
-1.12013047E+02
  0
VERTEX
  8
0
 62
4
 10
-5.27263766E+01
 20
-1.12002218E+02
  0
VERTEX
  8
0
 62
4
 10
-5.24547903E+01
 20
-1.11969813E+02
  0
VERTEX
  8
0
 62
4
 10
-5.21873538E+01
 20
-1.11916079E+02
  0
VERTEX
  8
0
 62
4
 10
-5.19261023E+01
 20
-1.11841424E+02
  0
VERTEX
  8
0
 62
4
 10
-5.16730243E+01
 20
-1.11746418E+02
  0
VERTEX
  8
0
 62
4
 10
-5.14300456E+01
 20
-1.11631782E+02
  0
VERTEX
  8
0
 62
4
 10
-5.11990156E+01
 20
-1.11498389E+02
  0
VERTEX
  8
0
 62
4
 10
-5.09816925E+01
 20
-1.11347255E+02
  0
VERTEX
  8
0
 62
4
 10
-5.07797303E+01
 20
-1.11179530E+02
  0
VERTEX
  8
0
 62
4
 10
-5.05946660E+01
 20
-1.10996490E+02
  0
VERTEX
  8
0
 62
4
 10
-5.04279082E+01
 20
-1.10799529E+02
  0
VERTEX
  8
0
 62
4
 10
-5.02807258E+01
 20
-1.10590144E+02
  0
VERTEX
  8
0
 62
4
 10
-5.01542391E+01
 20
-1.10369931E+02
  0
VERTEX
  8
0
 62
4
 10
-5.00494108E+01
 20
-1.10140564E+02
  0
VERTEX
  8
0
 62
4
 10
-4.99670385E+01
 20
-1.09903790E+02
  0
VERTEX
  8
0
 62
4
 10
-4.99077493E+01
 20
-1.09661410E+02
  0
VERTEX
  8
0
 62
4
 10
-4.98719942E+01
 20
-1.09415269E+02
  0
VERTEX
  8
0
 62
4
 10
-4.98600456E+01
 20
-1.09167241E+02
  0
SEQEND
  8
0
  0
LINE
  8
0
 62
4
 10
-7.85000456E+01
 20
-1.18199738E+02
 11
-5.95000456E+01
 21
-1.18199738E+02
  0
LINE
  8
0
 62
4
 10
3.53499985E+02
 20
-2.63299446E+02
 11
3.68499985E+02
 21
-2.63299446E+02
  0
LINE
  8
0
 62
4
 10
3.53499985E+02
 20
-2.88271947E+02
 11
3.68499985E+02
 21
-2.88271947E+02
  0
LINE
  8
0
 62
4
 10
3.54499985E+02
 20
-2.77503687E+02
 11
3.67499985E+02
 21
-2.77503687E+02
  0
LINE
  8
0
 62
4
 10
3.68499985E+02
 20
-2.60343664E+02
 11
3.68499985E+02
 21
-2.88271947E+02
  0
LINE
  8
0
 62
4
 10
3.53499985E+02
 20
-2.60343664E+02
 11
3.53499985E+02
 21
-2.88271947E+02
  0
LINE
  8
0
 62
4
 10
3.81499985E+02
 20
-2.25958264E+02
 11
3.77999985E+02
 21
-2.25958264E+02
  0
LINE
  8
0
 62
4
 10
3.71499985E+02
 20
-2.56568195E+02
 11
3.35499985E+02
 21
-2.56568195E+02
  0
LINE
  8
0
 62
4
 10
3.87999985E+02
 20
-2.24910934E+02
 11
3.82999985E+02
 21
-2.24910934E+02
  0
LINE
  8
0
 62
4
 10
3.68499985E+02
 20
-2.24708264E+02
 11
3.77499985E+02
 21
-2.24708264E+02
  0
LINE
  8
0
 62
4
 10
3.77999985E+02
 20
-2.25208264E+02
 11
3.77999985E+02
 21
-2.38208264E+02
  0
LINE
  8
0
 62
4
 10
3.87999985E+02
 20
-2.24910934E+02
 11
3.87999985E+02
 21
-2.38514613E+02
  0
LINE
  8
0
 62
4
 10
3.82999985E+02
 20
-2.24910934E+02
 11
3.82999985E+02
 21
-2.38514613E+02
  0
LINE
  8
0
 62
4
 10
3.82999985E+02
 20
-2.25458264E+02
 11
3.77999985E+02
 21
-2.25458264E+02
  0
LINE
  8
0
 62
4
 10
3.82999985E+02
 20
-2.37958264E+02
 11
3.77999985E+02
 21
-2.37958264E+02
  0
LINE
  8
0
 62
4
 10
3.81499985E+02
 20
-2.25458264E+02
 11
3.81499985E+02
 21
-2.37958264E+02
  0
LINE
  8
0
 62
4
 10
3.81499985E+02
 20
-2.37458264E+02
 11
3.77999985E+02
 21
-2.37458264E+02
  0
LINE
  8
0
 62
4
 10
3.77499985E+02
 20
-2.38708264E+02
 11
3.68999985E+02
 21
-2.38708264E+02
  0
LINE
  8
0
 62
4
 10
3.68499985E+02
 20
-2.29440032E+02
 11
3.53499985E+02
 21
-2.29440032E+02
  0
LINE
  8
0
 62
4
 10
3.70499985E+02
 20
-2.52942963E+02
 11
3.51499985E+02
 21
-2.52942963E+02
  0
LINE
  8
0
 62
4
 10
3.72999985E+02
 20
-2.49804222E+02
 11
3.72999985E+02
 21
-2.72999969E+02
  0
LINE
  8
0
 62
4
 10
3.70499985E+02
 20
-2.52942963E+02
 11
3.70499985E+02
 21
-2.56568195E+02
  0
LINE
  8
0
 62
4
 10
3.53499985E+02
 20
-2.23100758E+02
 11
3.53499985E+02
 21
-2.52942963E+02
  0
LINE
  8
0
 62
4
 10
3.68499985E+02
 20
-2.23100758E+02
 11
3.68499985E+02
 21
-2.52942963E+02
  0
LINE
  8
0
 62
4
 10
3.51499985E+02
 20
-2.52942963E+02
 11
3.51499985E+02
 21
-2.56568195E+02
  0
LINE
  8
0
 62
4
 10
3.33999985E+02
 20
-2.49804222E+02
 11
3.33999985E+02
 21
-2.72999969E+02
  0
ARC
  8
0
 62
4
 10
3.71499976E+02
 20
-2.58068203E+02
 40
1.50000856E+00
 50
3.27119593E-04
 51
8.99996730E+01
  0
ARC
  8
0
 62
4
 10
3.77499997E+02
 20
-2.38208275E+02
 40
4.99988098E-01
 50
2.69998636E+02
 51
1.36386840E-03
  0
ARC
  8
0
 62
4
 10
3.77499973E+02
 20
-2.25208275E+02
 40
5.00011902E-01
 50
1.36383594E-03
 51
8.99986360E+01
  0
ARC
  8
0
 62
4
 10
3.68999999E+02
 20
-2.39208277E+02
 40
5.00013809E-01
 50
9.00015821E+01
 51
1.79998418E+02
  0
ARC
  8
0
 62
4
 10
3.35499994E+02
 20
-2.58068203E+02
 40
1.50000856E+00
 50
9.00003273E+01
 51
1.79999673E+02
  0
LINE
  8
0
 62
4
 10
3.68499985E+02
 20
-2.23100758E+02
 11
3.53499985E+02
 21
-2.23100758E+02
  0
LINE
  8
0
 62
4
 10
3.68499985E+02
 20
-2.51191419E+02
 11
3.53499985E+02
 21
-2.51191419E+02
  0
ARC
  8
0
 62
4
 10
3.71499976E+02
 20
-2.49804231E+02
 40
1.50000856E+00
 50
3.27119593E-04
 51
8.99996730E+01
  0
LINE
  8
0
 62
4
 10
3.71499985E+02
 20
-2.48304222E+02
 11
3.68499985E+02
 21
-2.48304222E+02
  0
ARC
  8
0
 62
4
 10
3.35499994E+02
 20
-2.49804231E+02
 40
1.50000856E+00
 50
9.00003273E+01
 51
1.79999673E+02
  0
LINE
  8
0
 62
4
 10
3.53499985E+02
 20
-2.48304222E+02
 11
3.35499985E+02
 21
-2.48304222E+02
  0
LINE
  8
0
 62
4
 10
3.53499985E+02
 20
-2.60343664E+02
 11
3.68499985E+02
 21
-2.60343664E+02
  0
LINE
  8
0
  6
CENTER
 62
6
 10
3.51999985E+02
 20
-2.85063027E+02
 11
3.69999985E+02
 21
-2.85063027E+02
  0
LINE
  8
0
  6
CENTER
 62
6
 10
3.56999985E+02
 20
-2.80063027E+02
 11
3.56999985E+02
 21
-2.90063027E+02
  0
LINE
  8
0
  6
CENTER
 62
6
 10
3.64999985E+02
 20
-2.80063027E+02
 11
3.64999985E+02
 21
-2.90063027E+02
  0
POLYLINE
  8
0
 62
4
 66
1
  0
VERTEX
  8
0
 62
4
 10
3.58734985E+02
 20
-2.85058495E+02
  0
VERTEX
  8
0
 62
4
 10
3.58728383E+02
 20
-2.84921447E+02
  0
VERTEX
  8
0
 62
4
 10
3.58708626E+02
 20
-2.84785443E+02
  0
VERTEX
  8
0
 62
4
 10
3.58675866E+02
 20
-2.84651517E+02
  0
VERTEX
  8
0
 62
4
 10
3.58630352E+02
 20
-2.84520687E+02
  0
VERTEX
  8
0
 62
4
 10
3.58572429E+02
 20
-2.84393951E+02
  0
VERTEX
  8
0
 62
4
 10
3.58502539E+02
 20
-2.84272273E+02
  0
VERTEX
  8
0
 62
4
 10
3.58421214E+02
 20
-2.84156578E+02
  0
VERTEX
  8
0
 62
4
 10
3.58329072E+02
 20
-2.84047747E+02
  0
VERTEX
  8
0
 62
4
 10
3.58226815E+02
 20
-2.83946609E+02
  0
VERTEX
  8
0
 62
4
 10
3.58115222E+02
 20
-2.83853933E+02
  0
VERTEX
  8
0
 62
4
 10
3.57995140E+02
 20
-2.83770424E+02
  0
VERTEX
  8
0
 62
4
 10
3.57867485E+02
 20
-2.83696719E+02
  0
VERTEX
  8
0
 62
4
 10
3.57733228E+02
 20
-2.83633377E+02
  0
VERTEX
  8
0
 62
4
 10
3.57593390E+02
 20
-2.83580881E+02
  0
VERTEX
  8
0
 62
4
 10
3.57449036E+02
 20
-2.83539631E+02
  0
VERTEX
  8
0
 62
4
 10
3.57301265E+02
 20
-2.83509940E+02
  0
VERTEX
  8
0
 62
4
 10
3.57151200E+02
 20
-2.83492035E+02
  0
VERTEX
  8
0
 62
4
 10
3.56999985E+02
 20
-2.83486051E+02
  0
VERTEX
  8
0
 62
4
 10
3.56848770E+02
 20
-2.83492035E+02
  0
VERTEX
  8
0
 62
4
 10
3.56698705E+02
 20
-2.83509940E+02
  0
VERTEX
  8
0
 62
4
 10
3.56550934E+02
 20
-2.83539631E+02
  0
VERTEX
  8
0
 62
4
 10
3.56406580E+02
 20
-2.83580881E+02
  0
VERTEX
  8
0
 62
4
 10
3.56266742E+02
 20
-2.83633377E+02
  0
VERTEX
  8
0
 62
4
 10
3.56132485E+02
 20
-2.83696719E+02
  0
VERTEX
  8
0
 62
4
 10
3.56004830E+02
 20
-2.83770424E+02
  0
VERTEX
  8
0
 62
4
 10
3.55884748E+02
 20
-2.83853933E+02
  0
VERTEX
  8
0
 62
4
 10
3.55773155E+02
 20
-2.83946609E+02
  0
VERTEX
  8
0
 62
4
 10
3.55670898E+02
 20
-2.84047747E+02
  0
VERTEX
  8
0
 62
4
 10
3.55578756E+02
 20
-2.84156578E+02
  0
VERTEX
  8
0
 62
4
 10
3.55497431E+02
 20
-2.84272273E+02
  0
VERTEX
  8
0
 62
4
 10
3.55427541E+02
 20
-2.84393951E+02
  0
VERTEX
  8
0
 62
4
 10
3.55369618E+02
 20
-2.84520687E+02
  0
VERTEX
  8
0
 62
4
 10
3.55324104E+02
 20
-2.84651517E+02
  0
VERTEX
  8
0
 62
4
 10
3.55291344E+02
 20
-2.84785443E+02
  0
VERTEX
  8
0
 62
4
 10
3.55271587E+02
 20
-2.84921447E+02
  0
VERTEX
  8
0
 62
4
 10
3.55264985E+02
 20
-2.85058495E+02
  0
VERTEX
  8
0
 62
4
 10
3.55271587E+02
 20
-2.85195543E+02
  0
VERTEX
  8
0
 62
4
 10
3.55291344E+02
 20
-2.85331547E+02
  0
VERTEX
  8
0
 62
4
 10
3.55324104E+02
 20
-2.85465473E+02
  0
VERTEX
  8
0
 62
4
 10
3.55369618E+02
 20
-2.85596303E+02
  0
VERTEX
  8
0
 62
4
 10
3.55427541E+02
 20
-2.85723039E+02
  0
VERTEX
  8
0
 62
4
 10
3.55497431E+02
 20
-2.85844717E+02
  0
VERTEX
  8
0
 62
4
 10
3.55578756E+02
 20
-2.85960412E+02
  0
VERTEX
  8
0
 62
4
 10
3.55670898E+02
 20
-2.86069243E+02
  0
VERTEX
  8
0
 62
4
 10
3.55773155E+02
 20
-2.86170381E+02
  0
VERTEX
  8
0
 62
4
 10
3.55884748E+02
 20
-2.86263057E+02
  0
VERTEX
  8
0
 62
4
 10
3.56004830E+02
 20
-2.86346566E+02
  0
VERTEX
  8
0
 62
4
 10
3.56132485E+02
 20
-2.86420271E+02
  0
VERTEX
  8
0
 62
4
 10
3.56266742E+02
 20
-2.86483613E+02
  0
VERTEX
  8
0
 62
4
 10
3.56406580E+02
 20
-2.86536109E+02
  0
VERTEX
  8
0
 62
4
 10
3.56550934E+02
 20
-2.86577359E+02
  0
VERTEX
  8
0
 62
4
 10
3.56698705E+02
 20
-2.86607050E+02
  0
VERTEX
  8
0
 62
4
 10
3.56848770E+02
 20
-2.86624955E+02
  0
VERTEX
  8
0
 62
4
 10
3.56999985E+02
 20
-2.86630939E+02
  0
VERTEX
  8
0
 62
4
 10
3.57151200E+02
 20
-2.86624955E+02
  0
VERTEX
  8
0
 62
4
 10
3.57301265E+02
 20
-2.86607050E+02
  0
VERTEX
  8
0
 62
4
 10
3.57449036E+02
 20
-2.86577359E+02
  0
VERTEX
  8
0
 62
4
 10
3.57593390E+02
 20
-2.86536109E+02
  0
VERTEX
  8
0
 62
4
 10
3.57733228E+02
 20
-2.86483613E+02
  0
VERTEX
  8
0
 62
4
 10
3.57867485E+02
 20
-2.86420271E+02
  0
VERTEX
  8
0
 62
4
 10
3.57995140E+02
 20
-2.86346566E+02
  0
VERTEX
  8
0
 62
4
 10
3.58115222E+02
 20
-2.86263057E+02
  0
VERTEX
  8
0
 62
4
 10
3.58226815E+02
 20
-2.86170381E+02
  0
VERTEX
  8
0
 62
4
 10
3.58329072E+02
 20
-2.86069243E+02
  0
VERTEX
  8
0
 62
4
 10
3.58421214E+02
 20
-2.85960412E+02
  0
VERTEX
  8
0
 62
4
 10
3.58502539E+02
 20
-2.85844717E+02
  0
VERTEX
  8
0
 62
4
 10
3.58572429E+02
 20
-2.85723039E+02
  0
VERTEX
  8
0
 62
4
 10
3.58630352E+02
 20
-2.85596303E+02
  0
VERTEX
  8
0
 62
4
 10
3.58675866E+02
 20
-2.85465473E+02
  0
VERTEX
  8
0
 62
4
 10
3.58708626E+02
 20
-2.85331547E+02
  0
VERTEX
  8
0
 62
4
 10
3.58728383E+02
 20
-2.85195543E+02
  0
VERTEX
  8
0
 62
4
 10
3.58734985E+02
 20
-2.85058495E+02
  0
SEQEND
  8
0
  0
POLYLINE
  8
0
 62
6
 66
1
  0
VERTEX
  8
0
 62
6
 10
3.58499985E+02
 20
-2.85063027E+02
  0
VERTEX
  8
0
 62
6
 10
3.58494277E+02
 20
-2.84944542E+02
  0
VERTEX
  8
0
 62
6
 10
3.58477197E+02
 20
-2.84826959E+02
  0
VERTEX
  8
0
 62
6
 10
3.58448874E+02
 20
-2.84711172E+02
  0
VERTEX
  8
0
 62
6
 10
3.58409524E+02
 20
-2.84598064E+02
  0
VERTEX
  8
0
 62
6
 10
3.58359447E+02
 20
-2.84488494E+02
  0
VERTEX
  8
0
 62
6
 10
3.58299023E+02
 20
-2.84383296E+02
  0
VERTEX
  8
0
 62
6
 10
3.58228713E+02
 20
-2.84283272E+02
  0
VERTEX
  8
0
 62
6
 10
3.58149052E+02
 20
-2.84189182E+02
  0
VERTEX
  8
0
 62
6
 10
3.58060645E+02
 20
-2.84101742E+02
  0
VERTEX
  8
0
 62
6
 10
3.57964166E+02
 20
-2.84021619E+02
  0
VERTEX
  8
0
 62
6
 10
3.57860350E+02
 20
-2.83949421E+02
  0
VERTEX
  8
0
 62
6
 10
3.57749985E+02
 20
-2.83885699E+02
  0
VERTEX
  8
0
 62
6
 10
3.57633912E+02
 20
-2.83830936E+02
  0
VERTEX
  8
0
 62
6
 10
3.57513015E+02
 20
-2.83785551E+02
  0
VERTEX
  8
0
 62
6
 10
3.57388214E+02
 20
-2.83749888E+02
  0
VERTEX
  8
0
 62
6
 10
3.57260457E+02
 20
-2.83724219E+02
  0
VERTEX
  8
0
 62
6
 10
3.57130719E+02
 20
-2.83708738E+02
  0
VERTEX
  8
0
 62
6
 10
3.56999985E+02
 20
-2.83703565E+02
  0
VERTEX
  8
0
 62
6
 10
3.56869251E+02
 20
-2.83708738E+02
  0
VERTEX
  8
0
 62
6
 10
3.56739513E+02
 20
-2.83724219E+02
  0
VERTEX
  8
0
 62
6
 10
3.56611756E+02
 20
-2.83749888E+02
  0
VERTEX
  8
0
 62
6
 10
3.56486955E+02
 20
-2.83785551E+02
  0
VERTEX
  8
0
 62
6
 10
3.56366058E+02
 20
-2.83830936E+02
  0
VERTEX
  8
0
 62
6
 10
3.56249985E+02
 20
-2.83885699E+02
  0
VERTEX
  8
0
 62
6
 10
3.56139620E+02
 20
-2.83949421E+02
  0
VERTEX
  8
0
 62
6
 10
3.56035804E+02
 20
-2.84021619E+02
  0
VERTEX
  8
0
 62
6
 10
3.55939325E+02
 20
-2.84101742E+02
  0
VERTEX
  8
0
 62
6
 10
3.55850918E+02
 20
-2.84189182E+02
  0
VERTEX
  8
0
 62
6
 10
3.55771257E+02
 20
-2.84283272E+02
  0
VERTEX
  8
0
 62
6
 10
3.55700947E+02
 20
-2.84383296E+02
  0
VERTEX
  8
0
 62
6
 10
3.55640523E+02
 20
-2.84488494E+02
  0
VERTEX
  8
0
 62
6
 10
3.55590446E+02
 20
-2.84598064E+02
  0
VERTEX
  8
0
 62
6
 10
3.55551096E+02
 20
-2.84711172E+02
  0
VERTEX
  8
0
 62
6
 10
3.55522773E+02
 20
-2.84826959E+02
  0
VERTEX
  8
0
 62
6
 10
3.55505693E+02
 20
-2.84944542E+02
  0
VERTEX
  8
0
 62
6
 10
3.55499985E+02
 20
-2.85063027E+02
  0
VERTEX
  8
0
 62
6
 10
3.55505693E+02
 20
-2.85181512E+02
  0
VERTEX
  8
0
 62
6
 10
3.55522773E+02
 20
-2.85299095E+02
  0
VERTEX
  8
0
 62
6
 10
3.55551096E+02
 20
-2.85414882E+02
  0
VERTEX
  8
0
 62
6
 10
3.55590446E+02
 20
-2.85527990E+02
  0
VERTEX
  8
0
 62
6
 10
3.55640523E+02
 20
-2.85637560E+02
  0
VERTEX
  8
0
 62
6
 10
3.55700947E+02
 20
-2.85742758E+02
  0
VERTEX
  8
0
 62
6
 10
3.55771257E+02
 20
-2.85842782E+02
  0
VERTEX
  8
0
 62
6
 10
3.55850918E+02
 20
-2.85936872E+02
  0
VERTEX
  8
0
 62
6
 10
3.55939325E+02
 20
-2.86024312E+02
  0
VERTEX
  8
0
 62
6
 10
3.56035804E+02
 20
-2.86104435E+02
  0
VERTEX
  8
0
 62
6
 10
3.56139620E+02
 20
-2.86176633E+02
  0
VERTEX
  8
0
 62
6
 10
3.56249985E+02
 20
-2.86240355E+02
  0
VERTEX
  8
0
 62
6
 10
3.56366058E+02
 20
-2.86295118E+02
  0
VERTEX
  8
0
 62
6
 10
3.56486955E+02
 20
-2.86340503E+02
  0
VERTEX
  8
0
 62
6
 10
3.56611756E+02
 20
-2.86376166E+02
  0
VERTEX
  8
0
 62
6
 10
3.56739513E+02
 20
-2.86401835E+02
  0
VERTEX
  8
0
 62
6
 10
3.56869251E+02
 20
-2.86417316E+02
  0
VERTEX
  8
0
 62
6
 10
3.56999985E+02
 20
-2.86422489E+02
  0
VERTEX
  8
0
 62
6
 10
3.57130719E+02
 20
-2.86417316E+02
  0
VERTEX
  8
0
 62
6
 10
3.57260457E+02
 20
-2.86401835E+02
  0
VERTEX
  8
0
 62
6
 10
3.57388214E+02
 20
-2.86376166E+02
  0
VERTEX
  8
0
 62
6
 10
3.57513015E+02
 20
-2.86340503E+02
  0
VERTEX
  8
0
 62
6
 10
3.57633912E+02
 20
-2.86295118E+02
  0
VERTEX
  8
0
 62
6
 10
3.57749985E+02
 20
-2.86240355E+02
  0
VERTEX
  8
0
 62
6
 10
3.57860350E+02
 20
-2.86176633E+02
  0
VERTEX
  8
0
 62
6
 10
3.57964166E+02
 20
-2.86104435E+02
  0
VERTEX
  8
0
 62
6
 10
3.58060645E+02
 20
-2.86024312E+02
  0
VERTEX
  8
0
 62
6
 10
3.58149052E+02
 20
-2.85936872E+02
  0
VERTEX
  8
0
 62
6
 10
3.58228713E+02
 20
-2.85842782E+02
  0
VERTEX
  8
0
 62
6
 10
3.58299023E+02
 20
-2.85742758E+02
  0
VERTEX
  8
0
 62
6
 10
3.58359447E+02
 20
-2.85637560E+02
  0
VERTEX
  8
0
 62
6
 10
3.58409524E+02
 20
-2.85527990E+02
  0
VERTEX
  8
0
 62
6
 10
3.58448874E+02
 20
-2.85414882E+02
  0
VERTEX
  8
0
 62
6
 10
3.58477197E+02
 20
-2.85299095E+02
  0
VERTEX
  8
0
 62
6
 10
3.58494277E+02
 20
-2.85181512E+02
  0
VERTEX
  8
0
 62
6
 10
3.58499985E+02
 20
-2.85063027E+02
  0
SEQEND
  8
0
  0
POLYLINE
  8
0
 62
4
 66
1
  0
VERTEX
  8
0
 62
4
 10
3.58732707E+02
 20
-2.85139051E+02
  0
VERTEX
  8
0
 62
4
 10
3.58814708E+02
 20
-2.84995733E+02
  0
VERTEX
  8
0
 62
4
 10
3.58882313E+02
 20
-2.84846371E+02
  0
VERTEX
  8
0
 62
4
 10
3.58934987E+02
 20
-2.84692150E+02
  0
VERTEX
  8
0
 62
4
 10
3.58972311E+02
 20
-2.84534292E+02
  0
VERTEX
  8
0
 62
4
 10
3.58993989E+02
 20
-2.84374051E+02
  0
VERTEX
  8
0
 62
4
 10
3.58999850E+02
 20
-2.84212698E+02
  0
VERTEX
  8
0
 62
4
 10
3.58989846E+02
 20
-2.84051512E+02
  0
VERTEX
  8
0
 62
4
 10
3.58964058E+02
 20
-2.83891772E+02
  0
VERTEX
  8
0
 62
4
 10
3.58922689E+02
 20
-2.83734745E+02
  0
VERTEX
  8
0
 62
4
 10
3.58866069E+02
 20
-2.83581677E+02
  0
VERTEX
  8
0
 62
4
 10
3.58794645E+02
 20
-2.83433781E+02
  0
VERTEX
  8
0
 62
4
 10
3.58708986E+02
 20
-2.83292232E+02
  0
VERTEX
  8
0
 62
4
 10
3.58609769E+02
 20
-2.83158152E+02
  0
VERTEX
  8
0
 62
4
 10
3.58497783E+02
 20
-2.83032605E+02
  0
VERTEX
  8
0
 62
4
 10
3.58373915E+02
 20
-2.82916587E+02
  0
VERTEX
  8
0
 62
4
 10
3.58239148E+02
 20
-2.82811017E+02
  0
VERTEX
  8
0
 62
4
 10
3.58094552E+02
 20
-2.82716733E+02
  0
VERTEX
  8
0
 62
4
 10
3.57941273E+02
 20
-2.82634484E+02
  0
VERTEX
  8
0
 62
4
 10
3.57780527E+02
 20
-2.82564922E+02
  0
VERTEX
  8
0
 62
4
 10
3.57613589E+02
 20
-2.82508598E+02
  0
VERTEX
  8
0
 62
4
 10
3.57441784E+02
 20
-2.82465959E+02
  0
VERTEX
  8
0
 62
4
 10
3.57266474E+02
 20
-2.82437344E+02
  0
VERTEX
  8
0
 62
4
 10
3.57089050E+02
 20
-2.82422980E+02
  0
VERTEX
  8
0
 62
4
 10
3.56910920E+02
 20
-2.82422980E+02
  0
VERTEX
  8
0
 62
4
 10
3.56733496E+02
 20
-2.82437344E+02
  0
VERTEX
  8
0
 62
4
 10
3.56558186E+02
 20
-2.82465959E+02
  0
VERTEX
  8
0
 62
4
 10
3.56386381E+02
 20
-2.82508598E+02
  0
VERTEX
  8
0
 62
4
 10
3.56219443E+02
 20
-2.82564922E+02
  0
VERTEX
  8
0
 62
4
 10
3.56058697E+02
 20
-2.82634484E+02
  0
VERTEX
  8
0
 62
4
 10
3.55905418E+02
 20
-2.82716733E+02
  0
VERTEX
  8
0
 62
4
 10
3.55760822E+02
 20
-2.82811017E+02
  0
VERTEX
  8
0
 62
4
 10
3.55626055E+02
 20
-2.82916587E+02
  0
VERTEX
  8
0
 62
4
 10
3.55502187E+02
 20
-2.83032605E+02
  0
VERTEX
  8
0
 62
4
 10
3.55390201E+02
 20
-2.83158152E+02
  0
VERTEX
  8
0
 62
4
 10
3.55290984E+02
 20
-2.83292232E+02
  0
VERTEX
  8
0
 62
4
 10
3.55205325E+02
 20
-2.83433781E+02
  0
VERTEX
  8
0
 62
4
 10
3.55133901E+02
 20
-2.83581677E+02
  0
VERTEX
  8
0
 62
4
 10
3.55077281E+02
 20
-2.83734745E+02
  0
VERTEX
  8
0
 62
4
 10
3.55035912E+02
 20
-2.83891772E+02
  0
VERTEX
  8
0
 62
4
 10
3.55010124E+02
 20
-2.84051512E+02
  0
VERTEX
  8
0
 62
4
 10
3.55000120E+02
 20
-2.84212698E+02
  0
VERTEX
  8
0
 62
4
 10
3.55005981E+02
 20
-2.84374052E+02
  0
VERTEX
  8
0
 62
4
 10
3.55027659E+02
 20
-2.84534292E+02
  0
VERTEX
  8
0
 62
4
 10
3.55064983E+02
 20
-2.84692150E+02
  0
VERTEX
  8
0
 62
4
 10
3.55117657E+02
 20
-2.84846371E+02
  0
VERTEX
  8
0
 62
4
 10
3.55185262E+02
 20
-2.84995733E+02
  0
VERTEX
  8
0
 62
4
 10
3.55267263E+02
 20
-2.85139051E+02
  0
SEQEND
  8
0
  0
POLYLINE
  8
0
 62
4
 66
1
  0
VERTEX
  8
0
 62
4
 10
3.66734985E+02
 20
-2.85058495E+02
  0
VERTEX
  8
0
 62
4
 10
3.66728383E+02
 20
-2.84921447E+02
  0
VERTEX
  8
0
 62
4
 10
3.66708626E+02
 20
-2.84785443E+02
  0
VERTEX
  8
0
 62
4
 10
3.66675866E+02
 20
-2.84651517E+02
  0
VERTEX
  8
0
 62
4
 10
3.66630352E+02
 20
-2.84520687E+02
  0
VERTEX
  8
0
 62
4
 10
3.66572429E+02
 20
-2.84393951E+02
  0
VERTEX
  8
0
 62
4
 10
3.66502539E+02
 20
-2.84272273E+02
  0
VERTEX
  8
0
 62
4
 10
3.66421214E+02
 20
-2.84156578E+02
  0
VERTEX
  8
0
 62
4
 10
3.66329072E+02
 20
-2.84047747E+02
  0
VERTEX
  8
0
 62
4
 10
3.66226815E+02
 20
-2.83946609E+02
  0
VERTEX
  8
0
 62
4
 10
3.66115222E+02
 20
-2.83853933E+02
  0
VERTEX
  8
0
 62
4
 10
3.65995140E+02
 20
-2.83770424E+02
  0
VERTEX
  8
0
 62
4
 10
3.65867485E+02
 20
-2.83696719E+02
  0
VERTEX
  8
0
 62
4
 10
3.65733228E+02
 20
-2.83633377E+02
  0
VERTEX
  8
0
 62
4
 10
3.65593390E+02
 20
-2.83580881E+02
  0
VERTEX
  8
0
 62
4
 10
3.65449036E+02
 20
-2.83539631E+02
  0
VERTEX
  8
0
 62
4
 10
3.65301265E+02
 20
-2.83509940E+02
  0
VERTEX
  8
0
 62
4
 10
3.65151200E+02
 20
-2.83492035E+02
  0
VERTEX
  8
0
 62
4
 10
3.64999985E+02
 20
-2.83486051E+02
  0
VERTEX
  8
0
 62
4
 10
3.64848770E+02
 20
-2.83492035E+02
  0
VERTEX
  8
0
 62
4
 10
3.64698705E+02
 20
-2.83509940E+02
  0
VERTEX
  8
0
 62
4
 10
3.64550934E+02
 20
-2.83539631E+02
  0
VERTEX
  8
0
 62
4
 10
3.64406580E+02
 20
-2.83580881E+02
  0
VERTEX
  8
0
 62
4
 10
3.64266742E+02
 20
-2.83633377E+02
  0
VERTEX
  8
0
 62
4
 10
3.64132485E+02
 20
-2.83696719E+02
  0
VERTEX
  8
0
 62
4
 10
3.64004830E+02
 20
-2.83770424E+02
  0
VERTEX
  8
0
 62
4
 10
3.63884748E+02
 20
-2.83853933E+02
  0
VERTEX
  8
0
 62
4
 10
3.63773155E+02
 20
-2.83946609E+02
  0
VERTEX
  8
0
 62
4
 10
3.63670898E+02
 20
-2.84047747E+02
  0
VERTEX
  8
0
 62
4
 10
3.63578756E+02
 20
-2.84156578E+02
  0
VERTEX
  8
0
 62
4
 10
3.63497431E+02
 20
-2.84272273E+02
  0
VERTEX
  8
0
 62
4
 10
3.63427541E+02
 20
-2.84393951E+02
  0
VERTEX
  8
0
 62
4
 10
3.63369618E+02
 20
-2.84520687E+02
  0
VERTEX
  8
0
 62
4
 10
3.63324104E+02
 20
-2.84651517E+02
  0
VERTEX
  8
0
 62
4
 10
3.63291344E+02
 20
-2.84785443E+02
  0
VERTEX
  8
0
 62
4
 10
3.63271587E+02
 20
-2.84921447E+02
  0
VERTEX
  8
0
 62
4
 10
3.63264985E+02
 20
-2.85058495E+02
  0
VERTEX
  8
0
 62
4
 10
3.63271587E+02
 20
-2.85195543E+02
  0
VERTEX
  8
0
 62
4
 10
3.63291344E+02
 20
-2.85331547E+02
  0
VERTEX
  8
0
 62
4
 10
3.63324104E+02
 20
-2.85465473E+02
  0
VERTEX
  8
0
 62
4
 10
3.63369618E+02
 20
-2.85596303E+02
  0
VERTEX
  8
0
 62
4
 10
3.63427541E+02
 20
-2.85723039E+02
  0
VERTEX
  8
0
 62
4
 10
3.63497431E+02
 20
-2.85844717E+02
  0
VERTEX
  8
0
 62
4
 10
3.63578756E+02
 20
-2.85960412E+02
  0
VERTEX
  8
0
 62
4
 10
3.63670898E+02
 20
-2.86069243E+02
  0
VERTEX
  8
0
 62
4
 10
3.63773155E+02
 20
-2.86170381E+02
  0
VERTEX
  8
0
 62
4
 10
3.63884748E+02
 20
-2.86263057E+02
  0
VERTEX
  8
0
 62
4
 10
3.64004830E+02
 20
-2.86346566E+02
  0
VERTEX
  8
0
 62
4
 10
3.64132485E+02
 20
-2.86420271E+02
  0
VERTEX
  8
0
 62
4
 10
3.64266742E+02
 20
-2.86483613E+02
  0
VERTEX
  8
0
 62
4
 10
3.64406580E+02
 20
-2.86536109E+02
  0
VERTEX
  8
0
 62
4
 10
3.64550934E+02
 20
-2.86577359E+02
  0
VERTEX
  8
0
 62
4
 10
3.64698705E+02
 20
-2.86607050E+02
  0
VERTEX
  8
0
 62
4
 10
3.64848770E+02
 20
-2.86624955E+02
  0
VERTEX
  8
0
 62
4
 10
3.64999985E+02
 20
-2.86630939E+02
  0
VERTEX
  8
0
 62
4
 10
3.65151200E+02
 20
-2.86624955E+02
  0
VERTEX
  8
0
 62
4
 10
3.65301265E+02
 20
-2.86607050E+02
  0
VERTEX
  8
0
 62
4
 10
3.65449036E+02
 20
-2.86577359E+02
  0
VERTEX
  8
0
 62
4
 10
3.65593390E+02
 20
-2.86536109E+02
  0
VERTEX
  8
0
 62
4
 10
3.65733228E+02
 20
-2.86483613E+02
  0
VERTEX
  8
0
 62
4
 10
3.65867485E+02
 20
-2.86420271E+02
  0
VERTEX
  8
0
 62
4
 10
3.65995140E+02
 20
-2.86346566E+02
  0
VERTEX
  8
0
 62
4
 10
3.66115222E+02
 20
-2.86263057E+02
  0
VERTEX
  8
0
 62
4
 10
3.66226815E+02
 20
-2.86170381E+02
  0
VERTEX
  8
0
 62
4
 10
3.66329072E+02
 20
-2.86069243E+02
  0
VERTEX
  8
0
 62
4
 10
3.66421214E+02
 20
-2.85960412E+02
  0
VERTEX
  8
0
 62
4
 10
3.66502539E+02
 20
-2.85844717E+02
  0
VERTEX
  8
0
 62
4
 10
3.66572429E+02
 20
-2.85723039E+02
  0
VERTEX
  8
0
 62
4
 10
3.66630352E+02
 20
-2.85596303E+02
  0
VERTEX
  8
0
 62
4
 10
3.66675866E+02
 20
-2.85465473E+02
  0
VERTEX
  8
0
 62
4
 10
3.66708626E+02
 20
-2.85331547E+02
  0
VERTEX
  8
0
 62
4
 10
3.66728383E+02
 20
-2.85195543E+02
  0
VERTEX
  8
0
 62
4
 10
3.66734985E+02
 20
-2.85058495E+02
  0
SEQEND
  8
0
  0
POLYLINE
  8
0
 62
6
 66
1
  0
VERTEX
  8
0
 62
6
 10
3.66499985E+02
 20
-2.85063027E+02
  0
VERTEX
  8
0
 62
6
 10
3.66494277E+02
 20
-2.84944542E+02
  0
VERTEX
  8
0
 62
6
 10
3.66477197E+02
 20
-2.84826959E+02
  0
VERTEX
  8
0
 62
6
 10
3.66448874E+02
 20
-2.84711172E+02
  0
VERTEX
  8
0
 62
6
 10
3.66409524E+02
 20
-2.84598064E+02
  0
VERTEX
  8
0
 62
6
 10
3.66359447E+02
 20
-2.84488494E+02
  0
VERTEX
  8
0
 62
6
 10
3.66299023E+02
 20
-2.84383296E+02
  0
VERTEX
  8
0
 62
6
 10
3.66228713E+02
 20
-2.84283272E+02
  0
VERTEX
  8
0
 62
6
 10
3.66149052E+02
 20
-2.84189182E+02
  0
VERTEX
  8
0
 62
6
 10
3.66060645E+02
 20
-2.84101742E+02
  0
VERTEX
  8
0
 62
6
 10
3.65964166E+02
 20
-2.84021619E+02
  0
VERTEX
  8
0
 62
6
 10
3.65860350E+02
 20
-2.83949421E+02
  0
VERTEX
  8
0
 62
6
 10
3.65749985E+02
 20
-2.83885699E+02
  0
VERTEX
  8
0
 62
6
 10
3.65633912E+02
 20
-2.83830936E+02
  0
VERTEX
  8
0
 62
6
 10
3.65513015E+02
 20
-2.83785551E+02
  0
VERTEX
  8
0
 62
6
 10
3.65388214E+02
 20
-2.83749888E+02
  0
VERTEX
  8
0
 62
6
 10
3.65260457E+02
 20
-2.83724219E+02
  0
VERTEX
  8
0
 62
6
 10
3.65130719E+02
 20
-2.83708738E+02
  0
VERTEX
  8
0
 62
6
 10
3.64999985E+02
 20
-2.83703565E+02
  0
VERTEX
  8
0
 62
6
 10
3.64869251E+02
 20
-2.83708738E+02
  0
VERTEX
  8
0
 62
6
 10
3.64739513E+02
 20
-2.83724219E+02
  0
VERTEX
  8
0
 62
6
 10
3.64611756E+02
 20
-2.83749888E+02
  0
VERTEX
  8
0
 62
6
 10
3.64486955E+02
 20
-2.83785551E+02
  0
VERTEX
  8
0
 62
6
 10
3.64366058E+02
 20
-2.83830936E+02
  0
VERTEX
  8
0
 62
6
 10
3.64249985E+02
 20
-2.83885699E+02
  0
VERTEX
  8
0
 62
6
 10
3.64139620E+02
 20
-2.83949421E+02
  0
VERTEX
  8
0
 62
6
 10
3.64035804E+02
 20
-2.84021619E+02
  0
VERTEX
  8
0
 62
6
 10
3.63939325E+02
 20
-2.84101742E+02
  0
VERTEX
  8
0
 62
6
 10
3.63850918E+02
 20
-2.84189182E+02
  0
VERTEX
  8
0
 62
6
 10
3.63771257E+02
 20
-2.84283272E+02
  0
VERTEX
  8
0
 62
6
 10
3.63700947E+02
 20
-2.84383296E+02
  0
VERTEX
  8
0
 62
6
 10
3.63640523E+02
 20
-2.84488494E+02
  0
VERTEX
  8
0
 62
6
 10
3.63590446E+02
 20
-2.84598064E+02
  0
VERTEX
  8
0
 62
6
 10
3.63551096E+02
 20
-2.84711172E+02
  0
VERTEX
  8
0
 62
6
 10
3.63522773E+02
 20
-2.84826959E+02
  0
VERTEX
  8
0
 62
6
 10
3.63505693E+02
 20
-2.84944542E+02
  0
VERTEX
  8
0
 62
6
 10
3.63499985E+02
 20
-2.85063027E+02
  0
VERTEX
  8
0
 62
6
 10
3.63505693E+02
 20
-2.85181512E+02
  0
VERTEX
  8
0
 62
6
 10
3.63522773E+02
 20
-2.85299095E+02
  0
VERTEX
  8
0
 62
6
 10
3.63551096E+02
 20
-2.85414882E+02
  0
VERTEX
  8
0
 62
6
 10
3.63590446E+02
 20
-2.85527990E+02
  0
VERTEX
  8
0
 62
6
 10
3.63640523E+02
 20
-2.85637560E+02
  0
VERTEX
  8
0
 62
6
 10
3.63700947E+02
 20
-2.85742758E+02
  0
VERTEX
  8
0
 62
6
 10
3.63771257E+02
 20
-2.85842782E+02
  0
VERTEX
  8
0
 62
6
 10
3.63850918E+02
 20
-2.85936872E+02
  0
VERTEX
  8
0
 62
6
 10
3.63939325E+02
 20
-2.86024312E+02
  0
VERTEX
  8
0
 62
6
 10
3.64035804E+02
 20
-2.86104435E+02
  0
VERTEX
  8
0
 62
6
 10
3.64139620E+02
 20
-2.86176633E+02
  0
VERTEX
  8
0
 62
6
 10
3.64249985E+02
 20
-2.86240355E+02
  0
VERTEX
  8
0
 62
6
 10
3.64366058E+02
 20
-2.86295118E+02
  0
VERTEX
  8
0
 62
6
 10
3.64486955E+02
 20
-2.86340503E+02
  0
VERTEX
  8
0
 62
6
 10
3.64611756E+02
 20
-2.86376166E+02
  0
VERTEX
  8
0
 62
6
 10
3.64739513E+02
 20
-2.86401835E+02
  0
VERTEX
  8
0
 62
6
 10
3.64869251E+02
 20
-2.86417316E+02
  0
VERTEX
  8
0
 62
6
 10
3.64999985E+02
 20
-2.86422489E+02
  0
VERTEX
  8
0
 62
6
 10
3.65130719E+02
 20
-2.86417316E+02
  0
VERTEX
  8
0
 62
6
 10
3.65260457E+02
 20
-2.86401835E+02
  0
VERTEX
  8
0
 62
6
 10
3.65388214E+02
 20
-2.86376166E+02
  0
VERTEX
  8
0
 62
6
 10
3.65513015E+02
 20
-2.86340503E+02
  0
VERTEX
  8
0
 62
6
 10
3.65633912E+02
 20
-2.86295118E+02
  0
VERTEX
  8
0
 62
6
 10
3.65749985E+02
 20
-2.86240355E+02
  0
VERTEX
  8
0
 62
6
 10
3.65860350E+02
 20
-2.86176633E+02
  0
VERTEX
  8
0
 62
6
 10
3.65964166E+02
 20
-2.86104435E+02
  0
VERTEX
  8
0
 62
6
 10
3.66060645E+02
 20
-2.86024312E+02
  0
VERTEX
  8
0
 62
6
 10
3.66149052E+02
 20
-2.85936872E+02
  0
VERTEX
  8
0
 62
6
 10
3.66228713E+02
 20
-2.85842782E+02
  0
VERTEX
  8
0
 62
6
 10
3.66299023E+02
 20
-2.85742758E+02
  0
VERTEX
  8
0
 62
6
 10
3.66359447E+02
 20
-2.85637560E+02
  0
VERTEX
  8
0
 62
6
 10
3.66409524E+02
 20
-2.85527990E+02
  0
VERTEX
  8
0
 62
6
 10
3.66448874E+02
 20
-2.85414882E+02
  0
VERTEX
  8
0
 62
6
 10
3.66477197E+02
 20
-2.85299095E+02
  0
VERTEX
  8
0
 62
6
 10
3.66494277E+02
 20
-2.85181512E+02
  0
VERTEX
  8
0
 62
6
 10
3.66499985E+02
 20
-2.85063027E+02
  0
SEQEND
  8
0
  0
POLYLINE
  8
0
 62
4
 66
1
  0
VERTEX
  8
0
 62
4
 10
3.66732707E+02
 20
-2.85139051E+02
  0
VERTEX
  8
0
 62
4
 10
3.66814708E+02
 20
-2.84995733E+02
  0
VERTEX
  8
0
 62
4
 10
3.66882313E+02
 20
-2.84846371E+02
  0
VERTEX
  8
0
 62
4
 10
3.66934987E+02
 20
-2.84692150E+02
  0
VERTEX
  8
0
 62
4
 10
3.66972311E+02
 20
-2.84534292E+02
  0
VERTEX
  8
0
 62
4
 10
3.66993989E+02
 20
-2.84374051E+02
  0
VERTEX
  8
0
 62
4
 10
3.66999850E+02
 20
-2.84212698E+02
  0
VERTEX
  8
0
 62
4
 10
3.66989846E+02
 20
-2.84051512E+02
  0
VERTEX
  8
0
 62
4
 10
3.66964058E+02
 20
-2.83891772E+02
  0
VERTEX
  8
0
 62
4
 10
3.66922689E+02
 20
-2.83734745E+02
  0
VERTEX
  8
0
 62
4
 10
3.66866069E+02
 20
-2.83581677E+02
  0
VERTEX
  8
0
 62
4
 10
3.66794645E+02
 20
-2.83433781E+02
  0
VERTEX
  8
0
 62
4
 10
3.66708986E+02
 20
-2.83292232E+02
  0
VERTEX
  8
0
 62
4
 10
3.66609769E+02
 20
-2.83158152E+02
  0
VERTEX
  8
0
 62
4
 10
3.66497783E+02
 20
-2.83032605E+02
  0
VERTEX
  8
0
 62
4
 10
3.66373915E+02
 20
-2.82916587E+02
  0
VERTEX
  8
0
 62
4
 10
3.66239148E+02
 20
-2.82811017E+02
  0
VERTEX
  8
0
 62
4
 10
3.66094552E+02
 20
-2.82716733E+02
  0
VERTEX
  8
0
 62
4
 10
3.65941273E+02
 20
-2.82634484E+02
  0
VERTEX
  8
0
 62
4
 10
3.65780527E+02
 20
-2.82564922E+02
  0
VERTEX
  8
0
 62
4
 10
3.65613589E+02
 20
-2.82508598E+02
  0
VERTEX
  8
0
 62
4
 10
3.65441784E+02
 20
-2.82465959E+02
  0
VERTEX
  8
0
 62
4
 10
3.65266474E+02
 20
-2.82437344E+02
  0
VERTEX
  8
0
 62
4
 10
3.65089050E+02
 20
-2.82422980E+02
  0
VERTEX
  8
0
 62
4
 10
3.64910920E+02
 20
-2.82422980E+02
  0
VERTEX
  8
0
 62
4
 10
3.64733496E+02
 20
-2.82437344E+02
  0
VERTEX
  8
0
 62
4
 10
3.64558186E+02
 20
-2.82465959E+02
  0
VERTEX
  8
0
 62
4
 10
3.64386381E+02
 20
-2.82508598E+02
  0
VERTEX
  8
0
 62
4
 10
3.64219443E+02
 20
-2.82564922E+02
  0
VERTEX
  8
0
 62
4
 10
3.64058697E+02
 20
-2.82634484E+02
  0
VERTEX
  8
0
 62
4
 10
3.63905418E+02
 20
-2.82716733E+02
  0
VERTEX
  8
0
 62
4
 10
3.63760822E+02
 20
-2.82811017E+02
  0
VERTEX
  8
0
 62
4
 10
3.63626055E+02
 20
-2.82916587E+02
  0
VERTEX
  8
0
 62
4
 10
3.63502187E+02
 20
-2.83032605E+02
  0
VERTEX
  8
0
 62
4
 10
3.63390201E+02
 20
-2.83158152E+02
  0
VERTEX
  8
0
 62
4
 10
3.63290984E+02
 20
-2.83292232E+02
  0
VERTEX
  8
0
 62
4
 10
3.63205325E+02
 20
-2.83433781E+02
  0
VERTEX
  8
0
 62
4
 10
3.63133901E+02
 20
-2.83581677E+02
  0
VERTEX
  8
0
 62
4
 10
3.63077281E+02
 20
-2.83734745E+02
  0
VERTEX
  8
0
 62
4
 10
3.63035912E+02
 20
-2.83891772E+02
  0
VERTEX
  8
0
 62
4
 10
3.63010124E+02
 20
-2.84051512E+02
  0
VERTEX
  8
0
 62
4
 10
3.63000120E+02
 20
-2.84212698E+02
  0
VERTEX
  8
0
 62
4
 10
3.63005981E+02
 20
-2.84374052E+02
  0
VERTEX
  8
0
 62
4
 10
3.63027659E+02
 20
-2.84534292E+02
  0
VERTEX
  8
0
 62
4
 10
3.63064983E+02
 20
-2.84692150E+02
  0
VERTEX
  8
0
 62
4
 10
3.63117657E+02
 20
-2.84846371E+02
  0
VERTEX
  8
0
 62
4
 10
3.63185262E+02
 20
-2.84995733E+02
  0
VERTEX
  8
0
 62
4
 10
3.63267263E+02
 20
-2.85139051E+02
  0
SEQEND
  8
0
  0
LINE
  8
0
 62
4
 10
3.35499985E+02
 20
-2.55148119E+02
 11
3.35499985E+02
 21
-2.49513089E+02
  0
LINE
  8
0
 62
4
 10
3.71499976E+02
 20
-2.55148119E+02
 11
3.71499976E+02
 21
-2.49513089E+02
  0
LINE
  8
0
 62
4
 10
3.87999985E+02
 20
-2.31056606E+02
 11
3.82999985E+02
 21
-2.31056606E+02
  0
LINE
  8
0
 62
4
 10
3.87999985E+02
 20
-2.37862978E+02
 11
3.82999985E+02
 21
-2.37862978E+02
  0
LINE
  8
0
 62
4
 10
3.87999985E+02
 20
-2.38514613E+02
 11
3.82999985E+02
 21
-2.38514613E+02
  0
LINE
  8
0
  6
CENTER
 62
6
 10
3.44999985E+02
 20
-2.49804222E+02
 11
3.44999985E+02
 21
-2.51647013E+02
  0
POLYLINE
  8
0
 62
4
 66
1
  0
VERTEX
  8
0
 62
4
 10
3.48139985E+02
 20
-2.51647013E+02
  0
VERTEX
  8
0
 62
4
 10
3.48128036E+02
 20
-2.51531355E+02
  0
VERTEX
  8
0
 62
4
 10
3.48092281E+02
 20
-2.51416578E+02
  0
VERTEX
  8
0
 62
4
 10
3.48032992E+02
 20
-2.51303555E+02
  0
VERTEX
  8
0
 62
4
 10
3.47950620E+02
 20
-2.51193145E+02
  0
VERTEX
  8
0
 62
4
 10
3.47845791E+02
 20
-2.51086190E+02
  0
VERTEX
  8
0
 62
4
 10
3.47719305E+02
 20
-2.50983502E+02
  0
VERTEX
  8
0
 62
4
 10
3.47572122E+02
 20
-2.50885865E+02
  0
VERTEX
  8
0
 62
4
 10
3.47405365E+02
 20
-2.50794020E+02
  0
VERTEX
  8
0
 62
4
 10
3.47220300E+02
 20
-2.50708667E+02
  0
VERTEX
  8
0
 62
4
 10
3.47018338E+02
 20
-2.50630456E+02
  0
VERTEX
  8
0
 62
4
 10
3.46801015E+02
 20
-2.50559981E+02
  0
VERTEX
  8
0
 62
4
 10
3.46569985E+02
 20
-2.50497779E+02
  0
VERTEX
  8
0
 62
4
 10
3.46327006E+02
 20
-2.50444323E+02
  0
VERTEX
  8
0
 62
4
 10
3.46073928E+02
 20
-2.50400021E+02
  0
VERTEX
  8
0
 62
4
 10
3.45812677E+02
 20
-2.50365209E+02
  0
VERTEX
  8
0
 62
4
 10
3.45545240E+02
 20
-2.50340152E+02
  0
VERTEX
  8
0
 62
4
 10
3.45273654E+02
 20
-2.50325041E+02
  0
VERTEX
  8
0
 62
4
 10
3.44999985E+02
 20
-2.50319992E+02
  0
VERTEX
  8
0
 62
4
 10
3.44726316E+02
 20
-2.50325041E+02
  0
VERTEX
  8
0
 62
4
 10
3.44454730E+02
 20
-2.50340152E+02
  0
VERTEX
  8
0
 62
4
 10
3.44187293E+02
 20
-2.50365209E+02
  0
VERTEX
  8
0
 62
4
 10
3.43926042E+02
 20
-2.50400021E+02
  0
VERTEX
  8
0
 62
4
 10
3.43672964E+02
 20
-2.50444323E+02
  0
VERTEX
  8
0
 62
4
 10
3.43429985E+02
 20
-2.50497779E+02
  0
VERTEX
  8
0
 62
4
 10
3.43198955E+02
 20
-2.50559981E+02
  0
VERTEX
  8
0
 62
4
 10
3.42981632E+02
 20
-2.50630456E+02
  0
VERTEX
  8
0
 62
4
 10
3.42779670E+02
 20
-2.50708667E+02
  0
VERTEX
  8
0
 62
4
 10
3.42594605E+02
 20
-2.50794020E+02
  0
VERTEX
  8
0
 62
4
 10
3.42427848E+02
 20
-2.50885865E+02
  0
VERTEX
  8
0
 62
4
 10
3.42280665E+02
 20
-2.50983502E+02
  0
VERTEX
  8
0
 62
4
 10
3.42154179E+02
 20
-2.51086190E+02
  0
VERTEX
  8
0
 62
4
 10
3.42049350E+02
 20
-2.51193145E+02
  0
VERTEX
  8
0
 62
4
 10
3.41966978E+02
 20
-2.51303555E+02
  0
VERTEX
  8
0
 62
4
 10
3.41907689E+02
 20
-2.51416578E+02
  0
VERTEX
  8
0
 62
4
 10
3.41871934E+02
 20
-2.51531355E+02
  0
VERTEX
  8
0
 62
4
 10
3.41859985E+02
 20
-2.51647013E+02
  0
VERTEX
  8
0
 62
4
 10
3.41871934E+02
 20
-2.51762671E+02
  0
VERTEX
  8
0
 62
4
 10
3.41907689E+02
 20
-2.51877448E+02
  0
VERTEX
  8
0
 62
4
 10
3.41966978E+02
 20
-2.51990471E+02
  0
VERTEX
  8
0
 62
4
 10
3.42049350E+02
 20
-2.52100881E+02
  0
VERTEX
  8
0
 62
4
 10
3.42154179E+02
 20
-2.52207836E+02
  0
VERTEX
  8
0
 62
4
 10
3.42280665E+02
 20
-2.52310524E+02
  0
VERTEX
  8
0
 62
4
 10
3.42427848E+02
 20
-2.52408161E+02
  0
VERTEX
  8
0
 62
4
 10
3.42594605E+02
 20
-2.52500006E+02
  0
VERTEX
  8
0
 62
4
 10
3.42779670E+02
 20
-2.52585359E+02
  0
VERTEX
  8
0
 62
4
 10
3.42981632E+02
 20
-2.52663570E+02
  0
VERTEX
  8
0
 62
4
 10
3.43198955E+02
 20
-2.52734045E+02
  0
VERTEX
  8
0
 62
4
 10
3.43429985E+02
 20
-2.52796247E+02
  0
VERTEX
  8
0
 62
4
 10
3.43672964E+02
 20
-2.52849703E+02
  0
VERTEX
  8
0
 62
4
 10
3.43926042E+02
 20
-2.52894005E+02
  0
VERTEX
  8
0
 62
4
 10
3.44187293E+02
 20
-2.52928817E+02
  0
VERTEX
  8
0
 62
4
 10
3.44454730E+02
 20
-2.52953874E+02
  0
VERTEX
  8
0
 62
4
 10
3.44726316E+02
 20
-2.52968985E+02
  0
VERTEX
  8
0
 62
4
 10
3.44999985E+02
 20
-2.52974034E+02
  0
VERTEX
  8
0
 62
4
 10
3.45273654E+02
 20
-2.52968985E+02
  0
VERTEX
  8
0
 62
4
 10
3.45545240E+02
 20
-2.52953874E+02
  0
VERTEX
  8
0
 62
4
 10
3.45812677E+02
 20
-2.52928817E+02
  0
VERTEX
  8
0
 62
4
 10
3.46073928E+02
 20
-2.52894005E+02
  0
VERTEX
  8
0
 62
4
 10
3.46327006E+02
 20
-2.52849703E+02
  0
VERTEX
  8
0
 62
4
 10
3.46569985E+02
 20
-2.52796247E+02
  0
VERTEX
  8
0
 62
4
 10
3.46801015E+02
 20
-2.52734045E+02
  0
VERTEX
  8
0
 62
4
 10
3.47018338E+02
 20
-2.52663570E+02
  0
VERTEX
  8
0
 62
4
 10
3.47220300E+02
 20
-2.52585359E+02
  0
VERTEX
  8
0
 62
4
 10
3.47405365E+02
 20
-2.52500006E+02
  0
VERTEX
  8
0
 62
4
 10
3.47572122E+02
 20
-2.52408161E+02
  0
VERTEX
  8
0
 62
4
 10
3.47719305E+02
 20
-2.52310524E+02
  0
VERTEX
  8
0
 62
4
 10
3.47845791E+02
 20
-2.52207836E+02
  0
VERTEX
  8
0
 62
4
 10
3.47950620E+02
 20
-2.52100881E+02
  0
VERTEX
  8
0
 62
4
 10
3.48032992E+02
 20
-2.51990471E+02
  0
VERTEX
  8
0
 62
4
 10
3.48092281E+02
 20
-2.51877448E+02
  0
VERTEX
  8
0
 62
4
 10
3.48128036E+02
 20
-2.51762671E+02
  0
VERTEX
  8
0
 62
4
 10
3.48139985E+02
 20
-2.51647013E+02
  0
SEQEND
  8
0
  0
POLYLINE
  8
0
 62
4
 66
1
  0
VERTEX
  8
0
 62
4
 10
3.41568139E+02
 20
-2.52262839E+02
  0
VERTEX
  8
0
 62
4
 10
3.41520849E+02
 20
-2.52392052E+02
  0
VERTEX
  8
0
 62
4
 10
3.41500744E+02
 20
-2.52522525E+02
  0
VERTEX
  8
0
 62
4
 10
3.41507980E+02
 20
-2.52653239E+02
  0
VERTEX
  8
0
 62
4
 10
3.41542500E+02
 20
-2.52783173E+02
  0
VERTEX
  8
0
 62
4
 10
3.41604037E+02
 20
-2.52911310E+02
  0
VERTEX
  8
0
 62
4
 10
3.41692107E+02
 20
-2.53036650E+02
  0
VERTEX
  8
0
 62
4
 10
3.41806024E+02
 20
-2.53158214E+02
  0
VERTEX
  8
0
 62
4
 10
3.41944898E+02
 20
-2.53275051E+02
  0
VERTEX
  8
0
 62
4
 10
3.42107642E+02
 20
-2.53386249E+02
  0
VERTEX
  8
0
 62
4
 10
3.42292986E+02
 20
-2.53490939E+02
  0
VERTEX
  8
0
 62
4
 10
3.42499481E+02
 20
-2.53588303E+02
  0
VERTEX
  8
0
 62
4
 10
3.42725514E+02
 20
-2.53677579E+02
  0
VERTEX
  8
0
 62
4
 10
3.42969319E+02
 20
-2.53758072E+02
  0
VERTEX
  8
0
 62
4
 10
3.43228990E+02
 20
-2.53829151E+02
  0
VERTEX
  8
0
 62
4
 10
3.43502500E+02
 20
-2.53890261E+02
  0
VERTEX
  8
0
 62
4
 10
3.43787710E+02
 20
-2.53940925E+02
  0
VERTEX
  8
0
 62
4
 10
3.44082392E+02
 20
-2.53980747E+02
  0
VERTEX
  8
0
 62
4
 10
3.44384244E+02
 20
-2.54009415E+02
  0
VERTEX
  8
0
 62
4
 10
3.44690907E+02
 20
-2.54026706E+02
  0
VERTEX
  8
0
 62
4
 10
3.44999985E+02
 20
-2.54032485E+02
  0
VERTEX
  8
0
 62
4
 10
3.45309063E+02
 20
-2.54026706E+02
  0
VERTEX
  8
0
 62
4
 10
3.45615726E+02
 20
-2.54009415E+02
  0
VERTEX
  8
0
 62
4
 10
3.45917578E+02
 20
-2.53980747E+02
  0
VERTEX
  8
0
 62
4
 10
3.46212260E+02
 20
-2.53940925E+02
  0
VERTEX
  8
0
 62
4
 10
3.46497470E+02
 20
-2.53890261E+02
  0
VERTEX
  8
0
 62
4
 10
3.46770980E+02
 20
-2.53829151E+02
  0
VERTEX
  8
0
 62
4
 10
3.47030651E+02
 20
-2.53758072E+02
  0
VERTEX
  8
0
 62
4
 10
3.47274456E+02
 20
-2.53677579E+02
  0
VERTEX
  8
0
 62
4
 10
3.47500489E+02
 20
-2.53588303E+02
  0
VERTEX
  8
0
 62
4
 10
3.47706984E+02
 20
-2.53490939E+02
  0
VERTEX
  8
0
 62
4
 10
3.47892328E+02
 20
-2.53386249E+02
  0
VERTEX
  8
0
 62
4
 10
3.48055072E+02
 20
-2.53275051E+02
  0
VERTEX
  8
0
 62
4
 10
3.48193946E+02
 20
-2.53158214E+02
  0
VERTEX
  8
0
 62
4
 10
3.48307863E+02
 20
-2.53036650E+02
  0
VERTEX
  8
0
 62
4
 10
3.48395933E+02
 20
-2.52911310E+02
  0
VERTEX
  8
0
 62
4
 10
3.48457470E+02
 20
-2.52783173E+02
  0
VERTEX
  8
0
 62
4
 10
3.48491990E+02
 20
-2.52653239E+02
  0
VERTEX
  8
0
 62
4
 10
3.48499226E+02
 20
-2.52522525E+02
  0
VERTEX
  8
0
 62
4
 10
3.48479121E+02
 20
-2.52392052E+02
  0
VERTEX
  8
0
 62
4
 10
3.48431831E+02
 20
-2.52262839E+02
  0
SEQEND
  8
0
  0
LINE
  8
0
 62
4
 10
3.41859985E+02
 20
-2.51647013E+02
 11
3.41568139E+02
 21
-2.52262839E+02
  0
LINE
  8
0
 62
4
 10
3.48139985E+02
 20
-2.51647013E+02
 11
3.48431831E+02
 21
-2.52262839E+02
  0
LINE
  8
0
 62
7
 10
-8.80000456E+01
 20
-2.65999985E+02
 11
-5.70646516E+00
 21
-2.65999985E+02
  0
LINE
  8
0
 62
2
 10
2.62884023E+02
 20
-3.26314120E+02
 11
3.03001223E+02
 21
-2.56829090E+02
  0
LINE
  8
0
 62
2
 10
-4.31647469E+01
 20
-3.30879632E+02
 11
-8.86146577E-01
 21
-2.57650948E+02
  0
ARC
  8
0
 62
4
 10
4.99892243E+02
 20
-3.19500000E+02
 40
3.43922653E+01
 50
1.62412085E+02
 51
1.80000000E+02
  0
LINE
  8
0
 62
2
 10
4.65499977E+02
 20
-3.07320015E+02
 11
4.53999970E+02
 21
-3.07320015E+02
  0
LINE
  8
0
 62
7
 10
4.65499977E+02
 20
-3.06500008E+02
 11
4.53999970E+02
 21
-3.06500008E+02
  0
ARC
  8
0
 62
4
 10
-2.07892303E+02
 20
-3.19500000E+02
 40
3.43922653E+01
 50
0.00000000E+00
 51
1.75879147E+01
  0
LINE
  8
0
 62
7
 10
-1.73500038E+02
 20
-3.06500008E+02
 11
-1.62000030E+02
 21
-3.06500008E+02
  0
LINE
  8
0
 62
2
 10
-1.73500038E+02
 20
-3.07320015E+02
 11
-1.62000030E+02
 21
-3.07320015E+02
  0
LINE
  8
0
 62
7
 10
-1.73500030E+02
 20
-1.52500000E+02
 11
-1.62000030E+02
 21
-1.52500000E+02
  0
LINE
  8
0
 62
2
 10
-1.73500030E+02
 20
-1.51679993E+02
 11
-1.62000030E+02
 21
-1.51679993E+02
  0
LINE
  8
0
 62
7
 10
-1.73500030E+02
 20
-1.26500031E+02
 11
-1.62000030E+02
 21
-1.26500031E+02
  0
LINE
  8
0
 62
2
 10
-1.73500030E+02
 20
-1.27320038E+02
 11
-1.62000030E+02
 21
-1.27320038E+02
  0
LINE
  8
0
 62
4
 10
-3.46000030E+02
 20
-3.09107697E+02
 11
-3.46000030E+02
 21
-3.19500000E+02
  0
LINE
  8
0
 62
4
 10
-3.82000038E+02
 20
-3.09107697E+02
 11
-3.82000038E+02
 21
-3.19500000E+02
  0
LINE
  8
0
 62
4
 10
-3.82000095E+02
 20
-3.09107731E+02
 11
-3.64000093E+02
 21
-2.98715427E+02
  0
LINE
  8
0
 62
4
 10
-3.64000173E+02
 20
-2.98715392E+02
 11
-3.46000168E+02
 21
-3.09107698E+02
  0
ARC
  8
0
 62
4
 10
-3.64000030E+02
 20
-3.19500000E+02
 40
1.80000000E+01
 50
0.00000000E+00
 51
1.80000000E+02
  0
LINE
  8
0
 62
4
 10
4.77892281E+02
 20
-3.09107697E+02
 11
4.67107674E+02
 21
-3.09107697E+02
  0
ARC
  8
0
 62
4
 10
4.45107712E+02
 20
-3.19500000E+02
 40
3.43922653E+01
 50
0.00000000E+00
 51
1.75879507E+01
  0
LINE
  8
0
 62
4
 10
4.65499977E+02
 20
-3.01499988E+02
 11
4.67107658E+02
 21
-2.98715366E+02
  0
LINE
  8
0
 62
4
 10
4.79499986E+02
 20
-3.01500001E+02
 11
4.77892308E+02
 21
-2.98715392E+02
  0
LINE
  8
0
 62
4
 10
4.77892281E+02
 20
-2.98715393E+02
 11
4.67107674E+02
 21
-2.98715393E+02
  0
LINE
  8
0
 62
4
 10
4.79499977E+02
 20
-3.01500000E+02
 11
4.79499977E+02
 21
-3.19500000E+02
  0
LINE
  8
0
 62
4
 10
4.65499977E+02
 20
-3.01500000E+02
 11
4.65499977E+02
 21
-3.19500000E+02
  0
ARC
  8
0
 62
4
 10
4.74700932E+02
 20
-3.03911545E+02
 40
9.20095253E+00
 50
1.45615762E+02
 51
2.14384293E+02
  0
ARC
  8
0
 62
4
 10
4.70299023E+02
 20
-3.03911545E+02
 40
9.20095253E+00
 50
3.25615743E+02
 51
3.43842738E+01
  0
LINE
  8
0
 62
4
 10
-1.85892341E+02
 20
-3.09107697E+02
 11
-1.75107734E+02
 21
-3.09107697E+02
  0
ARC
  8
0
 62
4
 10
-1.53107773E+02
 20
-3.19500000E+02
 40
3.43922653E+01
 50
1.62412050E+02
 51
1.80000000E+02
  0
LINE
  8
0
 62
4
 10
-1.73500037E+02
 20
-3.01499988E+02
 11
-1.75107718E+02
 21
-2.98715366E+02
  0
LINE
  8
0
 62
4
 10
-1.87500047E+02
 20
-3.01500001E+02
 11
-1.85892368E+02
 21
-2.98715392E+02
  0
LINE
  8
0
 62
4
 10
-1.85892341E+02
 20
-2.98715393E+02
 11
-1.75107734E+02
 21
-2.98715393E+02
  0
LINE
  8
0
 62
4
 10
-1.87500038E+02
 20
-3.01500000E+02
 11
-1.87500038E+02
 21
-3.19500000E+02
  0
LINE
  8
0
 62
4
 10
-1.73500038E+02
 20
-3.01500000E+02
 11
-1.73500038E+02
 21
-3.19500000E+02
  0
ARC
  8
0
 62
4
 10
-1.82700992E+02
 20
-3.03911545E+02
 40
9.20095253E+00
 50
3.25615707E+02
 51
3.43842378E+01
  0
ARC
  8
0
 62
4
 10
-1.78299083E+02
 20
-3.03911545E+02
 40
9.20095253E+00
 50
1.45615726E+02
 51
2.14384256E+02
  0
LINE
  8
0
 62
4
 10
-1.87500030E+02
 20
-1.57499935E+02
 11
-1.73500030E+02
 21
-1.57499935E+02
  0
ARC
  8
0
 62
4
 10
-1.61501999E+02
 20
-1.48500076E+02
 40
2.59980309E+01
 50
1.59746143E+02
 51
2.00253857E+02
  0
ARC
  8
0
 62
4
 10
-1.99498061E+02
 20
-1.48500076E+02
 40
2.59980309E+01
 50
3.39746143E+02
 51
2.02538569E+01
  0
LINE
  8
0
 62
4
 10
-1.85892521E+02
 20
-1.39500072E+02
 11
-1.75107540E+02
 21
-1.39500072E+02
  0
LINE
  8
0
 62
4
 10
-1.87500030E+02
 20
-1.21500065E+02
 11
-1.73500030E+02
 21
-1.21500065E+02
  0
LINE
  8
0
 62
4
 10
-1.87500030E+02
 20
-1.21500065E+02
 11
-1.87500030E+02
 21
-1.57499935E+02
  0
LINE
  8
0
 62
4
 10
-1.73500030E+02
 20
-1.21500065E+02
 11
-1.73500030E+02
 21
-1.57499935E+02
  0
ARC
  8
0
 62
4
 10
-1.61501999E+02
 20
-1.30500069E+02
 40
2.59980309E+01
 50
1.59746143E+02
 51
2.00253857E+02
  0
ARC
  8
0
 62
4
 10
-1.99498061E+02
 20
-1.30500069E+02
 40
2.59980309E+01
 50
3.39746143E+02
 51
2.02538569E+01
  0
TEXT
  8
0
 62
7
 10
-4.67179687E+02
 20
3.14250000E+02
 40
1.25000000E+01
  1
DDAH100*75
 41
1.00000015E+00
  7
MONOTXT
  0
TEXT
  8
0
 62
7
 10
3.39718093E+02
 20
2.12600719E+00
 40
9.00000000E+00
  1
(mm)
 41
1.00000000E+00
  7
MONOTXT
  0
TEXT
  8
0
 62
7
 10
-6.62819072E+01
 20
2.12600719E+00
 40
9.00000000E+00
  1
STRETCH LIST
 41
1.05263158E+00
  7
MONOTXT
  0
LINE
  8
0
 62
7
 10
-4.09266282E+02
 20
-3.37399281E+00
 11
3.82733718E+02
 21
-3.37399281E+00
  0
LINE
  8
0
 62
7
 10
-4.09266282E+02
 20
-3.33739928E+01
 11
3.82733718E+02
 21
-3.33739928E+01
  0
LINE
  8
0
 62
7
 10
-4.09266282E+02
 20
-3.33739928E+01
 11
-4.09266282E+02
 21
-3.37399281E+00
  0
TEXT
  8
0
 62
7
 10
-3.98980969E+02
 20
-1.53739928E+01
 40
9.00000000E+00
  1
STROKE
 41
1.00000000E+00
  7
MONOTXT
  0
TEXT
  8
0
 62
7
 10
-4.03480969E+02
 20
-3.03739928E+01
 40
9.00000000E+00
  1
STRETCH
 41
1.00000000E+00
  7
MONOTXT
  0
LINE
  8
0
 62
7
 10
-4.09266282E+02
 20
-1.83739928E+01
 11
3.82733718E+02
 21
-1.83739928E+01
  0
LINE
  8
0
 62
7
 10
-3.37266282E+02
 20
-3.33739928E+01
 11
-3.37266282E+02
 21
-3.37399281E+00
  0
LINE
  8
0
 62
7
 10
-2.92266282E+02
 20
-3.33739928E+01
 11
-2.92266282E+02
 21
-3.37399281E+00
  0
LINE
  8
0
 62
7
 10
-2.47266282E+02
 20
-3.33739928E+01
 11
-2.47266282E+02
 21
-3.37399281E+00
  0
LINE
  8
0
 62
7
 10
-2.02266282E+02
 20
-3.33739928E+01
 11
-2.02266282E+02
 21
-3.37399281E+00
  0
LINE
  8
0
 62
7
 10
-1.57266282E+02
 20
-3.33739928E+01
 11
-1.57266282E+02
 21
-3.37399281E+00
  0
LINE
  8
0
 62
7
 10
-1.12266282E+02
 20
-3.33739928E+01
 11
-1.12266282E+02
 21
-3.37399281E+00
  0
LINE
  8
0
 62
7
 10
-6.72662822E+01
 20
-3.33739928E+01
 11
-6.72662822E+01
 21
-3.37399281E+00
  0
LINE
  8
0
 62
7
 10
-2.22662822E+01
 20
-3.33739928E+01
 11
-2.22662822E+01
 21
-3.37399281E+00
  0
LINE
  8
0
 62
7
 10
2.27337178E+01
 20
-3.33739928E+01
 11
2.27337178E+01
 21
-3.37399281E+00
  0
LINE
  8
0
 62
7
 10
6.77337178E+01
 20
-3.33739928E+01
 11
6.77337178E+01
 21
-3.37399281E+00
  0
LINE
  8
0
 62
7
 10
1.12733718E+02
 20
-3.33739928E+01
 11
1.12733718E+02
 21
-3.37399281E+00
  0
LINE
  8
0
 62
7
 10
1.57733718E+02
 20
-3.33739928E+01
 11
1.57733718E+02
 21
-3.37399281E+00
  0
LINE
  8
0
 62
7
 10
2.02733718E+02
 20
-3.33739928E+01
 11
2.02733718E+02
 21
-3.37399281E+00
  0
LINE
  8
0
 62
7
 10
2.47733718E+02
 20
-3.33739928E+01
 11
2.47733718E+02
 21
-3.37399281E+00
  0
LINE
  8
0
 62
7
 10
2.92733718E+02
 20
-3.33739928E+01
 11
2.92733718E+02
 21
-3.37399281E+00
  0
LINE
  8
0
 62
7
 10
3.37733718E+02
 20
-3.33739928E+01
 11
3.37733718E+02
 21
-3.37399281E+00
  0
LINE
  8
0
 62
7
 10
3.82733718E+02
 20
-3.33739928E+01
 11
3.82733718E+02
 21
-3.37399281E+00
  0
TEXT
  8
0
 62
7
 10
-3.22781907E+02
 20
-1.53739928E+01
 40
9.00000000E+00
  1
50
 41
1.00000000E+00
  7
MONOTXT
  0
TEXT
  8
0
 62
7
 10
-2.77781907E+02
 20
-1.53739928E+01
 40
9.00000000E+00
  1
75
 41
1.00000000E+00
  7
MONOTXT
  0
TEXT
  8
0
 62
7
 10
-2.37281907E+02
 20
-1.53739928E+01
 40
9.00000000E+00
  1
100
 41
1.00000000E+00
  7
MONOTXT
  0
TEXT
  8
0
 62
7
 10
-1.92281907E+02
 20
-1.53739928E+01
 40
9.00000000E+00
  1
150
 41
1.00000000E+00
  7
MONOTXT
  0
TEXT
  8
0
 62
7
 10
-1.47281907E+02
 20
-1.53739928E+01
 40
9.00000000E+00
  1
200
 41
1.00000000E+00
  7
MONOTXT
  0
TEXT
  8
0
 62
7
 10
-1.02281907E+02
 20
-1.53739928E+01
 40
9.00000000E+00
  1
250
 41
1.00000000E+00
  7
MONOTXT
  0
TEXT
  8
0
 62
7
 10
-5.72819072E+01
 20
-1.53739928E+01
 40
9.00000000E+00
  1
300
 41
1.00000000E+00
  7
MONOTXT
  0
TEXT
  8
0
 62
7
 10
-1.22819072E+01
 20
-1.53739928E+01
 40
9.00000000E+00
  1
350
 41
1.00000000E+00
  7
MONOTXT
  0
TEXT
  8
0
 62
7
 10
3.27180928E+01
 20
-1.53739928E+01
 40
9.00000000E+00
  1
400
 41
1.00000000E+00
  7
MONOTXT
  0
TEXT
  8
0
 62
7
 10
7.77180928E+01
 20
-1.53739928E+01
 40
9.00000000E+00
  1
450
 41
1.00000000E+00
  7
MONOTXT
  0
TEXT
  8
0
 62
7
 10
1.22718093E+02
 20
-1.53739928E+01
 40
9.00000000E+00
  1
500
 41
1.00000000E+00
  7
MONOTXT
  0
TEXT
  8
0
 62
7
 10
1.67718093E+02
 20
-1.53739928E+01
 40
9.00000000E+00
  1
600
 41
1.00000000E+00
  7
MONOTXT
  0
TEXT
  8
0
 62
7
 10
2.12718093E+02
 20
-1.53739928E+01
 40
9.00000000E+00
  1
700
 41
1.00000000E+00
  7
MONOTXT
  0
TEXT
  8
0
 62
7
 10
2.57718093E+02
 20
-1.53739928E+01
 40
9.00000000E+00
  1
800
 41
1.00000000E+00
  7
MONOTXT
  0
TEXT
  8
0
 62
7
 10
3.02718093E+02
 20
-1.53739928E+01
 40
9.00000000E+00
  1
900
 41
1.00000000E+00
  7
MONOTXT
  0
TEXT
  8
0
 62
7
 10
3.43218093E+02
 20
-1.53739928E+01
 40
9.00000000E+00
  1
1000
 41
1.00000000E+00
  7
MONOTXT
  0
TEXT
  8
0
 62
7
 10
-3.27281907E+02
 20
-3.03739928E+01
 40
9.00000000E+00
  1
-25
 41
1.00000000E+00
  7
MONOTXT
  0
TEXT
  8
0
 62
7
 10
-2.73281907E+02
 20
-3.03739928E+01
 40
9.00000000E+00
  1
0
 41
1.00000000E+00
  7
MONOTXT
  0
TEXT
  8
0
 62
7
 10
-2.32781907E+02
 20
-3.03739928E+01
 40
9.00000000E+00
  1
25
 41
1.00000000E+00
  7
MONOTXT
  0
TEXT
  8
0
 62
7
 10
-1.87781907E+02
 20
-3.03739928E+01
 40
9.00000000E+00
  1
75
 41
1.00000000E+00
  7
MONOTXT
  0
TEXT
  8
0
 62
7
 10
-1.47281907E+02
 20
-3.03739928E+01
 40
9.00000000E+00
  1
125
 41
1.00000000E+00
  7
MONOTXT
  0
TEXT
  8
0
 62
7
 10
-1.02281907E+02
 20
-3.03739928E+01
 40
9.00000000E+00
  1
175
 41
1.00000000E+00
  7
MONOTXT
  0
TEXT
  8
0
 62
7
 10
-5.72819072E+01
 20
-3.03739928E+01
 40
9.00000000E+00
  1
225
 41
1.00000000E+00
  7
MONOTXT
  0
TEXT
  8
0
 62
7
 10
-1.22819072E+01
 20
-3.03739928E+01
 40
9.00000000E+00
  1
275
 41
1.00000000E+00
  7
MONOTXT
  0
TEXT
  8
0
 62
7
 10
3.27180928E+01
 20
-3.03739928E+01
 40
9.00000000E+00
  1
325
 41
1.00000000E+00
  7
MONOTXT
  0
TEXT
  8
0
 62
7
 10
7.77180928E+01
 20
-3.03739928E+01
 40
9.00000000E+00
  1
375
 41
1.00000000E+00
  7
MONOTXT
  0
TEXT
  8
0
 62
7
 10
1.22718093E+02
 20
-3.03739928E+01
 40
9.00000000E+00
  1
425
 41
1.00000000E+00
  7
MONOTXT
  0
TEXT
  8
0
 62
7
 10
1.67718093E+02
 20
-3.03739928E+01
 40
9.00000000E+00
  1
525
 41
1.00000000E+00
  7
MONOTXT
  0
TEXT
  8
0
 62
7
 10
2.12718093E+02
 20
-3.03739928E+01
 40
9.00000000E+00
  1
625
 41
1.00000000E+00
  7
MONOTXT
  0
TEXT
  8
0
 62
7
 10
2.57718093E+02
 20
-3.03739928E+01
 40
9.00000000E+00
  1
725
 41
1.00000000E+00
  7
MONOTXT
  0
TEXT
  8
0
 62
7
 10
3.02718093E+02
 20
-3.03739928E+01
 40
9.00000000E+00
  1
825
 41
1.00000000E+00
  7
MONOTXT
  0
TEXT
  8
0
 62
7
 10
3.47718093E+02
 20
-3.03739928E+01
 40
9.00000000E+00
  1
925
 41
1.00000000E+00
  7
MONOTXT
  0
LINE
  8
0
 62
7
 10
-1.49440695E+01
 20
-2.81999985E+02
 11
-8.80000456E+01
 21
-2.81999985E+02
  0
LINE
  8
0
 62
7
 10
-9.74790824E+00
 20
-2.72999969E+02
 11
-8.80000456E+01
 21
-2.72999969E+02
  0
LINE
  8
0
 62
7
 10
-6.34415273E+01
 20
-1.86000046E+02
 11
-8.80000456E+01
 21
-1.86000046E+02
  0
LINE
  8
0
 62
7
 10
-5.82453485E+01
 20
-1.77000000E+02
 11
-8.80000456E+01
 21
-1.77000000E+02
  0
LINE
  8
0
 62
4
 10
7.01515882E+01
 20
-2.63500000E+02
 11
7.02618514E+01
 21
-2.63268828E+02
  0
LINE
  8
0
 62
4
 10
-3.37796600E+02
 20
-2.63500000E+02
 11
-3.37791920E+02
 21
-2.63489730E+02
  0
LINE
  8
0
 62
7
 10
-4.14999969E+02
 20
-2.64099985E+02
 11
-3.12977023E+02
 21
-2.64099985E+02
  0
LINE
  8
0
 62
7
 10
-1.40000030E+02
 20
-2.95936752E+02
 11
-1.40000030E+02
 21
-3.19500000E+02
  0
LINE
  8
0
 62
7
 10
-1.40000015E+02
 20
-1.63063232E+02
 11
-1.40000015E+02
 21
-1.15936707E+02
  0
LINE
  8
0
  6
CENTER
 62
2
 10
-2.07243446E+02
 20
-3.19500000E+02
 11
-3.65947134E+01
 21
-3.19500000E+02
  0
LINE
  8
0
  6
CENTER
 62
2
 10
-2.07798370E+02
 20
-1.39500000E+02
 11
-3.65947134E+01
 21
-1.39500000E+02
  0
LINE
  8
0
 62
7
 10
-1.24000030E+02
 20
-2.64619720E+02
 11
-1.24000030E+02
 21
-3.19500000E+02
  0
LINE
  8
0
 62
7
 10
-8.80000456E+01
 20
-2.63500000E+02
 11
-8.80000456E+01
 21
-3.19500000E+02
  0
LINE
  8
0
 62
7
 10
-1.59000030E+02
 20
-3.19500000E+02
 11
-1.59000030E+02
 21
-3.06500008E+02
  0
LINE
  8
0
 62
7
 10
-1.99000046E+02
 20
-1.51000061E+02
 11
-1.99000046E+02
 21
-1.28000305E+02
  0
LINE
  8
0
 62
7
 10
-1.62000030E+02
 20
-1.52500000E+02
 11
-1.62000030E+02
 21
-1.26500000E+02
  0
LINE
  8
0
 62
7
 10
-1.97500061E+02
 20
-1.26500031E+02
 11
-1.87500030E+02
 21
-1.26500031E+02
  0
LINE
  8
0
 62
7
 10
-1.97500030E+02
 20
-1.52500000E+02
 11
-1.97500030E+02
 21
-1.26500000E+02
  0
LINE
  8
0
 62
7
 10
-1.98999889E+02
 20
-1.28000195E+02
 11
-1.97499876E+02
 21
-1.26500181E+02
  0
LINE
  8
0
 62
2
 10
-1.98320068E+02
 20
-1.27320038E+02
 11
-1.87500030E+02
 21
-1.27320038E+02
  0
LINE
  8
0
 62
7
 10
-1.97500061E+02
 20
-1.52500000E+02
 11
-1.87500030E+02
 21
-1.52500000E+02
  0
LINE
  8
0
 62
7
 10
-1.99000076E+02
 20
-1.51000039E+02
 11
-1.97500064E+02
 21
-1.52500052E+02
  0
LINE
  8
0
 62
2
 10
-1.98320068E+02
 20
-1.51679993E+02
 11
-1.87500030E+02
 21
-1.51679993E+02
  0
LINE
  8
0
 62
7
 10
-1.59000030E+02
 20
-1.39500000E+02
 11
-1.59000030E+02
 21
-1.26500000E+02
  0
LINE
  8
0
 62
7
 10
-1.59000030E+02
 20
-1.39500000E+02
 11
-1.59000030E+02
 21
-1.52500000E+02
  0
LINE
  8
0
  6
CENTER
 62
2
 10
-9.50000150E+01
 20
-1.49952271E+02
 11
-9.50000150E+01
 21
-1.64565659E+02
  0
LINE
  8
0
  6
CENTER
 62
2
 10
-1.03194595E+02
 20
-1.57500031E+02
 11
-8.69255979E+01
 21
-1.57500031E+02
  0
LINE
  8
0
 62
7
 10
-9.32679146E+01
 20
-1.57500123E+02
 11
-9.41339385E+01
 21
-1.56000116E+02
  0
LINE
  8
0
 62
7
 10
-9.41340025E+01
 20
-1.56000046E+02
 11
-9.58660734E+01
 21
-1.56000046E+02
  0
LINE
  8
0
 62
7
 10
-9.67317927E+01
 20
-1.57500279E+02
 11
-9.58657840E+01
 21
-1.56000299E+02
  0
LINE
  8
0
 62
7
 10
-9.58659427E+01
 20
-1.59000051E+02
 11
-9.67320124E+01
 21
-1.57499965E+02
  0
LINE
  8
0
 62
7
 10
-9.41340025E+01
 20
-1.59000046E+02
 11
-9.58660734E+01
 21
-1.59000046E+02
  0
LINE
  8
0
 62
7
 10
-9.32677562E+01
 20
-1.57500138E+02
 11
-9.41338030E+01
 21
-1.59000184E+02
  0
LINE
  8
0
  6
CENTER
 62
2
 10
-6.08434335E+01
 20
-1.81500015E+02
 11
-1.26524521E+02
 21
-1.81500015E+02
  0
LINE
  8
0
 62
7
 10
-1.20000015E+02
 20
-1.06499939E+02
 11
-1.20000015E+02
 21
-1.72499954E+02
  0
LINE
  8
0
 62
2
 10
-3.14916626E+02
 20
-3.19535225E+02
 11
-3.14916626E+02
 21
-3.19499939E+02
  0
LINE
  8
0
 62
7
 10
-3.08599975E+02
 20
-2.68500000E+02
 11
-3.08599975E+02
 21
-3.19500000E+02
  0
LINE
  8
0
 62
7
 10
-3.11599975E+02
 20
-2.94483841E+02
 11
-3.11599975E+02
 21
-3.19500000E+02
  0
LINE
  8
0
 62
7
 10
-3.12599975E+02
 20
-3.18250000E+02
 11
-3.38097473E+02
 21
-3.18250000E+02
  0
LINE
  8
0
 62
7
 10
-3.08000000E+02
 20
-2.68500000E+02
 11
-3.08000000E+02
 21
-3.19500000E+02
  0
LINE
  8
0
  6
CENTER
 62
2
 10
-3.22000000E+02
 20
-2.60607269E+02
 11
-3.22000000E+02
 21
-2.92357803E+02
  0
LINE
  8
0
 62
7
 10
-3.62750030E+02
 20
-2.68099991E+02
 11
-3.62750030E+02
 21
-2.93597427E+02
  0
LINE
  8
0
  6
CENTER
 62
2
 10
-9.02976835E+01
 20
-1.27500031E+02
 11
-1.18094955E+02
 21
-1.27500031E+02
  0
LINE
  8
0
 62
7
 10
-1.25499985E+02
 20
-1.14500061E+02
 11
-1.23999969E+02
 21
-1.14500061E+02
  0
LINE
  8
0
 62
7
 10
-1.24000030E+02
 20
-1.94380264E+02
 11
-1.24000030E+02
 21
-8.46197205E+01
  0
LINE
  8
0
 62
7
 10
-1.45000015E+02
 20
-1.61999954E+02
 11
-1.45000015E+02
 21
-1.16999939E+02
  0
LINE
  8
0
 62
7
 10
-1.23508696E+02
 20
-8.41195319E+01
 11
-8.79999593E+01
 21
-8.34997247E+01
  0
LINE
  8
0
 62
7
 10
-1.44499985E+02
 20
-1.16500031E+02
 11
-1.39999985E+02
 21
-1.16500031E+02
  0
LINE
  8
0
 62
7
 10
-1.39517472E+02
 20
-1.15471802E+02
 11
-1.26000015E+02
 21
-1.14999762E+02
  0
LINE
  8
0
 62
7
 10
-1.25499985E+02
 20
-1.64500046E+02
 11
-1.23999969E+02
 21
-1.64500046E+02
  0
LINE
  8
0
 62
7
 10
-1.23508685E+02
 20
-1.94880020E+02
 11
-8.79999794E+01
 21
-1.95499827E+02
  0
LINE
  8
0
 62
7
 10
-1.44499985E+02
 20
-1.62500031E+02
 11
-1.39999985E+02
 21
-1.62500031E+02
  0
LINE
  8
0
 62
7
 10
-1.39517450E+02
 20
-1.63527647E+02
 11
-1.25999994E+02
 21
-1.63999687E+02
  0
LINE
  8
0
 62
7
 10
-8.80000456E+01
 20
-8.34998169E+01
 11
-8.80000456E+01
 21
-9.36196107E+01
  0
LINE
  8
0
 62
7
 10
-1.45000030E+02
 20
-3.19500000E+02
 11
-1.45000030E+02
 21
-2.96999985E+02
  0
LINE
  8
0
  6
CENTER
 62
2
 10
-1.04000030E+02
 20
-1.41605835E+02
 11
-1.04000030E+02
 21
-1.13676727E+02
  0
LINE
  8
0
 62
7
 10
-1.17999985E+02
 20
-1.74500046E+02
 11
-8.79999998E+01
 21
-1.74500046E+02
  0
LINE
  8
0
 62
7
 10
-1.17999985E+02
 20
-1.04500061E+02
 11
-9.60000456E+01
 21
-1.04500061E+02
  0
LINE
  8
0
 62
7
 10
-1.26000015E+02
 20
-1.63999893E+02
 11
-1.26000015E+02
 21
-1.14999969E+02
  0
LINE
  8
0
 62
7
 10
-3.46568097E+02
 20
-3.00300126E+02
 11
-3.31578435E+02
 21
-2.85310471E+02
  0
LINE
  8
0
 62
7
 10
-3.44800320E+02
 20
-3.02067883E+02
 11
-3.29810647E+02
 21
-2.87078217E+02
  0
LINE
  8
0
 62
7
 10
-3.29000030E+02
 20
-2.63500000E+02
 11
-3.29000030E+02
 21
-2.64099976E+02
  0
LINE
  8
0
 62
7
 10
-4.19399994E+02
 20
-2.68499985E+02
 11
-4.19399994E+02
 21
-3.19500000E+02
  0
LINE
  8
0
 62
7
 10
-3.83199814E+02
 20
-3.02067968E+02
 11
-3.98189473E+02
 21
-2.87078310E+02
  0
LINE
  8
0
 62
7
 10
-3.81432025E+02
 20
-3.00300266E+02
 11
-3.96421684E+02
 21
-2.85310608E+02
  0
LINE
  8
0
 62
7
 10
-3.89016144E+02
 20
-2.67099991E+02
 11
-3.38984009E+02
 21
-2.67099991E+02
  0
LINE
  8
0
 62
7
 10
-4.16400024E+02
 20
-2.94484039E+02
 11
-4.16400024E+02
 21
-3.19500000E+02
  0
LINE
  8
0
 62
7
 10
-4.15400024E+02
 20
-3.18250000E+02
 11
-3.89902527E+02
 21
-3.18250000E+02
  0
LINE
  8
0
 62
7
 10
-3.65250030E+02
 20
-2.68099991E+02
 11
-3.65250030E+02
 21
-2.93597488E+02
  0
LINE
  8
0
 62
7
 10
-4.14999969E+02
 20
-2.63500000E+02
 11
-3.13000000E+02
 21
-2.63500000E+02
  0
LINE
  8
0
 62
7
 10
-4.19999969E+02
 20
-2.68500000E+02
 11
-4.19999969E+02
 21
-3.19500000E+02
  0
LINE
  8
0
  6
CENTER
 62
2
 10
-4.21963897E+02
 20
-2.77500000E+02
 11
-3.90108978E+02
 21
-2.77500000E+02
  0
LINE
  8
0
  6
CENTER
 62
2
 10
-4.06000000E+02
 20
-2.61019226E+02
 11
-4.06000000E+02
 21
-2.91926193E+02
  0
LINE
  8
0
 62
7
 10
-3.99000030E+02
 20
-2.63500000E+02
 11
-3.99000030E+02
 21
-2.64099976E+02
  0
LINE
  8
0
  6
CENTER
 62
2
 10
-3.64000030E+02
 20
-2.60833679E+02
 11
-3.64000030E+02
 21
-3.19500000E+02
  0
LINE
  8
0
  6
CENTER
 62
2
 10
-3.36806213E+02
 20
-2.77500000E+02
 11
-3.05716797E+02
 21
-2.77500000E+02
  0
LINE
  8
0
  6
CENTER
 62
2
 10
-3.06139038E+02
 20
-3.19500000E+02
 11
-4.21904999E+02
 21
-3.19500000E+02
  0
LINE
  8
0
 62
7
 10
-1.26000015E+02
 20
-2.95000046E+02
 11
-1.26000015E+02
 21
-3.19500000E+02
  0
LINE
  8
0
 62
7
 10
-1.47000061E+02
 20
-1.24499939E+02
 11
-1.45000015E+02
 21
-1.24499939E+02
  0
LINE
  8
0
 62
7
 10
-1.56000015E+02
 20
-1.52500000E+02
 11
-1.56000015E+02
 21
-1.26500000E+02
  0
LINE
  8
0
 62
7
 10
-1.46999954E+02
 20
-1.54500046E+02
 11
-1.45000030E+02
 21
-1.54500046E+02
  0
LINE
  8
0
 62
7
 10
-8.80000456E+01
 20
-1.93000015E+02
 11
-6.74829616E+01
 21
-1.93000015E+02
  0
LINE
  8
0
 62
7
 10
-1.59000030E+02
 20
-1.26500000E+02
 11
-1.49000107E+02
 21
-1.26500000E+02
  0
LINE
  8
0
 62
7
 10
-1.59000030E+02
 20
-1.52500000E+02
 11
-1.49000000E+02
 21
-1.52500000E+02
  0
LINE
  8
0
 62
7
 10
-1.49000021E+02
 20
-1.52499985E+02
 11
-1.46999954E+02
 21
-1.54500052E+02
  0
LINE
  8
0
 62
7
 10
-1.49000088E+02
 20
-1.26499942E+02
 11
-1.47000064E+02
 21
-1.24499919E+02
  0
LINE
  8
0
  6
CENTER
 62
2
 10
-1.23459844E+01
 20
-9.74999695E+01
 11
-6.15000456E+01
 21
-9.74999695E+01
  0
LINE
  8
0
 62
7
 10
-1.49440783E+01
 20
-1.02000000E+02
 11
-4.20000456E+01
 21
-1.02000000E+02
  0
LINE
  8
0
 62
7
 10
-9.74790824E+00
 20
-9.29999695E+01
 11
-6.15000456E+01
 21
-9.29999695E+01
  0
LINE
  8
0
 62
7
 10
-1.99000046E+02
 20
-3.19500000E+02
 11
-1.99000046E+02
 21
-3.08000305E+02
  0
LINE
  8
0
 62
7
 10
-1.62000030E+02
 20
-3.19500000E+02
 11
-1.62000030E+02
 21
-3.06500008E+02
  0
LINE
  8
0
 62
7
 10
-1.97500091E+02
 20
-3.06500008E+02
 11
-1.87500038E+02
 21
-3.06500008E+02
  0
LINE
  8
0
 62
7
 10
-1.97500030E+02
 20
-3.19500000E+02
 11
-1.97500030E+02
 21
-3.06500008E+02
  0
LINE
  8
0
 62
7
 10
-1.98999910E+02
 20
-3.08000187E+02
 11
-1.97499892E+02
 21
-3.06500170E+02
  0
LINE
  8
0
 62
2
 10
-1.98320099E+02
 20
-3.07320015E+02
 11
-1.87500038E+02
 21
-3.07320015E+02
  0
LINE
  8
0
 62
7
 10
-1.25500015E+02
 20
-2.94499985E+02
 11
-1.24000030E+02
 21
-2.94499985E+02
  0
LINE
  8
0
 62
7
 10
-1.20000030E+02
 20
-2.63500000E+02
 11
-8.80000150E+01
 21
-2.63500000E+02
  0
LINE
  8
0
 62
7
 10
-1.20000030E+02
 20
-2.64058548E+02
 11
-1.20000030E+02
 21
-2.63500000E+02
  0
LINE
  8
0
 62
7
 10
-1.23508745E+02
 20
-2.64119811E+02
 11
-8.80000086E+01
 21
-2.63500004E+02
  0
LINE
  8
0
 62
7
 10
-1.39517535E+02
 20
-2.95472079E+02
 11
-1.26000079E+02
 21
-2.95000039E+02
  0
LINE
  8
0
 62
7
 10
-1.44500030E+02
 20
-2.96499985E+02
 11
-1.40000030E+02
 21
-2.96499985E+02
  0
LINE
  8
0
 62
7
 10
-1.55000015E+02
 20
-3.04499962E+02
 11
-1.45000030E+02
 21
-3.04499962E+02
  0
LINE
  8
0
  6
CENTER
 62
2
 10
-1.23460021E+01
 20
-2.77500000E+02
 11
-1.26524521E+02
 21
-2.77500000E+02
  0
LINE
  8
0
  6
CENTER
 62
2
 10
-3.76000000E+02
 20
-2.76199997E+02
 11
-3.76000000E+02
 21
-2.61236389E+02
  0
LINE
  8
0
  6
CENTER
 62
2
 10
-1.04000030E+02
 20
-2.76199966E+02
 11
-1.04000030E+02
 21
-2.61236359E+02
  0
LINE
  8
0
 62
7
 10
-1.55000015E+02
 20
-3.12016624E+02
 11
-1.55000015E+02
 21
-3.04499962E+02
  0
LINE
  8
0
 62
7
 10
-1.59000002E+02
 20
-3.06500016E+02
 11
-1.54999989E+02
 21
-3.04499971E+02
  0
LINE
  8
0
 62
7
 10
-1.49000030E+02
 20
-3.19500000E+02
 11
-1.49000030E+02
 21
-3.12016624E+02
  0
LINE
  8
0
 62
7
 10
-1.55000015E+02
 20
-3.12016624E+02
 11
-1.49000030E+02
 21
-3.12016624E+02
  0
LINE
  8
0
 62
7
 10
-1.59000008E+02
 20
-3.19499999E+02
 11
-1.54999993E+02
 21
-3.12016631E+02
  0
LINE
  8
0
 62
2
 10
-1.49000019E+02
 20
-3.12016634E+02
 11
-1.54000022E+02
 21
-3.19500000E+02
  0
LINE
  8
0
 62
2
 10
-1.53999994E+02
 20
-3.19500000E+02
 11
-1.56777782E+02
 21
-3.15342561E+02
  0
LINE
  8
0
  6
CENTER
 62
2
 10
1.27999924E+02
 20
-2.76199997E+02
 11
1.27999924E+02
 21
-2.61236389E+02
  0
LINE
  8
0
 62
2
 10
6.69165575E+01
 20
-3.19535225E+02
 11
6.69165575E+01
 21
-3.19499939E+02
  0
LINE
  8
0
 62
7
 10
6.05999300E+01
 20
-2.68500000E+02
 11
6.05999300E+01
 21
-3.19500000E+02
  0
LINE
  8
0
 62
7
 10
6.35999071E+01
 20
-2.94483841E+02
 11
6.35999071E+01
 21
-3.19500000E+02
  0
LINE
  8
0
 62
7
 10
6.45999224E+01
 20
-3.18250000E+02
 11
9.00974123E+01
 21
-3.18250000E+02
  0
LINE
  8
0
 62
7
 10
5.99999544E+01
 20
-2.68500000E+02
 11
5.99999544E+01
 21
-3.19500000E+02
  0
LINE
  8
0
  6
CENTER
 62
2
 10
7.39999468E+01
 20
-2.60607269E+02
 11
7.39999468E+01
 21
-2.92357803E+02
  0
LINE
  8
0
 62
7
 10
1.14749970E+02
 20
-2.68099991E+02
 11
1.14749970E+02
 21
-2.93597427E+02
  0
LINE
  8
0
 62
7
 10
9.85680393E+01
 20
-3.00300125E+02
 11
8.35783695E+01
 21
-2.85310462E+02
  0
LINE
  8
0
 62
7
 10
9.68002659E+01
 20
-3.02067864E+02
 11
8.18105948E+01
 21
-2.87078199E+02
  0
LINE
  8
0
 62
7
 10
8.09999697E+01
 20
-2.63500000E+02
 11
8.09999697E+01
 21
-2.64099976E+02
  0
LINE
  8
0
 62
7
 10
1.66999924E+02
 20
-2.64099976E+02
 11
6.49999544E+01
 21
-2.64099976E+02
  0
LINE
  8
0
 62
7
 10
1.71399948E+02
 20
-2.68499985E+02
 11
1.71399948E+02
 21
-3.19500000E+02
  0
LINE
  8
0
 62
7
 10
1.35199735E+02
 20
-3.02067984E+02
 11
1.50189395E+02
 21
-2.87078326E+02
  0
LINE
  8
0
 62
7
 10
1.33431955E+02
 20
-3.00300268E+02
 11
1.48421614E+02
 21
-2.85310611E+02
  0
LINE
  8
0
 62
7
 10
1.41016083E+02
 20
-2.67099991E+02
 11
9.09839480E+01
 21
-2.67099991E+02
  0
LINE
  8
0
 62
7
 10
1.68399964E+02
 20
-2.94484039E+02
 11
1.68399964E+02
 21
-3.19500000E+02
  0
LINE
  8
0
 62
7
 10
1.67399948E+02
 20
-3.18250000E+02
 11
1.41902466E+02
 21
-3.18250000E+02
  0
LINE
  8
0
 62
7
 10
1.17249970E+02
 20
-2.68099991E+02
 11
1.17249970E+02
 21
-2.93597488E+02
  0
LINE
  8
0
 62
7
 10
1.66999924E+02
 20
-2.63500000E+02
 11
6.49999544E+01
 21
-2.63500000E+02
  0
LINE
  8
0
 62
7
 10
1.71999924E+02
 20
-2.68500000E+02
 11
1.71999924E+02
 21
-3.19500000E+02
  0
LINE
  8
0
  6
CENTER
 62
2
 10
1.73963822E+02
 20
-2.77500000E+02
 11
1.42108917E+02
 21
-2.77500000E+02
  0
LINE
  8
0
  6
CENTER
 62
2
 10
1.57999924E+02
 20
-2.61019226E+02
 11
1.57999924E+02
 21
-2.91926193E+02
  0
LINE
  8
0
 62
7
 10
1.50999954E+02
 20
-2.63500000E+02
 11
1.50999954E+02
 21
-2.64099976E+02
  0
LINE
  8
0
  6
CENTER
 62
2
 10
1.15999970E+02
 20
-2.60833679E+02
 11
1.15999970E+02
 21
-3.19500000E+02
  0
LINE
  8
0
  6
CENTER
 62
2
 10
8.88061526E+01
 20
-2.77500000E+02
 11
5.77167284E+01
 21
-2.77500000E+02
  0
LINE
  8
0
  6
CENTER
 62
2
 10
5.81389925E+01
 20
-3.19500000E+02
 11
1.73904923E+02
 21
-3.19500000E+02
  0
LINE
  8
0
 62
7
 10
1.57999926E+02
 20
-2.71726496E+02
 11
1.52999930E+02
 21
-2.74613245E+02
  0
LINE
  8
0
 62
7
 10
1.52999924E+02
 20
-2.74613251E+02
 11
1.52999924E+02
 21
-2.80386749E+02
  0
LINE
  8
0
 62
7
 10
1.57999930E+02
 20
-2.83273506E+02
 11
1.52999927E+02
 21
-2.80386753E+02
  0
LINE
  8
0
 62
7
 10
1.62999924E+02
 20
-2.80386746E+02
 11
1.57999928E+02
 21
-2.83273496E+02
  0
LINE
  8
0
 62
7
 10
1.62999924E+02
 20
-2.74613251E+02
 11
1.62999924E+02
 21
-2.80386749E+02
  0
LINE
  8
0
 62
7
 10
1.57999927E+02
 20
-2.71726499E+02
 11
1.62999930E+02
 21
-2.74613252E+02
  0
LINE
  8
0
 62
7
 10
7.39999375E+01
 20
-2.71726495E+02
 11
6.89999412E+01
 21
-2.74613244E+02
  0
LINE
  8
0
 62
7
 10
6.89999468E+01
 20
-2.74613251E+02
 11
6.89999468E+01
 21
-2.80386749E+02
  0
LINE
  8
0
 62
7
 10
7.39999467E+01
 20
-2.83273497E+02
 11
6.89999471E+01
 21
-2.80386746E+02
  0
LINE
  8
0
 62
7
 10
7.89999375E+01
 20
-2.80386749E+02
 11
7.39999412E+01
 21
-2.83273498E+02
  0
LINE
  8
0
 62
7
 10
7.89999392E+01
 20
-2.74613251E+02
 11
7.89999392E+01
 21
-2.80386749E+02
  0
LINE
  8
0
 62
7
 10
7.39999471E+01
 20
-2.71726492E+02
 11
7.89999467E+01
 21
-2.74613243E+02
  0
LINE
  8
0
 62
7
 10
-1.62000030E+02
 20
-1.27320038E+02
 11
-1.59000030E+02
 21
-1.27320038E+02
  0
LINE
  8
0
 62
7
 10
-1.62000030E+02
 20
-1.51679993E+02
 11
-1.59000030E+02
 21
-1.51679993E+02
  0
LINE
  8
0
 62
7
 10
-1.62000030E+02
 20
-3.07320015E+02
 11
-1.59000030E+02
 21
-3.07320015E+02
  0
CIRCLE
  8
0
 62
7
 10
-9.50000150E+01
 20
-1.57500031E+02
 40
5.00000000E+00
  0
CIRCLE
  8
0
 62
7
 10
-3.22000000E+02
 20
-2.77500000E+02
 40
8.00000000E+00
  0
CIRCLE
  8
0
 62
7
 10
-3.22000000E+02
 20
-2.77500000E+02
 40
8.69999981E+00
  0
ARC
  8
0
 62
7
 10
-3.29103485E+02
 20
-2.87785461E+02
 40
1.00000000E+00
 50
5.53696252E+01
 51
1.34999959E+02
  0
ARC
  8
0
 62
7
 10
-3.32285431E+02
 20
-2.84603439E+02
 40
1.00000000E+00
 50
3.14999995E+02
 51
3.46303842E+01
  0
ARC
  8
0
 62
7
 10
-3.44093139E+02
 20
-3.02775108E+02
 40
1.00000000E+00
 50
1.34999959E+02
 51
2.20035227E+02
  0
ARC
  8
0
 62
7
 10
-3.47275177E+02
 20
-2.99593094E+02
 40
1.00000000E+00
 50
2.29964427E+02
 51
3.14999988E+02
  0
ARC
  8
0
 62
7
 10
-3.61749969E+02
 20
-2.68099991E+02
 40
1.00000000E+00
 50
8.99999818E+01
 51
1.79999964E+02
  0
ARC
  8
0
 62
7
 10
-3.61749969E+02
 20
-2.93597427E+02
 40
1.00000000E+00
 50
1.79999964E+02
 51
2.65035792E+02
  0
ARC
  8
0
 62
7
 10
-3.38097473E+02
 20
-3.17250008E+02
 40
1.00000000E+00
 50
1.84964149E+02
 51
2.69999956E+02
  0
ARC
  8
0
 62
7
 10
-3.12599975E+02
 20
-3.17250008E+02
 40
1.00000000E+00
 50
2.69999963E+02
 51
0.00000000E+00
  0
ARC
  8
0
 62
7
 10
-3.13000000E+02
 20
-2.68500000E+02
 40
4.40000010E+00
 50
0.00000000E+00
 51
8.99999818E+01
  0
ARC
  8
0
 62
7
 10
-3.13000000E+02
 20
-2.68500000E+02
 40
5.00000000E+00
 50
0.00000000E+00
 51
8.99999818E+01
  0
ARC
  8
0
 62
7
 10
-1.23500000E+02
 20
-8.46196899E+01
 40
5.00000000E-01
 50
9.10002493E+01
 51
1.79999951E+02
  0
ARC
  8
0
 62
7
 10
-1.44500000E+02
 20
-1.16999939E+02
 40
5.00000000E-01
 50
8.99999818E+01
 51
1.79999951E+02
  0
ARC
  8
0
 62
7
 10
-1.39500000E+02
 20
-1.15971680E+02
 40
5.00000000E-01
 50
9.20007356E+01
 51
1.79999951E+02
  0
ARC
  8
0
 62
7
 10
-1.25499985E+02
 20
-1.14999939E+02
 40
5.00000000E-01
 50
8.99999818E+01
 51
1.79999951E+02
  0
ARC
  8
0
 62
7
 10
-1.39500000E+02
 20
-1.63028183E+02
 40
5.00000000E-01
 50
1.79999977E+02
 51
2.67999192E+02
  0
ARC
  8
0
 62
7
 10
-1.25499985E+02
 20
-1.63999939E+02
 40
5.00000000E-01
 50
1.79999977E+02
 51
2.69999974E+02
  0
ARC
  8
0
 62
7
 10
-1.44500000E+02
 20
-1.61999954E+02
 40
5.00000000E-01
 50
1.79999977E+02
 51
2.69999974E+02
  0
ARC
  8
0
 62
7
 10
-1.23500000E+02
 20
-1.94380264E+02
 40
5.00000000E-01
 50
1.79999977E+02
 51
2.68999679E+02
  0
ARC
  8
0
 62
7
 10
-3.12599975E+02
 20
-2.94483841E+02
 40
1.00000000E+00
 50
0.00000000E+00
 51
9.45895548E+01
  0
ARC
  8
0
 62
7
 10
-3.38984009E+02
 20
-2.68099991E+02
 40
1.00000000E+00
 50
3.55412204E+02
 51
8.99999818E+01
  0
CIRCLE
  8
0
 62
7
 10
-1.04000000E+02
 20
-1.27499939E+02
 40
9.25000000E+00
  0
ARC
  8
0
 62
7
 10
-3.33841827E+02
 20
-2.73497482E+02
 40
1.00000000E+00
 50
3.41324803E+02
 51
9.18135474E+01
  0
ARC
  8
0
 62
7
 10
-3.17997619E+02
 20
-2.89341904E+02
 40
1.00000000E+00
 50
3.58189936E+02
 51
1.08674388E+02
  0
ARC
  8
0
 62
7
 10
-1.17999985E+02
 20
-1.06499939E+02
 40
2.00000000E+00
 50
8.99999818E+01
 51
1.79999951E+02
  0
ARC
  8
0
 62
7
 10
-1.17999985E+02
 20
-1.72499924E+02
 40
2.00000000E+00
 50
1.79999977E+02
 51
2.70000028E+02
  0
CIRCLE
  8
0
 62
7
 10
-1.04000000E+02
 20
-1.27500000E+02
 40
1.10000000E+01
  0
ARC
  8
0
 62
7
 10
-3.22000000E+02
 20
-2.77500000E+02
 40
1.15000000E+01
 50
1.61325025E+02
 51
2.88674421E+02
  0
ARC
  8
0
 62
7
 10
-3.34000061E+02
 20
-2.68500000E+02
 40
4.00000000E+00
 50
1.75411348E+02
 51
2.71812624E+02
  0
ARC
  8
0
 62
7
 10
-3.13000122E+02
 20
-2.89499893E+02
 40
4.00000000E+00
 50
1.78189554E+02
 51
2.74590407E+02
  0
CIRCLE
  8
0
 62
7
 10
-4.06000000E+02
 20
-2.77500015E+02
 40
8.00000000E+00
  0
CIRCLE
  8
0
 62
7
 10
-4.06000000E+02
 20
-2.77500015E+02
 40
8.69999981E+00
  0
ARC
  8
0
 62
7
 10
-3.95714508E+02
 20
-2.84603500E+02
 40
1.00000000E+00
 50
1.45369634E+02
 51
2.24999955E+02
  0
ARC
  8
0
 62
7
 10
-3.98896576E+02
 20
-2.87785492E+02
 40
1.00000000E+00
 50
4.49999910E+01
 51
1.24630380E+02
  0
ARC
  8
0
 62
7
 10
-4.15400024E+02
 20
-3.17250031E+02
 40
1.00000000E+00
 50
1.79999964E+02
 51
2.69999946E+02
  0
ARC
  8
0
 62
7
 10
-3.66249969E+02
 20
-2.68099991E+02
 40
1.00000000E+00
 50
3.59999959E+02
 51
8.99999956E+01
  0
ARC
  8
0
 62
7
 10
-3.89902527E+02
 20
-3.17250008E+02
 40
1.00000000E+00
 50
2.69999963E+02
 51
3.55035805E+02
  0
ARC
  8
0
 62
7
 10
-3.83906952E+02
 20
-3.02775139E+02
 40
1.00000000E+00
 50
3.19964423E+02
 51
4.49999910E+01
  0
ARC
  8
0
 62
7
 10
-3.80724884E+02
 20
-2.99593124E+02
 40
1.00000000E+00
 50
2.24999972E+02
 51
3.10035254E+02
  0
ARC
  8
0
 62
7
 10
-3.66249969E+02
 20
-2.93597488E+02
 40
1.00000000E+00
 50
2.74964145E+02
 51
3.59999959E+02
  0
ARC
  8
0
 62
7
 10
-4.06000000E+02
 20
-2.77500000E+02
 40
1.15000000E+01
 50
2.51324914E+02
 51
1.86744424E+01
  0
ARC
  8
0
 62
7
 10
-4.14999969E+02
 20
-2.68499985E+02
 40
4.40000010E+00
 50
8.99999818E+01
 51
1.79999964E+02
  0
ARC
  8
0
 62
7
 10
-4.14999969E+02
 20
-2.68500000E+02
 40
5.00000000E+00
 50
8.99999818E+01
 51
1.79999964E+02
  0
ARC
  8
0
 62
7
 10
-4.14999969E+02
 20
-2.89500061E+02
 40
4.00000000E+00
 50
2.65411312E+02
 51
1.81309463E+00
  0
ARC
  8
0
 62
7
 10
-3.94000122E+02
 20
-2.68500137E+02
 40
4.00000000E+00
 50
2.68189512E+02
 51
4.59040963E+00
  0
ARC
  8
0
 62
7
 10
-4.15400024E+02
 20
-2.94484039E+02
 40
1.00000000E+00
 50
8.54104639E+01
 51
1.79999964E+02
  0
ARC
  8
0
 62
7
 10
-3.89016205E+02
 20
-2.68099976E+02
 40
1.00000000E+00
 50
8.99999818E+01
 51
1.84589646E+02
  0
ARC
  8
0
 62
7
 10
-4.10002472E+02
 20
-2.89341858E+02
 40
1.00000000E+00
 50
7.13253501E+01
 51
1.81812600E+02
  0
ARC
  8
0
 62
7
 10
-3.94158111E+02
 20
-2.73497620E+02
 40
1.00000000E+00
 50
8.81899612E+01
 51
1.98674330E+02
  0
ARC
  8
0
 62
7
 10
-3.63999908E+02
 20
-3.19499939E+02
 40
2.50000153E+01
 50
0.00000000E+00
 51
1.80000140E+02
  0
ARC
  8
0
 62
7
 10
-3.63999908E+02
 20
-3.19499939E+02
 40
2.35000153E+01
 50
0.00000000E+00
 51
1.80000149E+02
  0
ARC
  8
0
 62
7
 10
-3.64000030E+02
 20
-3.19500000E+02
 40
2.40000000E+01
 50
0.00000000E+00
 51
1.80000000E+02
  0
CIRCLE
  8
0
 62
2
 10
-1.04000030E+02
 20
-1.27500000E+02
 40
1.04775000E+01
  0
CIRCLE
  8
0
 62
2
 10
-4.06000000E+02
 20
-2.77500000E+02
 40
5.00000000E+00
  0
CIRCLE
  8
0
 62
2
 10
-3.22000000E+02
 20
-2.77500000E+02
 40
5.00000000E+00
  0
CIRCLE
  8
0
 62
7
 10
-4.06000000E+02
 20
-2.77500000E+02
 40
4.17999983E+00
  0
CIRCLE
  8
0
 62
7
 10
-3.22000000E+02
 20
-2.77500000E+02
 40
4.17999983E+00
  0
ARC
  8
0
 62
7
 10
-3.64000030E+02
 20
-3.19500000E+02
 40
1.29999914E+01
 50
0.00000000E+00
 51
1.80000000E+02
  0
ARC
  8
0
 62
2
 10
-3.64000030E+02
 20
-3.19500000E+02
 40
1.21799841E+01
 50
0.00000000E+00
 51
1.80000000E+02
  0
ARC
  8
0
 62
7
 10
-3.64000030E+02
 20
-3.19500000E+02
 40
1.14999914E+01
 50
0.00000000E+00
 51
1.80000000E+02
  0
ARC
  8
0
 62
7
 10
-1.39500030E+02
 20
-2.95971725E+02
 40
5.00000000E-01
 50
9.20007356E+01
 51
1.79999964E+02
  0
ARC
  8
0
 62
7
 10
-1.25500015E+02
 20
-2.95000000E+02
 40
5.00000000E-01
 50
8.99999818E+01
 51
1.79999964E+02
  0
ARC
  8
0
 62
7
 10
-1.23500015E+02
 20
-2.64619720E+02
 40
5.00000000E-01
 50
9.10002493E+01
 51
1.79999964E+02
  0
ARC
  8
0
 62
7
 10
-1.44500030E+02
 20
-2.96999985E+02
 40
5.00000000E-01
 50
8.99999818E+01
 51
1.79999964E+02
  0
CIRCLE
  8
0
 62
7
 10
-9.50000150E+01
 20
-1.57500031E+02
 40
2.59999990E+00
  0
ARC
  8
0
 62
7
 10
-1.62000030E+02
 20
-3.19499985E+02
 40
1.50000248E+01
 50
3.59999942E+02
 51
2.99266002E+01
  0
CIRCLE
  8
0
 62
7
 10
7.39999468E+01
 20
-2.77500000E+02
 40
8.00000000E+00
  0
CIRCLE
  8
0
 62
7
 10
7.39999468E+01
 20
-2.77500000E+02
 40
8.69999981E+00
  0
ARC
  8
0
 62
7
 10
8.11034243E+01
 20
-2.87785461E+02
 40
1.00000000E+00
 50
4.50000423E+01
 51
1.24630380E+02
  0
ARC
  8
0
 62
7
 10
8.42853854E+01
 20
-2.84603439E+02
 40
1.00000000E+00
 50
1.45369621E+02
 51
2.25000010E+02
  0
ARC
  8
0
 62
7
 10
9.60930941E+01
 20
-3.02775108E+02
 40
1.00000000E+00
 50
3.19964774E+02
 51
4.50000423E+01
  0
ARC
  8
0
 62
7
 10
9.92751162E+01
 20
-2.99593094E+02
 40
1.00000000E+00
 50
2.25000013E+02
 51
3.10035571E+02
  0
ARC
  8
0
 62
7
 10
1.13749909E+02
 20
-2.68099991E+02
 40
1.00000000E+00
 50
3.59721781E-05
 51
9.00000162E+01
  0
ARC
  8
0
 62
7
 10
1.13749909E+02
 20
-2.93597427E+02
 40
1.00000000E+00
 50
2.74964207E+02
 51
3.59721781E-05
  0
ARC
  8
0
 62
7
 10
9.00974123E+01
 20
-3.17250008E+02
 40
1.00000000E+00
 50
2.70000045E+02
 51
3.55035851E+02
  0
ARC
  8
0
 62
7
 10
6.45999224E+01
 20
-3.17250008E+02
 40
1.00000000E+00
 50
1.79999991E+02
 51
2.70000028E+02
  0
ARC
  8
0
 62
7
 10
6.49999544E+01
 20
-2.68500000E+02
 40
4.40000010E+00
 50
9.00000162E+01
 51
1.80000005E+02
  0
ARC
  8
0
 62
7
 10
6.49999544E+01
 20
-2.68500000E+02
 40
5.00000000E+00
 50
9.00000162E+01
 51
1.80000005E+02
  0
CIRCLE
  8
0
 62
2
 10
1.57999924E+02
 20
-2.77500000E+02
 40
5.00000000E+00
  0
ARC
  8
0
 62
7
 10
6.45999224E+01
 20
-2.94483841E+02
 40
1.00000000E+00
 50
8.54104432E+01
 51
1.80000005E+02
  0
ARC
  8
0
 62
7
 10
9.09839480E+01
 20
-2.68099991E+02
 40
1.00000000E+00
 50
9.00000162E+01
 51
1.84587802E+02
  0
ARC
  8
0
 62
7
 10
8.58417818E+01
 20
-2.73497482E+02
 40
1.00000000E+00
 50
8.81864507E+01
 51
1.98675204E+02
  0
ARC
  8
0
 62
7
 10
6.99975664E+01
 20
-2.89341904E+02
 40
1.00000000E+00
 50
7.13256097E+01
 51
1.81810060E+02
  0
ARC
  8
0
 62
7
 10
7.39999468E+01
 20
-2.77500000E+02
 40
1.15000000E+01
 50
2.51325577E+02
 51
1.86749751E+01
  0
ARC
  8
0
 62
7
 10
8.60000155E+01
 20
-2.68500000E+02
 40
4.00000000E+00
 50
2.68187375E+02
 51
4.58865257E+00
  0
ARC
  8
0
 62
7
 10
6.50000536E+01
 20
-2.89499893E+02
 40
4.00000000E+00
 50
2.65409591E+02
 51
1.81044602E+00
  0
CIRCLE
  8
0
 62
7
 10
1.57999924E+02
 20
-2.77500015E+02
 40
8.00000000E+00
  0
CIRCLE
  8
0
 62
7
 10
1.57999924E+02
 20
-2.77500015E+02
 40
8.69999981E+00
  0
ARC
  8
0
 62
7
 10
1.47714432E+02
 20
-2.84603500E+02
 40
1.00000000E+00
 50
3.15000047E+02
 51
3.46303671E+01
  0
ARC
  8
0
 62
7
 10
1.50896500E+02
 20
-2.87785492E+02
 40
1.00000000E+00
 50
5.53696217E+01
 51
1.35000014E+02
  0
ARC
  8
0
 62
7
 10
1.67399948E+02
 20
-3.17250031E+02
 40
1.00000000E+00
 50
2.70000052E+02
 51
3.59721781E-05
  0
ARC
  8
0
 62
7
 10
1.18249924E+02
 20
-2.68099991E+02
 40
1.00000000E+00
 50
9.00000025E+01
 51
1.80000046E+02
  0
ARC
  8
0
 62
7
 10
1.41902466E+02
 20
-3.17250008E+02
 40
1.00000000E+00
 50
1.84964190E+02
 51
2.70000038E+02
  0
ARC
  8
0
 62
7
 10
1.35906876E+02
 20
-3.02775139E+02
 40
1.00000000E+00
 50
1.35000014E+02
 51
2.20035582E+02
  0
ARC
  8
0
 62
7
 10
1.32724808E+02
 20
-2.99593124E+02
 40
1.00000000E+00
 50
2.29964741E+02
 51
3.15000026E+02
  0
ARC
  8
0
 62
7
 10
1.18249924E+02
 20
-2.93597488E+02
 40
1.00000000E+00
 50
1.80000036E+02
 51
2.65035857E+02
  0
ARC
  8
0
 62
7
 10
1.57999924E+02
 20
-2.77500000E+02
 40
1.15000000E+01
 50
1.61325558E+02
 51
2.88675076E+02
  0
ARC
  8
0
 62
7
 10
1.66999924E+02
 20
-2.68499985E+02
 40
4.40000010E+00
 50
3.59721781E-05
 51
9.00000162E+01
  0
ARC
  8
0
 62
7
 10
1.66999924E+02
 20
-2.68500000E+02
 40
5.00000000E+00
 50
3.59721781E-05
 51
9.00000162E+01
  0
ARC
  8
0
 62
7
 10
1.66999924E+02
 20
-2.89500061E+02
 40
4.00000000E+00
 50
1.78186904E+02
 51
2.74588685E+02
  0
ARC
  8
0
 62
7
 10
1.46000061E+02
 20
-2.68500137E+02
 40
4.00000000E+00
 50
1.75409585E+02
 51
2.71810493E+02
  0
ARC
  8
0
 62
7
 10
1.67399948E+02
 20
-2.94484039E+02
 40
1.00000000E+00
 50
3.59721781E-05
 51
9.45895342E+01
  0
ARC
  8
0
 62
7
 10
1.41016129E+02
 20
-2.68099976E+02
 40
1.00000000E+00
 50
3.55410354E+02
 51
9.00000162E+01
  0
ARC
  8
0
 62
7
 10
1.62002411E+02
 20
-2.89341858E+02
 40
1.00000000E+00
 50
3.58187399E+02
 51
1.08674648E+02
  0
ARC
  8
0
 62
7
 10
1.46158036E+02
 20
-2.73497620E+02
 40
1.00000000E+00
 50
3.41325670E+02
 51
9.18100369E+01
  0
ARC
  8
0
 62
7
 10
1.15999863E+02
 20
-3.19499939E+02
 40
2.50000153E+01
 50
0.00000000E+00
 51
1.80000140E+02
  0
CIRCLE
  8
0
 62
2
 10
7.39999468E+01
 20
-2.77500000E+02
 40
5.00000000E+00
  0
CIRCLE
  8
0
 62
7
 10
1.57999924E+02
 20
-2.77500000E+02
 40
4.17999983E+00
  0
CIRCLE
  8
0
 62
7
 10
7.39999468E+01
 20
-2.77500000E+02
 40
4.17999983E+00
  0
LINE
  8
0
 62
2
 10
-7.02708648E+01
 20
-1.97828805E+02
 11
-8.86146577E-01
 21
-7.76509480E+01
  0
ARC
  8
0
 62
7
 10
4.53999970E+02
 20
-3.19499985E+02
 40
1.50000248E+01
 50
1.50073400E+02
 51
1.80000058E+02
  0
ARC
  8
0
 62
7
 10
4.36499970E+02
 20
-2.96999985E+02
 40
5.00000000E-01
 50
3.59721787E-05
 51
9.00000179E+01
  0
ARC
  8
0
 62
7
 10
4.15499954E+02
 20
-2.64619720E+02
 40
5.00000000E-01
 50
3.59721787E-05
 51
8.89997505E+01
  0
ARC
  8
0
 62
7
 10
4.17499954E+02
 20
-2.95000000E+02
 40
5.00000000E-01
 50
3.59721787E-05
 51
9.00000179E+01
  0
ARC
  8
0
 62
7
 10
4.31499970E+02
 20
-2.95971725E+02
 40
5.00000000E-01
 50
3.59721787E-05
 51
8.79992642E+01
  0
LINE
  8
0
 62
7
 10
4.53999970E+02
 20
-3.07320015E+02
 11
4.50999970E+02
 21
-3.07320015E+02
  0
LINE
  8
0
 62
2
 10
4.45999933E+02
 20
-3.19500000E+02
 11
4.48777721E+02
 21
-3.15342561E+02
  0
LINE
  8
0
 62
2
 10
4.40999958E+02
 20
-3.12016634E+02
 11
4.45999961E+02
 21
-3.19500000E+02
  0
LINE
  8
0
 62
7
 10
4.50999948E+02
 20
-3.19499999E+02
 11
4.46999932E+02
 21
-3.12016631E+02
  0
LINE
  8
0
 62
7
 10
4.46999954E+02
 20
-3.12016624E+02
 11
4.40999970E+02
 21
-3.12016624E+02
  0
LINE
  8
0
 62
7
 10
4.40999970E+02
 20
-3.19500000E+02
 11
4.40999970E+02
 21
-3.12016624E+02
  0
LINE
  8
0
 62
7
 10
4.50999942E+02
 20
-3.06500016E+02
 11
4.46999928E+02
 21
-3.04499971E+02
  0
LINE
  8
0
 62
7
 10
4.46999954E+02
 20
-3.12016624E+02
 11
4.46999954E+02
 21
-3.04499962E+02
  0
LINE
  8
0
  6
CENTER
 62
2
 10
3.95999970E+02
 20
-2.76199966E+02
 11
3.95999970E+02
 21
-2.61236359E+02
  0
LINE
  8
0
 62
7
 10
3.79999985E+02
 20
-2.65999985E+02
 11
3.72999985E+02
 21
-2.65999985E+02
  0
LINE
  8
0
  6
CENTER
 62
2
 10
2.91066868E+02
 20
-2.77500000E+02
 11
3.53499985E+02
 21
-2.77500000E+02
  0
LINE
  8
0
 62
7
 10
4.46999954E+02
 20
-3.04499962E+02
 11
4.36999970E+02
 21
-3.04499962E+02
  0
LINE
  8
0
 62
7
 10
4.36499970E+02
 20
-2.96499985E+02
 11
4.31999970E+02
 21
-2.96499985E+02
  0
LINE
  8
0
 62
7
 10
4.31517475E+02
 20
-2.95472079E+02
 11
4.18000018E+02
 21
-2.95000039E+02
  0
LINE
  8
0
 62
7
 10
4.15508684E+02
 20
-2.64119811E+02
 11
3.79999948E+02
 21
-2.63500004E+02
  0
LINE
  8
0
 62
7
 10
4.11999970E+02
 20
-2.64058548E+02
 11
4.11999970E+02
 21
-2.63500000E+02
  0
LINE
  8
0
 62
7
 10
4.11999970E+02
 20
-2.63500000E+02
 11
3.79999954E+02
 21
-2.63500000E+02
  0
LINE
  8
0
 62
7
 10
4.17499954E+02
 20
-2.94499985E+02
 11
4.15999970E+02
 21
-2.94499985E+02
  0
LINE
  8
0
 62
2
 10
4.90320038E+02
 20
-3.07320015E+02
 11
4.79499977E+02
 21
-3.07320015E+02
  0
LINE
  8
0
 62
7
 10
4.90999849E+02
 20
-3.08000187E+02
 11
4.89499831E+02
 21
-3.06500170E+02
  0
LINE
  8
0
 62
7
 10
4.89499970E+02
 20
-3.19500000E+02
 11
4.89499970E+02
 21
-3.06500008E+02
  0
LINE
  8
0
 62
7
 10
4.89500031E+02
 20
-3.06500008E+02
 11
4.79499977E+02
 21
-3.06500008E+02
  0
LINE
  8
0
 62
7
 10
4.53999970E+02
 20
-3.19500000E+02
 11
4.53999970E+02
 21
-3.06500008E+02
  0
LINE
  8
0
 62
7
 10
4.90999985E+02
 20
-3.19500000E+02
 11
4.90999985E+02
 21
-3.08000305E+02
  0
LINE
  8
0
 62
7
 10
4.17999954E+02
 20
-2.95000046E+02
 11
4.17999954E+02
 21
-3.19500000E+02
  0
LINE
  8
0
 62
7
 10
4.36999970E+02
 20
-3.19500000E+02
 11
4.36999970E+02
 21
-2.96999985E+02
  0
LINE
  8
0
 62
7
 10
4.50999970E+02
 20
-3.19500000E+02
 11
4.50999970E+02
 21
-3.06500008E+02
  0
LINE
  8
0
 62
7
 10
3.79999985E+02
 20
-2.63500000E+02
 11
3.79999985E+02
 21
-3.19500000E+02
  0
LINE
  8
0
 62
7
 10
4.15999970E+02
 20
-2.64619720E+02
 11
4.15999970E+02
 21
-3.19500000E+02
  0
LINE
  8
0
  6
CENTER
 62
2
 10
4.99243386E+02
 20
-3.19500000E+02
 11
2.66818156E+02
 21
-3.19500000E+02
  0
LINE
  8
0
 62
7
 10
4.31999970E+02
 20
-2.95936752E+02
 11
4.31999970E+02
 21
-3.19500000E+02
  0
LINE
  8
0
 62
7
 10
2.93664961E+02
 20
-2.72999969E+02
 11
3.53499985E+02
 21
-2.72999969E+02
  0
LINE
  8
0
 62
7
 10
2.88468800E+02
 20
-2.81999985E+02
 11
3.53499985E+02
 21
-2.81999985E+02
  0
LINE
  8
0
 62
7
 10
3.33999985E+02
 20
-2.65999985E+02
 11
2.97706405E+02
 21
-2.65999985E+02
  0
LINE
  8
0
 62
7
 10
3.68499985E+02
 20
-2.72999969E+02
 11
3.79999985E+02
 21
-2.72999969E+02
  0
LINE
  8
0
 62
7
 10
3.68499985E+02
 20
-2.81999985E+02
 11
3.79999985E+02
 21
-2.81999985E+02
  0
LINE
  8
0
  6
CENTER
 62
2
 10
3.68499985E+02
 20
-2.77500000E+02
 11
4.18524460E+02
 21
-2.77500000E+02
  0
LINE
  8
0
 62
7
 10
-5.70647397E+00
 20
-8.60000000E+01
 11
-8.80000456E+01
 21
-8.60000000E+01
  0
LINE
  8
0
  6
CENTER
 62
2
 10
-9.60000456E+01
 20
-9.74999695E+01
 11
-1.26524521E+02
 21
-9.74999695E+01
  0
LINE
  8
0
 62
7
 10
-8.80000456E+01
 20
-1.06119611E+02
 11
-8.80000456E+01
 21
-1.95500015E+02
  0
TEXT
  8
0
 10
-8.22146873E+01
 20
3.54316712E+02
 40
9.00000000E+00
  1
STRETCH LINE
 41
1.05263158E+00
  7
MONOTXT
  0
LINE
  8
0
 62
7
 10
5.69500000E+02
 20
4.00500000E+02
 11
5.69500000E+02
 21
-4.00500000E+02
  0
LINE
  8
0
 62
7
 10
-5.69500000E+02
 20
4.00500000E+02
 11
5.69500000E+02
 21
4.00500000E+02
  0
LINE
  8
0
 62
7
 10
-5.69500000E+02
 20
-4.00500000E+02
 11
5.69500000E+02
 21
-4.00500000E+02
  0
LINE
  8
0
 62
7
 10
-5.69500000E+02
 20
4.00500000E+02
 11
-5.69500000E+02
 21
-4.00500000E+02
  0
LINE
  8
0
 62
7
 10
-5.69500000E+02
 20
3.70500000E+02
 11
-3.39500000E+02
 21
3.70500000E+02
  0
LINE
  8
0
 62
7
 10
3.39500000E+02
 20
3.70500000E+02
 11
5.69500000E+02
 21
3.70500000E+02
  0
LINE
  8
0
 62
7
 10
3.39500000E+02
 20
-3.70500000E+02
 11
5.69500000E+02
 21
-3.70500000E+02
  0
LINE
  8
0
 62
7
 10
3.39500000E+02
 20
-3.70500000E+02
 11
3.39500000E+02
 21
-4.00500000E+02
  0
LINE
  8
0
 62
7
 10
3.39500000E+02
 20
4.00500000E+02
 11
3.39500000E+02
 21
3.70500000E+02
  0
LINE
  8
0
 62
7
 10
-3.39500000E+02
 20
4.00500000E+02
 11
-3.39500000E+02
 21
3.70500000E+02
  0
TEXT
  8
0
 62
7
 10
-5.42179687E+02
 20
3.34250000E+02
 40
1.25000000E+01
  1
MODEL:DDA100*75
 41
1.00000015E+00
  7
MONOTXT
  0
TEXT
  8
0
 62
7
 10
4.06285149E+02
 20
3.79250000E+02
 40
1.25000000E+01
  1
Ver. 1.0
 41
1.08108125E+00
  7
MONOTXT
  0
TEXT
  8
0
 62
7
 10
3.45070624E+02
 20
-3.94500000E+02
 40
1.80000000E+01
  1
KOGANEI CORP.
 41
1.04838710E+00
  7
MONOTXT
  0
TEXT
  8
0
 62
7
 10
-5.58964859E+02
 20
3.79250000E+02
 40
1.25000000E+01
  1
NEW DYNA CYLINDER
 41
1.07594953E+00
  7
MONOTXT
  0
ENDSEC
  0
EOF
