  0
SECTION
  2
HEADER
  9
$ACADVER
  1
AC1003
  9
$EXTMIN
 10
-1.94250000E+02
 20
-1.33500000E+02
  9
$EXTMAX
 10
1.94800003E+02
 20
1.32600006E+02
  9
$LIMMIN
 10
-1.94251000E+02
 20
-1.33501000E+02
  9
$LIMMAX
 10
1.94801003E+02
 20
1.32601006E+02
  9
$SNAPUNIT
 10
1
 20
1
  9
$SNAPBASE
 10
0
 20
0
  9
$GRIDMODE
 70
0
  9
$GRIDUNIT
 10
0
 20
0
  9
$LTSCALE
 40
6.48416672E+00
  9
$TEXTSIZE
 40
3.2
  9
$DIMTAD
 70
0
  9
$LUNITS
 70
2
  9
$LUPREC
 70
4
  9
$FILLETRAD
 40
0
  9
$AUNITS
 70
0
  9
$AUPREC
 70
0
  0
ENDSEC
  0
SECTION
  2
TABLES
  0
TABLE
  2
LTYPE
 70
2
  0
LTYPE
  2
CONTINUOUS
 70
64
  3
Solid-Line
 72
65
 73
0
 40
0
  0
LTYPE
  2
DASHED
 70
64
  3
DASHED
 72
65
 73
2
 40
.75
 49
.5
 49
-.25
  0
LTYPE
  2
HIDDEN
 70
64
  3
HIDDEN
 72
65
 73
2
 40
.375
 49
.25
 49
-.125
  0
LTYPE
  2
CENTER
 70
64
  3
CENTER
 72
65
 73
4
 40
2
 49
1.25
 49
-.25
 49
.25
 49
-.25
  0
LTYPE
  2
PHANTOM
 70
64
  3
PHANTOM
 72
65
 73
6
 40
2.5
 49
1.25
 49
-.25
 49
.25
 49
-.25
 49
.25
 49
-.25
  0
ENDTAB
  0
TABLE
  2
LAYER
 70
1
  0
LAYER
  2
1
 70
0
 62
7
  6
CONTINUOUS
 0
ENDTAB
  0
TABLE
  2
STYLE
 70
2
  0
STYLE
  2
MONOTXT
 70
0
 40
0
 41
1
 50
0
 71
0
 42
.2
  3
monotxt
  0
STYLE
  2
BIGFONT
 70
0
 40
0
 41
1
 50
0
 71
0
 42
.2
  3
txt
  4
bigfont
  0
ENDTAB
  0
ENDSEC
  0
SECTION
  2
ENTITIES
  0
LINE
  8
0
 62
4
 10
-3.58353566E-01
 20
-2.34212243E+01
 11
4.46416464E+01
 21
-2.34212243E+01
  0
LINE
  8
0
 62
4
 10
-3.58353566E-01
 20
-5.14212243E+01
 11
4.46416464E+01
 21
-5.14212243E+01
  0
LINE
  8
0
 62
4
 10
-3.58353566E-01
 20
-9.42122434E+00
 11
6.11416464E+01
 21
-9.42122434E+00
  0
LINE
  8
0
 62
4
 10
-3.58353566E-01
 20
-6.54212205E+01
 11
6.11416464E+01
 21
-6.54212205E+01
  0
LINE
  8
0
  6
CENTER
 62
6
 10
-7.39212127E+00
 20
-3.74212243E+01
 11
9.94612799E+01
 21
-3.74212243E+01
  0
ARC
  8
0
 62
4
 10
4.46416464E+01
 20
-2.54212243E+01
 40
1.00000000E+00
 50
3.60000000E+02
 51
9.00000094E+01
  0
ARC
  8
0
 62
4
 10
4.46416464E+01
 20
-4.94212243E+01
 40
1.00000000E+00
 50
2.69999998E+02
 51
2.50447807E-06
  0
ARC
  8
0
 62
4
 10
6.21416464E+01
 20
-1.64212243E+01
 40
1.00000000E+00
 50
1.79999991E+02
 51
2.70000001E+02
  0
ARC
  8
0
 62
4
 10
6.21416464E+01
 20
-5.84212243E+01
 40
1.00000000E+00
 50
8.99999956E+01
 51
1.79999991E+02
  0
LINE
  8
0
 62
4
 10
1.81916342E+01
 20
-6.88712213E+01
 11
1.81916342E+01
 21
-6.59712274E+01
  0
LINE
  8
0
 62
4
 10
2.10916586E+01
 20
-6.88712213E+01
 11
2.10916586E+01
 21
-6.59712274E+01
  0
LINE
  8
0
 62
4
 10
1.96416464E+01
 20
-6.88712213E+01
 11
1.96416464E+01
 21
-6.59712274E+01
  0
LINE
  8
0
 62
4
 10
2.25416403E+01
 20
-6.88712213E+01
 11
2.25416403E+01
 21
-6.59712274E+01
  0
LINE
  8
0
 62
4
 10
1.67416525E+01
 20
-6.88712213E+01
 11
2.25416403E+01
 21
-6.88712213E+01
  0
LINE
  8
0
 62
4
 10
1.67416525E+01
 20
-6.88712213E+01
 11
1.67416525E+01
 21
-6.59712274E+01
  0
LINE
  8
0
 62
4
 10
1.67416525E+01
 20
-6.59712274E+01
 11
2.25416403E+01
 21
-6.59712274E+01
  0
LINE
  8
0
 62
4
 10
1.81916342E+01
 20
-8.87122129E+00
 11
1.81916342E+01
 21
-5.97122739E+00
  0
LINE
  8
0
 62
4
 10
2.10916586E+01
 20
-8.87122129E+00
 11
2.10916586E+01
 21
-5.97122739E+00
  0
LINE
  8
0
 62
4
 10
1.96416464E+01
 20
-8.87122129E+00
 11
1.96416464E+01
 21
-5.97122739E+00
  0
LINE
  8
0
 62
4
 10
2.25416403E+01
 20
-8.87122129E+00
 11
2.25416403E+01
 21
-5.97122739E+00
  0
LINE
  8
0
 62
4
 10
1.67416525E+01
 20
-8.87122129E+00
 11
2.25416403E+01
 21
-8.87122129E+00
  0
LINE
  8
0
 62
4
 10
1.67416525E+01
 20
-8.87122129E+00
 11
1.67416525E+01
 21
-5.97122739E+00
  0
LINE
  8
0
 62
4
 10
1.67416525E+01
 20
-5.97122739E+00
 11
2.25416403E+01
 21
-5.97122739E+00
  0
LINE
  8
0
 62
4
 10
9.64164643E+00
 20
-6.54212205E+01
 11
9.64164643E+00
 21
-7.04212243E+01
  0
LINE
  8
0
 62
4
 10
9.64164643E+00
 20
-2.34212243E+01
 11
9.64164643E+00
 21
-5.14212243E+01
  0
LINE
  8
0
 62
4
 10
2.96416464E+01
 20
-6.54212205E+01
 11
2.96416464E+01
 21
-7.04212243E+01
  0
LINE
  8
0
 62
4
 10
2.96416464E+01
 20
-2.34212243E+01
 11
2.96416464E+01
 21
-5.14212243E+01
  0
LINE
  8
0
  6
CENTER
 62
6
 10
1.96416464E+01
 20
-7.14063391E-01
 11
1.96416464E+01
 21
-7.30879114E+01
  0
LINE
  8
0
 62
4
 10
9.64164643E+00
 20
-4.42122434E+00
 11
2.96416464E+01
 21
-4.42122434E+00
  0
LINE
  8
0
 62
4
 10
2.86416437E+01
 20
-3.42121881E+00
 11
2.96416448E+01
 21
-4.42121996E+00
  0
LINE
  8
0
 62
4
 10
9.64164643E+00
 20
-4.42122434E+00
 11
9.64164643E+00
 21
-9.42122434E+00
  0
LINE
  8
0
 62
4
 10
1.06416464E+01
 20
-3.42122434E+00
 11
2.86416464E+01
 21
-3.42122434E+00
  0
LINE
  8
0
 62
4
 10
9.64164643E+00
 20
-7.04212243E+01
 11
2.96416464E+01
 21
-7.04212243E+01
  0
LINE
  8
0
 62
4
 10
9.64164433E+00
 20
-7.04212208E+01
 11
1.06416455E+01
 21
-7.14212218E+01
  0
LINE
  8
0
 62
4
 10
2.86416438E+01
 20
-7.14212211E+01
 11
2.96416448E+01
 21
-7.04212199E+01
  0
LINE
  8
0
 62
4
 10
1.06416514E+01
 20
-3.42122973E+00
 11
9.64165032E+00
 21
-4.42123088E+00
  0
LINE
  8
0
 62
4
 10
2.96416464E+01
 20
-4.42122434E+00
 11
2.96416464E+01
 21
-9.42122434E+00
  0
LINE
  8
0
 62
4
 10
1.06416464E+01
 20
-7.14212243E+01
 11
2.86416464E+01
 21
-7.14212243E+01
  0
LINE
  8
0
 62
4
 10
9.64165055E+00
 20
-9.92122616E+00
 11
9.14164998E+00
 21
-9.42122563E+00
  0
LINE
  8
0
 62
4
 10
4.46416464E+01
 20
-5.04212205E+01
 11
4.46416464E+01
 21
-5.14212243E+01
  0
LINE
  8
0
 62
4
 10
9.36416458E+01
 20
-5.74212187E+01
 11
9.46416469E+01
 21
-5.64212176E+01
  0
LINE
  8
0
 62
4
 10
9.36416502E+01
 20
-1.74212208E+01
 11
9.46416512E+01
 21
-1.84212220E+01
  0
LINE
  8
0
 62
4
 10
9.46416464E+01
 20
-1.84212243E+01
 11
9.46416464E+01
 21
-5.64212243E+01
  0
LINE
  8
0
 62
4
 10
4.46416464E+01
 20
-2.34212243E+01
 11
4.46416464E+01
 21
-2.44212243E+01
  0
LINE
  8
0
 62
4
 10
6.11416464E+01
 20
-4.34322030E+01
 11
6.11416464E+01
 21
-6.54212205E+01
  0
LINE
  8
0
 62
4
 10
6.21416464E+01
 20
-1.74212243E+01
 11
9.36416464E+01
 21
-1.74212243E+01
  0
LINE
  8
0
 62
4
 10
6.11416464E+01
 20
-9.42122434E+00
 11
6.11416464E+01
 21
-3.20397470E+01
  0
LINE
  8
0
 62
4
 10
6.21416464E+01
 20
-5.74212243E+01
 11
9.36416464E+01
 21
-5.74212243E+01
  0
LINE
  8
0
 62
4
 10
4.56416464E+01
 20
-2.54212243E+01
 11
4.56416464E+01
 21
-4.94212243E+01
  0
LINE
  8
0
 62
4
 10
-3.58353566E-01
 20
-9.42122434E+00
 11
-3.58353566E-01
 21
-2.34212243E+01
  0
LINE
  8
0
 62
4
 10
-3.58353566E-01
 20
-5.14212243E+01
 11
-3.58353566E-01
 21
-6.54212205E+01
  0
ARC
  8
0
 62
4
 10
-9.39276361E+01
 20
-3.74212243E+01
 40
1.20000038E+01
 50
3.26442663E+02
 51
3.35573443E+01
  0
ARC
  8
0
 62
4
 10
-9.39276361E+01
 20
-3.74212243E+01
 40
1.20000038E+01
 50
1.46442657E+02
 51
2.13557339E+02
  0
LINE
  8
0
 62
4
 10
-1.10245263E+02
 20
-6.59712102E+01
 11
-1.10245263E+02
 21
-6.88712346E+01
  0
LINE
  8
0
 62
4
 10
-7.56452875E+01
 20
-6.59712102E+01
 11
-7.56452875E+01
 21
-6.88712346E+01
  0
LINE
  8
0
 62
4
 10
-8.40333185E+01
 20
-6.88712346E+01
 11
-7.56452875E+01
 21
-6.88712346E+01
  0
LINE
  8
0
 62
4
 10
-8.40333185E+01
 20
-6.59712102E+01
 11
-7.56452875E+01
 21
-6.59712102E+01
  0
LINE
  8
0
 62
4
 10
-1.10245263E+02
 20
-6.88712346E+01
 11
-1.03927636E+02
 21
-6.88712346E+01
  0
LINE
  8
0
 62
4
 10
-1.10245263E+02
 20
-6.59712102E+01
 11
-1.03927636E+02
 21
-6.59712102E+01
  0
LINE
  8
0
 62
4
 10
-1.10245263E+02
 20
-5.97121213E+00
 11
-1.10245263E+02
 21
-8.87123655E+00
  0
LINE
  8
0
 62
4
 10
-7.56452875E+01
 20
-5.97121213E+00
 11
-7.56452875E+01
 21
-8.87123655E+00
  0
LINE
  8
0
 62
4
 10
-8.40333185E+01
 20
-8.87123655E+00
 11
-7.56452875E+01
 21
-8.87123655E+00
  0
LINE
  8
0
 62
4
 10
-8.40333185E+01
 20
-5.97121213E+00
 11
-7.56452875E+01
 21
-5.97121213E+00
  0
LINE
  8
0
 62
4
 10
-1.10245263E+02
 20
-8.87123655E+00
 11
-1.03927636E+02
 21
-8.87123655E+00
  0
LINE
  8
0
 62
4
 10
-1.10245263E+02
 20
-5.97121213E+00
 11
-1.03927636E+02
 21
-5.97121213E+00
  0
LINE
  8
0
  6
CENTER
 62
6
 10
-9.39276361E+01
 20
-7.14063391E-01
 11
-9.39276361E+01
 21
-7.30879075E+01
  0
LINE
  8
0
 62
4
 10
-1.03927636E+02
 20
-4.42122434E+00
 11
-8.39276361E+01
 21
-4.42122434E+00
  0
LINE
  8
0
 62
4
 10
-8.49276266E+01
 20
-3.42121942E+00
 11
-8.39276256E+01
 21
-4.42122057E+00
  0
LINE
  8
0
 62
4
 10
-1.03927636E+02
 20
-4.42122434E+00
 11
-1.03927636E+02
 21
-9.42122434E+00
  0
LINE
  8
0
 62
4
 10
-1.02927636E+02
 20
-3.42122434E+00
 11
-8.49276361E+01
 21
-3.42122434E+00
  0
LINE
  8
0
 62
4
 10
-1.03927636E+02
 20
-7.04212224E+01
 11
-8.39276361E+01
 21
-7.04212224E+01
  0
LINE
  8
0
 62
4
 10
-1.13927636E+02
 20
-6.54212224E+01
 11
-7.39276285E+01
 21
-6.54212224E+01
  0
LINE
  8
0
 62
4
 10
-8.39276361E+01
 20
-2.34212243E+01
 11
-8.39276361E+01
 21
-5.14212243E+01
  0
LINE
  8
0
 62
4
 10
-8.39276361E+01
 20
-2.44212243E+01
 11
-7.39276285E+01
 21
-2.44212243E+01
  0
LINE
  8
0
 62
4
 10
-1.13927636E+02
 20
-9.42122434E+00
 11
-7.39276285E+01
 21
-9.42122434E+00
  0
LINE
  8
0
 62
4
 10
-7.39276285E+01
 20
-9.42122434E+00
 11
-7.39276285E+01
 21
-6.54212224E+01
  0
LINE
  8
0
 62
4
 10
-1.13927636E+02
 20
-9.42122434E+00
 11
-1.13927636E+02
 21
-6.54212224E+01
  0
LINE
  8
0
 62
4
 10
-1.13927636E+02
 20
-5.04212243E+01
 11
-1.03927636E+02
 21
-5.04212243E+01
  0
LINE
  8
0
 62
4
 10
-8.39276361E+01
 20
-4.42122434E+00
 11
-8.39276361E+01
 21
-9.42122434E+00
  0
LINE
  8
0
 62
4
 10
-1.03927628E+02
 20
-7.04212276E+01
 11
-1.02927627E+02
 21
-7.14212286E+01
  0
LINE
  8
0
 62
4
 10
-1.02927636E+02
 20
-7.14212224E+01
 11
-8.49276361E+01
 21
-7.14212224E+01
  0
LINE
  8
0
 62
4
 10
-8.49276286E+01
 20
-7.14212279E+01
 11
-8.39276276E+01
 21
-7.04212267E+01
  0
LINE
  8
0
 62
4
 10
-1.02927635E+02
 20
-3.42121294E+00
 11
-1.03927636E+02
 21
-4.42121408E+00
  0
LINE
  8
0
 62
4
 10
-1.13927636E+02
 20
-2.34212243E+01
 11
-7.39276285E+01
 21
-2.34212243E+01
  0
LINE
  8
0
 62
4
 10
-1.13927636E+02
 20
-5.14212243E+01
 11
-7.39276285E+01
 21
-5.14212243E+01
  0
LINE
  8
0
 62
4
 10
-8.39276361E+01
 20
-6.54212224E+01
 11
-8.39276361E+01
 21
-7.04212224E+01
  0
LINE
  8
0
 62
4
 10
-1.03927636E+02
 20
-2.34212243E+01
 11
-1.03927636E+02
 21
-5.14212243E+01
  0
LINE
  8
0
 62
4
 10
-1.03927636E+02
 20
-6.54212224E+01
 11
-1.03927636E+02
 21
-7.04212224E+01
  0
LINE
  8
0
 62
4
 10
-8.39276361E+01
 20
-5.04212243E+01
 11
-7.39276285E+01
 21
-5.04212243E+01
  0
LINE
  8
0
 62
4
 10
-1.13927636E+02
 20
-2.44212243E+01
 11
-1.03927636E+02
 21
-2.44212243E+01
  0
LINE
  8
0
  6
CENTER
 62
6
 10
-1.24392724E+02
 20
-3.74212243E+01
 11
-6.64090738E+01
 21
-3.74212243E+01
  0
ARC
  8
0
 62
4
 10
2.40916586E+01
 20
8.21224768E+01
 40
3.00000000E+00
 50
1.38958724E+02
 51
1.73345775E+02
  0
ARC
  8
0
 62
4
 10
1.96416464E+01
 20
8.59964392E+01
 40
2.89999962E+00
 50
3.18958725E+02
 51
2.21041232E+02
  0
ARC
  8
0
 62
4
 10
1.96416464E+01
 20
8.59964392E+01
 40
1.59999943E+00
 50
3.10705552E+02
 51
2.29294314E+02
  0
ARC
  8
0
 62
4
 10
2.26416464E+01
 20
8.25093177E+01
 40
3.00000000E+00
 50
1.30705779E+02
 51
1.79999964E+02
  0
ARC
  8
0
 62
4
 10
1.66416464E+01
 20
8.25093177E+01
 40
3.00000000E+00
 50
0.00000000E+00
 51
4.92941583E+01
  0
ARC
  8
0
 62
4
 10
1.51916342E+01
 20
8.21224768E+01
 40
3.00000000E+00
 50
6.65420595E+00
 51
4.10412714E+01
  0
CIRCLE
  8
0
 62
4
 10
1.96416464E+01
 20
7.25787757E+01
 40
9.00000000E+00
  0
ARC
  8
0
 62
4
 10
1.96416464E+01
 20
7.25787757E+01
 40
2.00000000E+01
 50
8.99999956E+01
 51
2.70000001E+02
  0
CIRCLE
  8
0
 62
4
 10
1.96416464E+01
 20
7.25787757E+01
 40
1.00000000E+01
  0
LINE
  8
0
 62
4
 10
1.96416464E+01
 20
6.25787757E+01
 11
1.96416464E+01
 21
5.55521643E+01
  0
LINE
  8
0
 62
4
 10
2.03667376E+01
 20
5.74964323E+01
 11
2.10917285E+01
 21
5.87521533E+01
  0
LINE
  8
0
 62
4
 10
1.96416708E+01
 20
5.87521868E+01
 11
2.03666770E+01
 21
5.74964394E+01
  0
LINE
  8
0
 62
4
 10
1.89166499E+01
 20
5.42964527E+01
 11
1.96416561E+01
 21
5.55522001E+01
  0
LINE
  8
0
 62
4
 10
1.81916722E+01
 20
5.55521713E+01
 11
1.89166631E+01
 21
5.42964504E+01
  0
LINE
  8
0
 62
4
 10
1.81916342E+01
 20
6.26844580E+01
 11
1.81916342E+01
 21
5.55521643E+01
  0
LINE
  8
0
 62
4
 10
2.10916586E+01
 20
6.26844580E+01
 11
2.10916586E+01
 21
5.87521460E+01
  0
LINE
  8
0
 62
4
 10
9.36416485E+01
 20
5.25787765E+01
 11
9.46416496E+01
 21
5.35787776E+01
  0
LINE
  8
0
 62
4
 10
9.46416480E+01
 20
9.15787764E+01
 11
9.36416468E+01
 21
9.25787775E+01
  0
LINE
  8
0
  6
CENTER
 62
6
 10
-5.82075591E+00
 20
7.25787757E+01
 11
9.94612799E+01
 21
7.25787757E+01
  0
LINE
  8
0
  6
CENTER
 62
6
 10
1.96416464E+01
 20
1.00134562E+02
 11
1.96416464E+01
 21
4.74935401E+01
  0
LINE
  8
0
 62
4
 10
9.46416464E+01
 20
9.15787757E+01
 11
9.46416464E+01
 21
5.35787757E+01
  0
LINE
  8
0
 62
4
 10
1.96416464E+01
 20
5.25787757E+01
 11
9.36416464E+01
 21
5.25787757E+01
  0
LINE
  8
0
 62
4
 10
1.96416464E+01
 20
9.25787757E+01
 11
9.36416464E+01
 21
9.25787757E+01
  0
LINE
  8
0
 62
4
 10
6.11416464E+01
 20
9.25787757E+01
 11
6.11416464E+01
 21
5.25787757E+01
  0
TEXT
  8
0
 62
7
 10
-1.89357136E+02
 20
1.22850006E+02
 40
4.50000000E+00
  1
NEW DYNA CYLINDER
 41
1.07594914E+00
  7
MONOTXT
  0
TEXT
  8
0
 62
7
 10
-1.85214688E+02
 20
1.05350006E+02
 40
4.50000000E+00
  1
MODEL:DDA100-Y
 41
1.00000000E+00
  7
MONOTXT
  0
LINE
  8
0
 62
7
 10
-1.94250000E+02
 20
1.32600006E+02
 11
1.94800003E+02
 21
1.32600006E+02
  0
LINE
  8
0
 62
7
 10
1.94800003E+02
 20
1.32600006E+02
 11
1.94800003E+02
 21
-1.33500000E+02
  0
LINE
  8
0
 62
7
 10
-1.94250000E+02
 20
1.32600006E+02
 11
-1.94250000E+02
 21
-1.33500000E+02
  0
LINE
  8
0
 62
7
 10
-1.94250000E+02
 20
-1.33500000E+02
 11
1.94800003E+02
 21
-1.33500000E+02
  0
LINE
  8
0
 62
7
 10
1.09800003E+02
 20
-1.18500000E+02
 11
1.09800003E+02
 21
-1.33500000E+02
  0
LINE
  8
0
 62
7
 10
1.09800003E+02
 20
-1.18500000E+02
 11
1.94800003E+02
 21
-1.18500000E+02
  0
LINE
  8
0
 62
7
 10
1.09800003E+02
 20
1.32600006E+02
 11
1.09800003E+02
 21
1.17600006E+02
  0
LINE
  8
0
 62
7
 10
1.09800003E+02
 20
1.17600006E+02
 11
1.94800003E+02
 21
1.17600006E+02
  0
LINE
  8
0
 62
7
 10
-1.94250000E+02
 20
1.17600006E+02
 11
-1.09250000E+02
 21
1.17600006E+02
  0
LINE
  8
0
 62
7
 10
-1.09250000E+02
 20
1.32600006E+02
 11
-1.09250000E+02
 21
1.17600006E+02
  0
TEXT
  8
0
 62
7
 10
1.34942863E+02
 20
1.22850006E+02
 40
4.50000000E+00
  1
Ver. 1.0
 41
1.08108085E+00
  7
MONOTXT
  0
TEXT
  8
0
 62
7
 10
1.15249715E+02
 20
-1.29150000E+02
 40
6.30000019E+00
  1
KOGANEI CORP.
 41
1.04838725E+00
  7
MONOTXT
  0
ENDSEC
  0
EOF
