  0
SECTION
  2
HEADER
  9
$ACADVER
  1
AC1003
  9
$EXTMIN
 10
-1.94250000E+02
 20
-1.33500000E+02
  9
$EXTMAX
 10
1.94800003E+02
 20
1.32600006E+02
  9
$LIMMIN
 10
-1.94251000E+02
 20
-1.33501000E+02
  9
$LIMMAX
 10
1.94801003E+02
 20
1.32601006E+02
  9
$SNAPUNIT
 10
1
 20
1
  9
$SNAPBASE
 10
0
 20
0
  9
$GRIDMODE
 70
0
  9
$GRIDUNIT
 10
0
 20
0
  9
$LTSCALE
 40
6.48416672E+00
  9
$TEXTSIZE
 40
3.2
  9
$DIMTAD
 70
0
  9
$LUNITS
 70
2
  9
$LUPREC
 70
4
  9
$FILLETRAD
 40
0
  9
$AUNITS
 70
0
  9
$AUPREC
 70
0
  0
ENDSEC
  0
SECTION
  2
TABLES
  0
TABLE
  2
LTYPE
 70
2
  0
LTYPE
  2
CONTINUOUS
 70
64
  3
Solid-Line
 72
65
 73
0
 40
0
  0
LTYPE
  2
DASHED
 70
64
  3
DASHED
 72
65
 73
2
 40
.75
 49
.5
 49
-.25
  0
LTYPE
  2
HIDDEN
 70
64
  3
HIDDEN
 72
65
 73
2
 40
.375
 49
.25
 49
-.125
  0
LTYPE
  2
CENTER
 70
64
  3
CENTER
 72
65
 73
4
 40
2
 49
1.25
 49
-.25
 49
.25
 49
-.25
  0
LTYPE
  2
PHANTOM
 70
64
  3
PHANTOM
 72
65
 73
6
 40
2.5
 49
1.25
 49
-.25
 49
.25
 49
-.25
 49
.25
 49
-.25
  0
ENDTAB
  0
TABLE
  2
LAYER
 70
1
  0
LAYER
  2
1
 70
0
 62
7
  6
CONTINUOUS
 0
ENDTAB
  0
TABLE
  2
STYLE
 70
2
  0
STYLE
  2
MONOTXT
 70
0
 40
0
 41
1
 50
0
 71
0
 42
.2
  3
monotxt
  0
STYLE
  2
BIGFONT
 70
0
 40
0
 41
1
 50
0
 71
0
 42
.2
  3
txt
  4
bigfont
  0
ENDTAB
  0
ENDSEC
  0
SECTION
  2
ENTITIES
  0
LINE
  8
0
 62
4
 10
2.98820255E+01
 20
-3.29511158E+01
 11
7.88820217E+01
 21
-3.29511158E+01
  0
LINE
  8
0
 62
4
 10
2.98820255E+01
 20
-7.29511158E+01
 11
7.88820217E+01
 21
-7.29511158E+01
  0
LINE
  8
0
 62
4
 10
2.98820255E+01
 20
-7.29511158E+01
 11
2.98820255E+01
 21
-6.69511158E+01
  0
LINE
  8
0
 62
4
 10
-9.40083425E+00
 20
-6.69511158E+01
 11
2.98820255E+01
 21
-6.69511158E+01
  0
LINE
  8
0
 62
4
 10
-9.40083425E+00
 20
-3.89511158E+01
 11
2.98820255E+01
 21
-3.89511158E+01
  0
LINE
  8
0
 62
4
 10
7.98820255E+01
 20
-7.19511158E+01
 11
7.98820255E+01
 21
-3.39511158E+01
  0
LINE
  8
0
 62
4
 10
7.88820173E+01
 20
-7.29511169E+01
 11
7.98820184E+01
 21
-7.19511157E+01
  0
LINE
  8
0
 62
4
 10
-5.11797933E+00
 20
-6.64511163E+01
 11
-5.61797990E+00
 21
-6.69511168E+01
  0
LINE
  8
0
  6
CENTER
 62
6
 10
-2.05803692E+01
 20
-5.29511158E+01
 11
8.47016590E+01
 21
-5.29511158E+01
  0
LINE
  8
0
  6
CENTER
 62
6
 10
4.88201792E+00
 20
-7.03712360E+01
 11
4.88201792E+00
 21
-3.89511158E+01
  0
LINE
  8
0
 62
4
 10
2.98820255E+01
 20
-3.89511158E+01
 11
2.98820255E+01
 21
-3.29511158E+01
  0
LINE
  8
0
 62
4
 10
7.88820271E+01
 20
-3.29511139E+01
 11
7.98820255E+01
 21
-3.39511123E+01
  0
ARC
  8
0
 62
4
 10
4.88201792E+00
 20
-5.29511158E+01
 40
2.00000000E+01
 50
1.35572998E+02
 51
2.24426970E+02
  0
LINE
  8
0
  6
CENTER
 62
6
 10
-7.75622112E+01
 20
-5.29511182E+01
 11
-1.29136583E+02
 21
-5.29511137E+01
  0
LINE
  8
0
 62
4
 10
-9.08351311E+01
 20
-6.69511170E+01
 11
-1.19400835E+02
 21
-6.69511145E+01
  0
LINE
  8
0
 62
4
 10
-9.08351287E+01
 20
-3.89511018E+01
 11
-1.19400833E+02
 21
-3.89510993E+01
  0
LINE
  8
0
  6
CENTER
 62
6
 10
-1.05117984E+02
 20
-7.54511158E+01
 11
-1.05117980E+02
 21
-3.04511158E+01
  0
ARC
  8
0
 62
4
 10
-1.05117982E+02
 20
-5.29511158E+01
 40
2.00000000E+01
 50
3.59999986E+02
 51
1.80000000E+02
  0
ARC
  8
0
 62
4
 10
-1.05117982E+02
 20
-5.29511158E+01
 40
2.00000000E+01
 50
1.79999990E+02
 51
0.00000000E+00
  0
LINE
  8
0
 62
4
 10
2.98820255E+01
 20
4.77660321E+01
 11
2.98820255E+01
 21
7.63317364E+01
  0
LINE
  8
0
 62
4
 10
4.88201792E+00
 20
4.20488842E+01
 11
7.88820217E+01
 21
4.20488842E+01
  0
LINE
  8
0
 62
4
 10
4.88201792E+00
 20
8.20488842E+01
 11
7.88820217E+01
 21
8.20488842E+01
  0
LINE
  8
0
 62
4
 10
7.98820255E+01
 20
4.30488842E+01
 11
7.98820255E+01
 21
8.10488842E+01
  0
LINE
  8
0
  6
CENTER
 62
6
 10
-2.05803692E+01
 20
6.20488842E+01
 11
8.47016590E+01
 21
6.20488842E+01
  0
LINE
  8
0
 62
4
 10
4.87556345E+00
 20
4.77660321E+01
 11
2.98820255E+01
 21
4.77660321E+01
  0
LINE
  8
0
 62
4
 10
7.98820253E+01
 20
4.30488854E+01
 11
7.88820242E+01
 21
4.20488843E+01
  0
LINE
  8
0
 62
4
 10
7.88820259E+01
 20
8.20488853E+01
 11
7.98820215E+01
 21
8.10488895E+01
  0
LINE
  8
0
 62
4
 10
4.87556345E+00
 20
7.63317364E+01
 11
2.98820255E+01
 21
7.63317364E+01
  0
CIRCLE
  8
0
 62
4
 10
4.88201792E+00
 20
6.20488842E+01
 40
1.00000000E+01
  0
ARC
  8
0
 62
4
 10
4.88201792E+00
 20
6.20488842E+01
 40
2.00000000E+01
 50
9.00000025E+01
 51
2.70000001E+02
  0
ARC
  8
0
 62
4
 10
4.88201792E+00
 20
6.20488842E+01
 40
1.42828579E+01
 50
9.00000025E+01
 51
2.70025928E+02
  0
LINE
  8
0
  6
CENTER
 62
6
 10
4.88201792E+00
 20
3.44931134E+01
 11
4.88201792E+00
 21
8.60674847E+01
  0
TEXT
  8
0
 62
7
 10
-1.89357136E+02
 20
1.22850006E+02
 40
4.50000000E+00
  1
NEW DYNA CYLINDER
 41
1.07594914E+00
  7
MONOTXT
  0
TEXT
  8
0
 62
7
 10
-1.85214688E+02
 20
1.05350006E+02
 40
4.50000000E+00
  1
MODEL:DDA100-I
 41
1.00000000E+00
  7
MONOTXT
  0
LINE
  8
0
 62
7
 10
-1.94250000E+02
 20
1.32600006E+02
 11
1.94800003E+02
 21
1.32600006E+02
  0
LINE
  8
0
 62
7
 10
1.94800003E+02
 20
1.32600006E+02
 11
1.94800003E+02
 21
-1.33500000E+02
  0
LINE
  8
0
 62
7
 10
-1.94250000E+02
 20
1.32600006E+02
 11
-1.94250000E+02
 21
-1.33500000E+02
  0
LINE
  8
0
 62
7
 10
-1.94250000E+02
 20
-1.33500000E+02
 11
1.94800003E+02
 21
-1.33500000E+02
  0
LINE
  8
0
 62
7
 10
1.09800003E+02
 20
-1.18500000E+02
 11
1.09800003E+02
 21
-1.33500000E+02
  0
LINE
  8
0
 62
7
 10
1.09800003E+02
 20
-1.18500000E+02
 11
1.94800003E+02
 21
-1.18500000E+02
  0
LINE
  8
0
 62
7
 10
1.09800003E+02
 20
1.32600006E+02
 11
1.09800003E+02
 21
1.17600006E+02
  0
LINE
  8
0
 62
7
 10
1.09800003E+02
 20
1.17600006E+02
 11
1.94800003E+02
 21
1.17600006E+02
  0
LINE
  8
0
 62
7
 10
-1.94250000E+02
 20
1.17600006E+02
 11
-1.09250000E+02
 21
1.17600006E+02
  0
LINE
  8
0
 62
7
 10
-1.09250000E+02
 20
1.32600006E+02
 11
-1.09250000E+02
 21
1.17600006E+02
  0
TEXT
  8
0
 62
7
 10
1.34942863E+02
 20
1.22850006E+02
 40
4.50000000E+00
  1
Ver. 1.0
 41
1.08108085E+00
  7
MONOTXT
  0
TEXT
  8
0
 62
7
 10
1.15249715E+02
 20
-1.29150000E+02
 40
6.30000019E+00
  1
KOGANEI CORP.
 41
1.04838725E+00
  7
MONOTXT
  0
ENDSEC
  0
EOF
