  0
SECTION
  2
HEADER
  9
$ACADVER
  1
AC1003
  9
$EXTMIN
 10
-2.81250000E+02
 20
-6.81320229E+02
  9
$EXTMAX
 10
5.22260841E+02
 20
3.95755370E+02
  9
$LIMMIN
 10
-2.81251000E+02
 20
-6.81321229E+02
  9
$LIMMAX
 10
5.22261841E+02
 20
3.95756370E+02
  9
$SNAPUNIT
 10
1
 20
1
  9
$SNAPBASE
 10
0
 20
0
  9
$GRIDMODE
 70
0
  9
$GRIDUNIT
 10
0
 20
0
  9
$LTSCALE
 40
1.79512600E+01
  9
$TEXTSIZE
 40
3.2
  9
$DIMTAD
 70
0
  9
$LUNITS
 70
2
  9
$LUPREC
 70
4
  9
$FILLETRAD
 40
0
  9
$AUNITS
 70
0
  9
$AUPREC
 70
0
  0
ENDSEC
  0
SECTION
  2
TABLES
  0
TABLE
  2
LTYPE
 70
2
  0
LTYPE
  2
CONTINUOUS
 70
64
  3
Solid-Line
 72
65
 73
0
 40
0
  0
LTYPE
  2
DASHED
 70
64
  3
DASHED
 72
65
 73
2
 40
.75
 49
.5
 49
-.25
  0
LTYPE
  2
HIDDEN
 70
64
  3
HIDDEN
 72
65
 73
2
 40
.375
 49
.25
 49
-.125
  0
LTYPE
  2
CENTER
 70
64
  3
CENTER
 72
65
 73
4
 40
2
 49
1.25
 49
-.25
 49
.25
 49
-.25
  0
LTYPE
  2
PHANTOM
 70
64
  3
PHANTOM
 72
65
 73
6
 40
2.5
 49
1.25
 49
-.25
 49
.25
 49
-.25
 49
.25
 49
-.25
  0
ENDTAB
  0
TABLE
  2
LAYER
 70
1
  0
LAYER
  2
1
 70
0
 62
7
  6
CONTINUOUS
 0
ENDTAB
  0
TABLE
  2
STYLE
 70
2
  0
STYLE
  2
MONOTXT
 70
0
 40
0
 41
1
 50
0
 71
0
 42
.2
  3
monotxt
  0
STYLE
  2
BIGFONT
 70
0
 40
0
 41
1
 50
0
 71
0
 42
.2
  3
txt
  4
bigfont
  0
ENDTAB
  0
ENDSEC
  0
SECTION
  2
ENTITIES
  0
LINE
  8
0
 62
4
 10
-8.02500000E+01
 20
-1.50000004E+02
 11
1.67500000E+01
 21
-1.50000004E+02
  0
LINE
  8
0
 62
4
 10
1.72500153E+01
 20
-1.49500004E+02
 11
1.72500153E+01
 21
-1.40000000E+02
  0
LINE
  8
0
 62
4
 10
-8.07500000E+01
 20
-1.49500004E+02
 11
-8.07500000E+01
 21
-1.39708191E+02
  0
LINE
  8
0
 62
4
 10
-7.97901917E+01
 20
-1.38000000E+02
 11
1.52500153E+01
 21
-1.38000000E+02
  0
LINE
  8
0
 62
4
 10
-4.82500000E+01
 20
-8.17974972E+01
 11
1.65667910E+01
 21
-1.38494638E+02
  0
LINE
  8
0
  6
CENTER
 62
6
 10
-6.42500000E+01
 20
-1.54250011E+02
 11
-6.42500000E+01
 21
-1.34250000E+02
  0
LINE
  8
0
  6
CENTER
 62
6
 10
7.50000000E-01
 20
-1.54250011E+02
 11
7.50000000E-01
 21
-1.34250000E+02
  0
LINE
  8
0
 62
4
 10
-8.07500014E+01
 20
-1.49499993E+02
 11
-8.02500119E+01
 21
-1.49999983E+02
  0
LINE
  8
0
 62
4
 10
1.72500030E+01
 20
-1.49499992E+02
 11
1.67500007E+01
 21
-1.49999990E+02
  0
LINE
  8
0
 62
4
 10
-7.57500000E+01
 20
-1.13145905E+02
 11
-7.57500000E+01
 21
-1.33000000E+02
  0
ARC
  8
0
 62
4
 10
-8.76639099E+01
 20
-1.16277649E+02
 40
1.23186445E+01
 50
1.47278345E+01
 51
2.19759916E+01
  0
ARC
  8
0
 62
4
 10
-8.07500000E+01
 20
-1.33000000E+02
 40
5.00000000E+00
 50
2.86601585E+02
 51
0.00000000E+00
  0
ARC
  8
0
 62
4
 10
-7.87500000E+01
 20
-1.39708191E+02
 40
2.00000000E+00
 50
1.06601549E+02
 51
1.79999964E+02
  0
ARC
  8
0
 62
4
 10
1.52500153E+01
 20
-1.40000000E+02
 40
2.00000000E+00
 50
3.59721781E-05
 51
8.99999818E+01
  0
CIRCLE
  8
0
 62
4
 10
-6.92500000E+01
 20
-9.00000000E+01
 40
1.00000000E+01
  0
CIRCLE
  8
0
 62
4
 10
-6.92500000E+01
 20
-9.00000000E+01
 40
9.00000000E+00
  0
ARC
  8
0
 62
4
 10
-8.42500000E+01
 20
-1.18534584E+02
 40
6.00000000E+00
 50
9.59467068E+01
 51
1.79999855E+02
  0
ARC
  8
0
 62
4
 10
-6.02500000E+01
 20
-9.79372635E+01
 40
1.20000000E+01
 50
2.75946708E+02
 51
0.00000000E+00
  0
ARC
  8
0
 62
4
 10
-8.42500000E+01
 20
-6.14654236E+01
 40
6.00000000E+00
 50
1.80000145E+02
 51
2.64053293E+02
  0
ARC
  8
0
 62
4
 10
-9.22500000E+01
 20
-3.70000000E+01
 40
2.00000000E+00
 50
0.00000000E+00
 51
8.99999818E+01
  0
ARC
  8
0
 62
4
 10
-9.22500000E+01
 20
-1.43000008E+02
 40
2.00000000E+00
 50
2.70000018E+02
 51
0.00000000E+00
  0
ARC
  8
0
 62
4
 10
-6.02500000E+01
 20
-8.20627441E+01
 40
1.20000000E+01
 50
0.00000000E+00
 51
8.40532913E+01
  0
LINE
  8
0
 62
4
 10
-1.01250000E+02
 20
-1.45000008E+02
 11
-9.22500000E+01
 21
-1.45000008E+02
  0
LINE
  8
0
 62
4
 10
-1.01250000E+02
 20
-3.50000000E+01
 11
-9.22500000E+01
 21
-3.50000000E+01
  0
LINE
  8
0
 62
4
 10
-8.48716246E+01
 20
-6.74331555E+01
 11
-5.90067725E+01
 21
-7.01273404E+01
  0
LINE
  8
0
 62
4
 10
-4.82500000E+01
 20
-8.20627441E+01
 11
-4.82500000E+01
 21
-9.79372635E+01
  0
LINE
  8
0
  6
CENTER
 62
6
 10
-6.92500000E+01
 20
-7.41024323E+01
 11
-6.92500000E+01
 21
-1.07670540E+02
  0
LINE
  8
0
 62
4
 10
-9.02500000E+01
 20
-3.70000000E+01
 11
-9.02500000E+01
 21
-1.43000008E+02
  0
LINE
  8
0
 62
4
 10
-8.48716211E+01
 20
-1.12566859E+02
 11
-5.90067387E+01
 21
-1.09872671E+02
  0
LINE
  8
0
  6
CENTER
 62
6
 10
-8.09171143E+01
 20
-4.79999695E+01
 11
-1.08078918E+02
 21
-4.79999695E+01
  0
LINE
  8
0
 62
4
 10
-1.01250000E+02
 20
-1.44880257E+02
 11
-1.01250000E+02
 21
-3.51197510E+01
  0
LINE
  8
0
  6
CENTER
 62
6
 10
-8.09171143E+01
 20
-1.32000008E+02
 11
-1.08078918E+02
 21
-1.32000008E+02
  0
LINE
  8
0
  6
CENTER
 62
6
 10
-1.15445129E+02
 20
-9.00000000E+01
 11
-4.26570129E+01
 21
-9.00000000E+01
  0
LINE
  8
0
 62
4
 10
1.22750000E+02
 20
-1.18500008E+02
 11
1.25250000E+02
 21
-1.18500008E+02
  0
LINE
  8
0
 62
4
 10
7.52500004E+01
 20
-1.00000000E+02
 11
7.07500000E+01
 21
-1.00000000E+02
  0
LINE
  8
0
 62
4
 10
7.52500004E+01
 20
-8.00000000E+01
 11
7.07500000E+01
 21
-8.00000000E+01
  0
LINE
  8
0
 62
4
 10
1.46749998E+02
 20
-1.00000000E+02
 11
1.42250000E+02
 21
-1.00000000E+02
  0
LINE
  8
0
 62
4
 10
6.97499886E+01
 20
-9.89999991E+01
 11
7.07499897E+01
 21
-1.00000000E+02
  0
LINE
  8
0
 62
4
 10
1.47750004E+02
 20
-8.09999925E+01
 11
1.46750002E+02
 21
-7.99999915E+01
  0
LINE
  8
0
 62
4
 10
1.47749998E+02
 20
-9.90000000E+01
 11
1.47749998E+02
 21
-8.10000000E+01
  0
LINE
  8
0
 62
4
 10
1.46750003E+02
 20
-9.99999920E+01
 11
1.47750004E+02
 21
-9.89999908E+01
  0
LINE
  8
0
 62
4
 10
1.46749998E+02
 20
-8.00000000E+01
 11
1.42250000E+02
 21
-8.00000000E+01
  0
LINE
  8
0
 62
4
 10
1.46749998E+02
 20
-1.00000000E+02
 11
1.46749998E+02
 21
-8.00000000E+01
  0
LINE
  8
0
 62
4
 10
6.97500000E+01
 20
-9.90000000E+01
 11
6.97500000E+01
 21
-8.10000000E+01
  0
LINE
  8
0
 62
4
 10
6.97499951E+01
 20
-8.09999905E+01
 11
7.07499962E+01
 21
-7.99999895E+01
  0
LINE
  8
0
 62
4
 10
7.07500000E+01
 20
-1.00000000E+02
 11
7.07500000E+01
 21
-8.00000000E+01
  0
LINE
  8
0
  6
CENTER
 62
6
 10
4.57643398E+01
 20
-9.00000000E+01
 11
1.71352173E+02
 21
-9.00000000E+01
  0
LINE
  8
0
  6
CENTER
 62
6
 10
1.08750000E+02
 20
-2.30000000E+01
 11
1.08750000E+02
 21
-1.57000008E+02
  0
CIRCLE
  8
0
 62
4
 10
1.50750000E+02
 20
-1.32000008E+02
 40
4.84999990E+00
  0
CIRCLE
  8
0
 62
4
 10
1.50750000E+02
 20
-4.80000000E+01
 40
4.84999990E+00
  0
CIRCLE
  8
0
 62
4
 10
6.67500004E+01
 20
-4.80000000E+01
 40
4.84999990E+00
  0
CIRCLE
  8
0
 62
4
 10
6.67500004E+01
 20
-1.32000008E+02
 40
4.84999990E+00
  0
ARC
  8
0
 62
4
 10
1.25250000E+02
 20
-1.14794701E+02
 40
2.00000000E+00
 50
0.00000000E+00
 51
8.99999818E+01
  0
ARC
  8
0
 62
4
 10
1.25250000E+02
 20
-6.52053223E+01
 40
2.00000000E+00
 50
2.70000018E+02
 51
0.00000000E+00
  0
ARC
  8
0
 62
4
 10
9.22500004E+01
 20
-6.52053223E+01
 40
2.00000000E+00
 50
1.79999964E+02
 51
2.70000001E+02
  0
ARC
  8
0
 62
4
 10
9.22500004E+01
 20
-1.14794701E+02
 40
2.00000000E+00
 50
8.99999818E+01
 51
1.79999964E+02
  0
ARC
  8
0
 62
4
 10
1.25250000E+02
 20
-1.16500008E+02
 40
2.00000000E+00
 50
2.70000018E+02
 51
0.00000000E+00
  0
ARC
  8
0
 62
4
 10
9.22500004E+01
 20
-1.16500008E+02
 40
2.00000000E+00
 50
1.79999964E+02
 51
2.70000001E+02
  0
ARC
  8
0
 62
4
 10
1.25250000E+02
 20
-6.35000000E+01
 40
2.00000000E+00
 50
0.00000000E+00
 51
8.99999818E+01
  0
ARC
  8
0
 62
4
 10
9.22500004E+01
 20
-6.35000000E+01
 40
2.00000000E+00
 50
8.99999818E+01
 51
1.79999964E+02
  0
ARC
  8
0
 62
4
 10
6.67500004E+01
 20
-1.32000008E+02
 40
1.30000000E+01
 50
1.79999964E+02
 51
2.07485441E+02
  0
ARC
  8
0
 62
4
 10
1.50750000E+02
 20
-1.32000008E+02
 40
1.30000000E+01
 50
3.32514559E+02
 51
0.00000000E+00
  0
ARC
  8
0
 62
4
 10
1.50750000E+02
 20
-4.80000000E+01
 40
1.30000000E+01
 50
0.00000000E+00
 51
8.99999818E+01
  0
ARC
  8
0
 62
4
 10
6.67500004E+01
 20
-4.80000000E+01
 40
1.30000000E+01
 50
8.99999818E+01
 51
1.79999964E+02
  0
LINE
  8
0
 62
4
 10
1.42250000E+02
 20
-6.15000000E+01
 11
1.42250000E+02
 21
-1.18500008E+02
  0
LINE
  8
0
 62
4
 10
7.52500004E+01
 20
-6.15000000E+01
 11
7.52500004E+01
 21
-1.18500008E+02
  0
LINE
  8
0
 62
4
 10
1.24750000E+02
 20
-6.72053223E+01
 11
1.25250000E+02
 21
-6.72053223E+01
  0
LINE
  8
0
 62
4
 10
1.24750000E+02
 20
-1.12794701E+02
 11
1.25250000E+02
 21
-1.12794701E+02
  0
LINE
  8
0
 62
4
 10
9.22500004E+01
 20
-1.18500008E+02
 11
9.47500000E+01
 21
-1.18500008E+02
  0
LINE
  8
0
 62
4
 10
9.22500004E+01
 20
-1.12794701E+02
 11
9.27500004E+01
 21
-1.12794701E+02
  0
LINE
  8
0
 62
4
 10
9.22500004E+01
 20
-6.15000000E+01
 11
1.25250000E+02
 21
-6.15000000E+01
  0
LINE
  8
0
 62
4
 10
9.22500004E+01
 20
-6.72053223E+01
 11
9.27500004E+01
 21
-6.72053223E+01
  0
LINE
  8
0
 62
4
 10
5.37500004E+01
 20
-4.80000000E+01
 11
5.37500004E+01
 21
-1.32000008E+02
  0
LINE
  8
0
 62
4
 10
1.63750000E+02
 20
-4.80000000E+01
 11
1.63750000E+02
 21
-1.32000008E+02
  0
LINE
  8
0
 62
4
 10
1.27250000E+02
 20
-6.35000000E+01
 11
1.27250000E+02
 21
-6.52053223E+01
  0
LINE
  8
0
 62
4
 10
6.67500004E+01
 20
-3.50000000E+01
 11
1.50750000E+02
 21
-3.50000000E+01
  0
LINE
  8
0
  6
CENTER
 62
6
 10
1.50750000E+02
 20
-1.20686806E+02
 11
1.50750000E+02
 21
-1.46000008E+02
  0
LINE
  8
0
  6
CENTER
 62
6
 10
6.67500004E+01
 20
-1.22000008E+02
 11
6.67500004E+01
 21
-1.46000008E+02
  0
LINE
  8
0
 62
4
 10
1.27250000E+02
 20
-1.14794701E+02
 11
1.27250000E+02
 21
-1.16500008E+02
  0
LINE
  8
0
 62
4
 10
7.52500004E+01
 20
-6.65000000E+01
 11
9.07255863E+01
 21
-6.65000000E+01
  0
LINE
  8
0
 62
4
 10
7.52500004E+01
 20
-1.13500008E+02
 11
9.07255863E+01
 21
-1.13500008E+02
  0
LINE
  8
0
 62
4
 10
1.26774414E+02
 20
-6.65000000E+01
 11
1.42250000E+02
 21
-6.65000000E+01
  0
LINE
  8
0
 62
4
 10
1.26774414E+02
 20
-1.13500008E+02
 11
1.42250000E+02
 21
-1.13500008E+02
  0
LINE
  8
0
  6
CENTER
 62
6
 10
5.27500004E+01
 20
-4.80000000E+01
 11
7.65351566E+01
 21
-4.80000000E+01
  0
LINE
  8
0
  6
CENTER
 62
6
 10
5.27500004E+01
 20
-1.32000008E+02
 11
7.67500004E+01
 21
-1.32000008E+02
  0
LINE
  8
0
  6
CENTER
 62
6
 10
1.40750000E+02
 20
-4.80000000E+01
 11
1.64750000E+02
 21
-4.80000000E+01
  0
LINE
  8
0
  6
CENTER
 62
6
 10
1.40750000E+02
 20
-1.32000008E+02
 11
1.64750000E+02
 21
-1.32000008E+02
  0
LINE
  8
0
  6
CENTER
 62
6
 10
1.50750000E+02
 20
-3.40000000E+01
 11
1.50750000E+02
 21
-5.80000000E+01
  0
LINE
  8
0
  6
CENTER
 62
6
 10
6.67500004E+01
 20
-3.40000000E+01
 11
6.67500004E+01
 21
-5.80000000E+01
  0
LINE
  8
0
 62
4
 10
9.02500004E+01
 20
-6.35000000E+01
 11
9.02500004E+01
 21
-6.52053223E+01
  0
LINE
  8
0
 62
4
 10
9.02500004E+01
 20
-1.14794701E+02
 11
9.02500004E+01
 21
-1.16500008E+02
  0
LINE
  8
0
 62
4
 10
1.24750000E+02
 20
-6.72053223E+01
 11
1.24750000E+02
 21
-1.12794701E+02
  0
LINE
  8
0
 62
4
 10
9.27500004E+01
 20
-6.72053223E+01
 11
9.27500004E+01
 21
-1.12794701E+02
  0
LINE
  8
0
 62
4
 10
1.76250000E+02
 20
-1.39999809E+02
 11
1.76250000E+02
 21
-1.49499798E+02
  0
LINE
  8
0
 62
4
 10
1.74250000E+02
 20
-1.37999809E+02
 11
1.32750000E+02
 21
-1.37999809E+02
  0
LINE
  8
0
 62
4
 10
1.22750000E+02
 20
-7.74681931E+01
 11
1.22750000E+02
 21
-1.27999809E+02
  0
LINE
  8
0
 62
4
 10
1.24750000E+02
 20
-7.04192276E+01
 11
1.24750000E+02
 21
-1.09999954E+02
  0
LINE
  8
0
  6
CENTER
 62
6
 10
1.61250000E+02
 20
-1.33999809E+02
 11
1.61250000E+02
 21
-1.53999783E+02
  0
LINE
  8
0
 62
4
 10
1.75749969E+02
 20
-1.49999798E+02
 11
4.17502441E+01
 21
-1.49999798E+02
  0
LINE
  8
0
 62
4
 10
4.12502136E+01
 20
-1.49499783E+02
 11
4.12502136E+01
 21
-1.39999809E+02
  0
LINE
  8
0
 62
4
 10
8.47502136E+01
 20
-1.37999809E+02
 11
4.32502136E+01
 21
-1.37999809E+02
  0
LINE
  8
0
 62
4
 10
9.47500000E+01
 20
-1.27999809E+02
 11
9.47500000E+01
 21
-7.75317154E+01
  0
LINE
  8
0
 62
4
 10
9.27500000E+01
 20
-1.09999954E+02
 11
9.27500000E+01
 21
-7.04192276E+01
  0
LINE
  8
0
  6
CENTER
 62
6
 10
5.62502136E+01
 20
-1.53999783E+02
 11
5.62502136E+01
 21
-1.33999809E+02
  0
LINE
  8
0
 62
4
 10
4.12502141E+01
 20
-1.49499777E+02
 11
4.17502301E+01
 21
-1.49999783E+02
  0
LINE
  8
0
 62
4
 10
1.76249971E+02
 20
-1.49499788E+02
 11
1.75749959E+02
 21
-1.49999793E+02
  0
LINE
  8
0
  6
DASHED
 62
4
 10
4.22502441E+01
 20
-1.38499809E+02
 11
4.22502441E+01
 21
-1.38267761E+02
  0
LINE
  8
0
  6
DASHED
 62
4
 10
1.75250000E+02
 20
-1.38499809E+02
 11
1.75250000E+02
 21
-1.38267761E+02
  0
ARC
  8
0
 62
4
 10
1.74250000E+02
 20
-1.39999809E+02
 40
2.00000000E+00
 50
1.79860890E-05
 51
8.99999274E+01
  0
ARC
  8
0
 62
4
 10
1.32750000E+02
 20
-1.27999840E+02
 40
1.00000000E+01
 50
1.79999964E+02
 51
2.69999946E+02
  0
ARC
  8
0
 62
4
 10
1.25750000E+02
 20
-1.12828415E+02
 40
3.00000000E+00
 50
1.09471267E+02
 51
1.80000019E+02
  0
ARC
  8
0
 62
4
 10
4.32502441E+01
 20
-1.39999809E+02
 40
2.00000000E+00
 50
9.00000913E+01
 51
1.80000019E+02
  0
ARC
  8
0
 62
4
 10
8.47502441E+01
 20
-1.27999840E+02
 40
1.00000000E+01
 50
2.70000018E+02
 51
3.59999946E+02
  0
ARC
  8
0
 62
4
 10
9.17500000E+01
 20
-1.12828415E+02
 40
3.00000000E+00
 50
3.59999963E+02
 51
7.05286970E+01
  0
ARC
  8
0
 62
4
 10
9.17674561E+01
 20
-7.78548813E+01
 40
3.00000000E+00
 50
3.53816123E+02
 51
7.08820842E+01
  0
ARC
  8
0
 62
4
 10
1.25724976E+02
 20
-7.78548813E+01
 40
3.00000000E+00
 50
1.08965368E+02
 51
1.72594249E+02
  0
ARC
  8
0
 62
4
 10
1.08750000E+02
 20
-3.75660194E+02
 40
3.05660034E+02
 50
8.69994391E+01
 51
9.30005595E+01
  0
ARC
  8
0
 62
4
 10
-6.42500002E+01
 20
3.74999999E+01
 40
1.40000000E+01
 50
1.05358886E+02
 51
7.46411142E+01
  0
LINE
  8
0
 62
4
 10
-5.92499999E+01
 20
1.23500000E+02
 11
-5.92499999E+01
 21
1.28000000E+02
  0
LINE
  8
0
 62
4
 10
-7.92499999E+01
 20
1.23500000E+02
 11
-7.92499999E+01
 21
1.28000000E+02
  0
LINE
  8
0
 62
4
 10
-7.82500001E+01
 20
5.09999999E+01
 11
-6.02500001E+01
 21
5.09999999E+01
  0
LINE
  8
0
 62
4
 10
-5.92500001E+01
 20
5.19999999E+01
 11
-5.92500001E+01
 21
5.64999999E+01
  0
LINE
  8
0
 62
4
 10
-7.82499949E+01
 20
1.28999995E+02
 11
-7.92499960E+01
 21
1.27999993E+02
  0
LINE
  8
0
 62
4
 10
-6.02500028E+01
 20
5.10000031E+01
 11
-5.92500017E+01
 21
5.20000043E+01
  0
LINE
  8
0
 62
4
 10
-7.92500022E+01
 20
5.20000035E+01
 11
-7.82500011E+01
 21
5.10000024E+01
  0
LINE
  8
0
 62
4
 10
-7.92500001E+01
 20
5.19999999E+01
 11
-5.92500001E+01
 21
5.19999999E+01
  0
LINE
  8
0
 62
4
 10
-7.82499999E+01
 20
1.29000000E+02
 11
-6.02499999E+01
 21
1.29000000E+02
  0
LINE
  8
0
 62
4
 10
-6.02500026E+01
 20
1.29000005E+02
 11
-5.92500015E+01
 21
1.28000004E+02
  0
LINE
  8
0
 62
4
 10
-7.92499999E+01
 20
1.28000000E+02
 11
-5.92499999E+01
 21
1.28000000E+02
  0
LINE
  8
0
 62
4
 10
-7.92500001E+01
 20
5.19999999E+01
 11
-7.92500001E+01
 21
5.64999999E+01
  0
ARC
  8
0
 62
4
 10
-8.82499999E+01
 20
1.06309875E+02
 40
2.00000000E+00
 50
3.59999709E+02
 51
8.48054863E+01
  0
ARC
  8
0
 62
4
 10
-8.82500001E+01
 20
7.36900634E+01
 40
2.00000000E+00
 50
2.75194459E+02
 51
2.55020846E-04
  0
ARC
  8
0
 62
4
 10
-9.22499998E+01
 20
1.43000000E+02
 40
2.00000000E+00
 50
3.59999982E+02
 51
8.99999274E+01
  0
ARC
  8
0
 62
4
 10
-9.22500002E+01
 20
3.70000000E+01
 40
2.00000000E+00
 50
2.70000018E+02
 51
3.59999982E+02
  0
ARC
  8
0
 62
4
 10
-8.62500001E+01
 20
5.24999999E+01
 40
4.00000000E+00
 50
8.99999274E+01
 51
1.80000005E+02
  0
ARC
  8
0
 62
4
 10
-8.62502440E+01
 20
1.27500000E+02
 40
4.00000000E+00
 50
1.80633044E+02
 51
2.70000018E+02
  0
ARC
  8
0
 62
4
 10
-5.02500001E+01
 20
5.84999998E+01
 40
2.00000000E+00
 50
2.70000018E+02
 51
3.59999982E+02
  0
ARC
  8
0
 62
4
 10
-5.02502440E+01
 20
1.21500000E+02
 40
2.00000000E+00
 50
3.59999982E+02
 51
8.99999274E+01
  0
LINE
  8
0
 62
4
 10
-8.62500001E+01
 20
7.39999999E+01
 11
-8.62500001E+01
 21
7.36900634E+01
  0
LINE
  8
0
 62
4
 10
-8.80688807E+01
 20
7.16982981E+01
 11
-9.02500108E+01
 21
7.15000136E+01
  0
LINE
  8
0
 62
4
 10
-8.80688774E+01
 20
1.08301732E+02
 11
-9.02499772E+01
 21
1.08500014E+02
  0
LINE
  8
0
  6
CENTER
 62
6
 10
-6.92499999E+01
 20
1.28371185E+02
 11
-6.92500001E+01
 21
5.19647216E+01
  0
LINE
  8
0
 62
4
 10
-8.62499999E+01
 20
1.06309875E+02
 11
-8.62499999E+01
 21
1.06000000E+02
  0
LINE
  8
0
 62
4
 10
-4.82500001E+01
 20
7.39999998E+01
 11
-4.82500001E+01
 21
5.84999998E+01
  0
LINE
  8
0
 62
4
 10
-5.02499999E+01
 20
1.23500000E+02
 11
-8.62499999E+01
 21
1.23500000E+02
  0
LINE
  8
0
 62
4
 10
-5.02500001E+01
 20
5.64999998E+01
 11
-8.62500001E+01
 21
5.64999999E+01
  0
LINE
  8
0
 62
4
 10
-9.02499998E+01
 20
1.43000000E+02
 11
-9.02500002E+01
 21
3.70000000E+01
  0
LINE
  8
0
 62
4
 10
-9.22500002E+01
 20
3.50000000E+01
 11
-1.01250000E+02
 21
3.50000000E+01
  0
LINE
  8
0
 62
4
 10
-9.22499998E+01
 20
1.45000000E+02
 11
-1.01250000E+02
 21
1.45000000E+02
  0
LINE
  8
0
 62
4
 10
-4.82499999E+01
 20
1.21500000E+02
 11
-4.82499999E+01
 21
1.06000000E+02
  0
LINE
  8
0
  6
CENTER
 62
6
 10
-8.34569090E+01
 20
1.32000000E+02
 11
-1.06603561E+02
 21
1.32000000E+02
  0
LINE
  8
0
 62
4
 10
-1.01250000E+02
 20
1.44880249E+02
 11
-1.01250000E+02
 21
3.51196289E+01
  0
LINE
  8
0
  6
CENTER
 62
6
 10
-8.16942445E+01
 20
4.79999389E+01
 11
-1.08560928E+02
 21
4.79999390E+01
  0
LINE
  8
0
  6
CENTER
 62
6
 10
-1.03471786E+02
 20
9.00000000E+01
 11
-4.00531311E+01
 21
8.99999998E+01
  0
LINE
  8
0
 62
4
 10
-7.93774693E+01
 20
2.73690627E+01
 11
-8.01402897E+01
 21
5.64999999E+01
  0
LINE
  8
0
 62
4
 10
-8.01402525E+01
 20
1.23500000E+02
 11
-7.93774351E+01
 21
1.52630815E+02
  0
LINE
  8
0
 62
4
 10
-7.43791811E+01
 20
2.24999999E+01
 11
1.08792112E+01
 21
2.24999996E+01
  0
LINE
  8
0
 62
4
 10
1.08792117E+01
 20
1.57499755E+02
 11
-7.43791807E+01
 21
1.57499756E+02
  0
LINE
  8
0
  6
CENTER
 62
6
 10
-8.42500002E+01
 20
3.74999999E+01
 11
-4.42500002E+01
 21
3.74999998E+01
  0
LINE
  8
0
  6
CENTER
 62
6
 10
-6.42500003E+01
 20
1.74999999E+01
 11
-6.42500001E+01
 21
5.74999999E+01
  0
LINE
  8
0
  6
CENTER
 62
6
 10
-1.92500002E+01
 20
3.74999997E+01
 11
2.07500151E+01
 21
3.74999996E+01
  0
LINE
  8
0
  6
CENTER
 62
6
 10
7.49999886E-01
 20
5.74999996E+01
 11
7.49999746E-01
 21
1.74999996E+01
  0
LINE
  8
0
  6
CENTER
 62
6
 10
-4.42499998E+01
 20
1.42499756E+02
 11
-8.42499998E+01
 21
1.42499756E+02
  0
LINE
  8
0
  6
CENTER
 62
6
 10
-6.42499999E+01
 20
1.22499756E+02
 11
-6.42499997E+01
 21
1.62499756E+02
  0
LINE
  8
0
  6
CENTER
 62
6
 10
2.07500154E+01
 20
1.42499755E+02
 11
-1.92499998E+01
 21
1.42499756E+02
  0
LINE
  8
0
  6
CENTER
 62
6
 10
7.50000254E-01
 20
1.62499756E+02
 11
7.50000114E-01
 21
1.22499756E+02
  0
LINE
  8
0
 62
4
 10
-5.30984802E+01
 20
1.04000000E+02
 11
1.27500153E+01
 21
1.04000000E+02
  0
LINE
  8
0
 62
4
 10
-8.88309936E+01
 20
1.06000000E+02
 11
-4.82499999E+01
 21
1.06000000E+02
  0
LINE
  8
0
 62
4
 10
1.27500152E+01
 20
7.59999996E+01
 11
-5.30984803E+01
 21
7.59999998E+01
  0
LINE
  8
0
 62
4
 10
-4.82500001E+01
 20
7.39999998E+01
 11
-8.88309937E+01
 21
7.40000000E+01
  0
LINE
  8
0
 62
4
 10
1.58774870E+01
 20
2.73690489E+01
 11
1.75175365E+01
 21
9.00000000E+01
  0
LINE
  8
0
 62
4
 10
1.75175148E+01
 20
8.99999991E+01
 11
1.58774685E+01
 21
1.52630843E+02
  0
ARC
  8
0
 62
4
 10
2.16505470E+02
 20
8.99999989E+01
 40
3.05755371E+02
 50
1.77000377E+02
 51
1.82999619E+02
  0
ARC
  8
0
 62
4
 10
-7.43791811E+01
 20
2.74999999E+01
 40
5.00000000E+00
 50
1.81500055E+02
 51
2.70000182E+02
  0
ARC
  8
0
 62
4
 10
-7.43791807E+01
 20
1.52499756E+02
 40
5.00000000E+00
 50
8.99998180E+01
 51
1.78499945E+02
  0
ARC
  8
0
 62
4
 10
1.08792112E+01
 20
2.74999996E+01
 40
5.00000000E+00
 50
2.69999854E+02
 51
3.58499945E+02
  0
ARC
  8
0
 62
4
 10
1.08792116E+01
 20
1.52499755E+02
 40
5.00000000E+00
 50
1.50005448E+00
 51
9.00001457E+01
  0
CIRCLE
  8
0
 62
4
 10
-6.42500002E+01
 20
3.74999999E+01
 40
7.00000000E+00
  0
CIRCLE
  8
0
 62
4
 10
7.49999816E-01
 20
3.74999996E+01
 40
1.40000000E+01
  0
CIRCLE
  8
0
 62
4
 10
7.49999816E-01
 20
3.74999996E+01
 40
7.00000000E+00
  0
ARC
  8
0
 62
4
 10
-6.42499998E+01
 20
1.42499756E+02
 40
1.40000000E+01
 50
2.85362657E+02
 51
2.54637342E+02
  0
CIRCLE
  8
0
 62
4
 10
-6.42499998E+01
 20
1.42499756E+02
 40
7.00000000E+00
  0
CIRCLE
  8
0
 62
4
 10
7.50000184E-01
 20
1.42499756E+02
 40
1.40000000E+01
  0
CIRCLE
  8
0
 62
4
 10
7.50000184E-01
 20
1.42499756E+02
 40
7.00000000E+00
  0
ARC
  8
0
 62
4
 10
-4.64215698E+01
 20
1.07000000E+02
 40
3.00000000E+00
 50
1.99471266E+02
 51
2.70000072E+02
  0
ARC
  8
0
 62
4
 10
-5.30984802E+01
 20
1.07000000E+02
 40
3.00000000E+00
 50
1.99471266E+02
 51
2.70000072E+02
  0
ARC
  8
0
 62
4
 10
1.27500153E+01
 20
1.07000000E+02
 40
3.00000000E+00
 50
2.70000018E+02
 51
3.57715557E-05
  0
ARC
  8
0
 62
4
 10
-4.64215699E+01
 20
7.29999998E+01
 40
3.00000000E+00
 50
8.99999274E+01
 51
1.60528734E+02
  0
ARC
  8
0
 62
4
 10
-5.30984803E+01
 20
7.29999998E+01
 40
3.00000000E+00
 50
8.99999274E+01
 51
1.60528734E+02
  0
ARC
  8
0
 62
4
 10
1.27500152E+01
 20
7.29999996E+01
 40
3.00000000E+00
 50
3.59999981E+02
 51
8.99999818E+01
  0
CIRCLE
  8
0
 62
4
 10
-6.92500000E+01
 20
8.99999999E+01
 40
2.00000000E+00
  0
CIRCLE
  8
0
 62
4
 10
-6.92500000E+01
 20
8.99999999E+01
 40
4.00000000E+00
  0
LINE
  8
0
 62
7
 10
-2.81250000E+02
 20
-1.95000000E+02
 11
2.82099854E+02
 21
-1.95000000E+02
  0
LINE
  8
0
 62
7
 10
1.62099976E+02
 20
-1.75000000E+02
 11
1.62099976E+02
 21
-1.95000000E+02
  0
LINE
  8
0
 62
7
 10
1.62099976E+02
 20
-1.75000000E+02
 11
2.82099854E+02
 21
-1.75000000E+02
  0
TEXT
  8
0
 62
7
 10
1.69885289E+02
 20
-1.89500000E+02
 40
9.00000000E+00
  1
KOGANEI CORP.
 41
1.04838710E+00
  7
MONOTXT
  0
TEXT
  8
0
 62
7
 10
1.97799690E+02
 20
1.82350000E+02
 40
6.30000019E+00
  1
Ver. 1.0
 41
1.08108124E+00
  7
MONOTXT
  0
LINE
  8
0
 62
7
 10
1.62099976E+02
 20
1.75500000E+02
 11
2.82099854E+02
 21
1.75500000E+02
  0
LINE
  8
0
 62
7
 10
1.62099976E+02
 20
1.95500000E+02
 11
1.62099976E+02
 21
1.75500000E+02
  0
TEXT
  8
0
 62
7
 10
-2.73900291E+02
 20
1.82350000E+02
 40
6.30000019E+00
  1
NEW DYNA CYLINDER
 41
1.07594953E+00
  7
MONOTXT
  0
LINE
  8
0
 62
7
 10
-2.81250000E+02
 20
1.75500000E+02
 11
-1.61250000E+02
 21
1.75500000E+02
  0
LINE
  8
0
 62
7
 10
-1.61250000E+02
 20
1.95500000E+02
 11
-1.61250000E+02
 21
1.75500000E+02
  0
LINE
  8
0
 62
7
 10
2.82099854E+02
 20
1.95500000E+02
 11
2.82099854E+02
 21
-1.95000000E+02
  0
LINE
  8
0
 62
7
 10
-2.81250000E+02
 20
1.95500000E+02
 11
2.82099854E+02
 21
1.95500000E+02
  0
LINE
  8
0
 62
7
 10
-2.81250000E+02
 20
1.95500000E+02
 11
-2.81250000E+02
 21
-1.95000000E+02
  0
LINE
  8
0
 62
7
 10
-2.81250000E+02
 20
-1.95000000E+02
 11
2.82099854E+02
 21
-1.95000000E+02
  0
TEXT
  8
0
 62
7
 10
-2.67600562E+02
 20
1.57350000E+02
 40
6.30000019E+00
  1
MODEL:DDA100-7C
 41
1.00000015E+00
  7
MONOTXT
  0
ENDSEC
  0
EOF
