  0
SECTION
  2
HEADER
  0
ENDSEC
  0
SECTION
  2
TABLES
  0
TABLE
  2
LTYPE
 70
     4
  0
LTYPE
  2
CONTINUOUS
 70
    64
  3
Solid line
 72
    65
 73
     0
 40
0.000000
  0
LTYPE
  2
DASHED
 70
    64
  3
__ __ __ __ __ __ __ __ __ __ __ __ __ __ __
 72
    65
 73
     2
 40
3.500000
 49
2.000000
 49
-1.500000
  0
LTYPE
  2
CENTER
 70
    64
  3
____ _ ____ _ ____ _ ____ _ ____ _ ____ _ ____
 72
    65
 73
     4
 40
17.500000
 49
13.000000
 49
-1.500000
 49
1.500000
 49
-1.500000
  0
LTYPE
  2
PHANTOM
 70
    64
  3
_____ _ _ _____ _ _ _____ _ _ _____ _ _ ____  
 72
    65
 73
     6
 40
15.500000
 49
8.000000
 49
-1.500000
 49
1.500000
 49
-1.500000
 49
1.500000
 49
-1.500000
  0
ENDTAB
  0
TABLE
  2
LAYER
 70
     1
  0
LAYER
  2
0
 70
     0
 62
     7
  6
CONTINUOUS
  0
ENDTAB
  0
TABLE
  2
STYLE
 70
     1
  0
STYLE
  2
STANDARD
 70
     0
 40
0.000000
 41
1.000000
 50
0.000000
 71
     0
 42
0.200000
  3
txt
  4
BIGFONT
  0
ENDTAB
  0
TABLE
  2
VIEW
 70
     0
  0
ENDTAB
  0
ENDSEC
  0
SECTION
  2
BLOCKS
  0
ENDSEC
  0
SECTION
  2
ENTITIES
  0
LINE
  8
0
  6
CONTINUOUS
 62
7
 10
162.100006
 20
-175.000000
 11
162.100006
 21
-195.000000
  0
LINE
  8
0
  6
CONTINUOUS
 62
7
 10
162.100006
 20
-175.000000
 11
282.100006
 21
-175.000000
  0
LINE
  8
0
  6
CONTINUOUS
 62
7
 10
162.100006
 20
175.500000
 11
282.100006
 21
175.500000
  0
LINE
  8
0
  6
CONTINUOUS
 62
7
 10
162.100006
 20
195.500000
 11
162.100006
 21
175.500000
  0
LINE
  8
0
  6
CONTINUOUS
 62
7
 10
-281.250000
 20
175.500000
 11
-161.250000
 21
175.500000
  0
LINE
  8
0
  6
CONTINUOUS
 62
7
 10
-161.250000
 20
195.500000
 11
-161.250000
 21
175.500000
  0
LINE
  8
0
  6
CONTINUOUS
 62
7
 10
282.100006
 20
195.500000
 11
282.100006
 21
-195.000000
  0
LINE
  8
0
  6
CONTINUOUS
 62
7
 10
-281.250000
 20
195.500000
 11
282.100006
 21
195.500000
  0
LINE
  8
0
  6
CONTINUOUS
 62
7
 10
-281.250000
 20
195.500000
 11
-281.250000
 21
-195.000000
  0
LINE
  8
0
  6
CONTINUOUS
 62
7
 10
-281.250000
 20
-195.000000
 11
282.100006
 21
-195.000000
  0
LINE
  8
0
  6
CONTINUOUS
 62
1
 10
-184.481995
 20
-20.457701
 11
-38.482300
 21
-20.457701
  0
LINE
  8
0
  6
CENTER
 62
5
 10
-66.982300
 20
-43.537701
 11
-66.982300
 21
-27.212500
  0
LINE
  8
0
  6
CENTER
 62
5
 10
-180.481995
 20
-111.866997
 11
-180.481995
 21
-132.957993
  0
LINE
  8
0
  6
CENTER
 62
5
 10
-190.481995
 20
-119.803001
 11
-147.819000
 21
-119.803001
  0
LINE
  8
0
  6
CENTER
 62
5
 10
-180.481995
 20
-22.957701
 11
-180.481995
 21
-46.636200
  0
LINE
  8
0
  6
CENTER
 62
5
 10
-155.981995
 20
-112.305000
 11
-155.981995
 21
-131.841003
  0
LINE
  8
0
  6
CENTER
 62
5
 10
-155.981995
 20
-27.943501
 11
-155.981995
 21
-43.294102
  0
LINE
  8
0
  6
CENTER
 62
5
 10
-42.482300
 20
-22.957701
 11
-42.482300
 21
-46.855099
  0
LINE
  8
0
  6
CENTER
 62
5
 10
-73.751999
 20
-35.802898
 11
-32.482300
 21
-35.802898
  0
LINE
  8
0
  6
CENTER
 62
5
 10
-74.483002
 20
-119.803001
 11
-32.482300
 21
-119.803001
  0
LINE
  8
0
  6
CENTER
 62
5
 10
-27.600500
 20
-77.802902
 11
-197.468994
 21
-77.802902
  0
LINE
  8
0
  6
CENTER
 62
5
 10
-42.482300
 20
-110.115997
 11
-42.482300
 21
-132.957993
  0
LINE
  8
0
  6
CENTER
 62
5
 10
-66.982300
 20
-129.891998
 11
-66.982300
 21
-112.961998
  0
LINE
  8
0
  6
CENTER
 62
5
 10
-111.482002
 20
-16.947100
 11
-111.482002
 21
-138.779007
  0
LINE
  8
0
  6
CENTER
 62
5
 10
-190.481995
 20
-35.802898
 11
-148.550003
 21
-35.802898
  0
LINE
  8
0
  6
CONTINUOUS
 62
1
 10
-184.481995
 20
-135.457993
 11
-38.482300
 21
-135.457993
  0
LINE
  8
0
  6
CONTINUOUS
 62
1
 10
-192.481995
 20
-28.457701
 11
-192.481995
 21
-127.458000
  0
LINE
  8
0
  6
CONTINUOUS
 62
1
 10
-30.482300
 20
-28.457701
 11
-30.482300
 21
-127.458000
  0
LINE
  8
0
  6
CONTINUOUS
 62
1
 10
81.517799
 20
178.197006
 11
81.517799
 21
16.197201
  0
LINE
  8
0
  6
CONTINUOUS
 62
1
 10
97.517700
 20
178.197006
 11
97.517700
 21
16.197201
  0
LINE
  8
0
  6
CENTER
 62
5
 10
66.883400
 20
97.197197
 11
110.041000
 21
97.197197
  0
LINE
  8
0
  6
CONTINUOUS
 62
1
 10
81.517799
 20
178.197006
 11
97.517700
 21
178.197006
  0
LINE
  8
0
  6
CONTINUOUS
 62
1
 10
81.517799
 20
16.197201
 11
97.517700
 21
16.197201
  0
LINE
  8
0
  6
CENTER
 62
5
 10
66.883400
 20
139.197006
 11
110.041000
 21
139.197006
  0
LINE
  8
0
  6
CENTER
 62
5
 10
66.883400
 20
55.197201
 11
110.041000
 21
55.197201
  0
LINE
  8
0
  6
CENTER
 62
5
 10
66.883400
 20
28.197201
 11
110.041000
 21
28.197201
  0
LINE
  8
0
  6
CENTER
 62
5
 10
66.883400
 20
166.197006
 11
110.041000
 21
166.197006
  0
LINE
  8
0
  6
CONTINUOUS
 62
1
 10
81.517700
 20
-20.302900
 11
81.517700
 21
-135.302994
  0
LINE
  8
0
  6
CONTINUOUS
 62
1
 10
97.517700
 20
-135.302994
 11
97.517700
 21
-20.302900
  0
LINE
  8
0
  6
CENTER
 62
5
 10
69.007004
 20
-77.802902
 11
111.575996
 21
-77.802902
  0
LINE
  8
0
  6
CONTINUOUS
 62
1
 10
81.517700
 20
-20.302900
 11
97.517700
 21
-20.302900
  0
LINE
  8
0
  6
CONTINUOUS
 62
1
 10
81.517700
 20
-135.302994
 11
97.517700
 21
-135.302994
  0
LINE
  8
0
  6
CENTER
 62
5
 10
69.007004
 20
-119.803001
 11
111.575996
 21
-119.803001
  0
LINE
  8
0
  6
CENTER
 62
5
 10
69.007004
 20
-35.802898
 11
111.575996
 21
-35.802898
  0
CIRCLE
  8
0
  6
CONTINUOUS
 62
1
 10
-66.982300
 20
-119.803001
 40
4.850000
  0
CIRCLE
  8
0
  6
CONTINUOUS
 62
1
 10
-66.982300
 20
-35.802898
 40
4.850000
  0
CIRCLE
  8
0
  6
CONTINUOUS
 62
1
 10
-155.981995
 20
-35.802898
 40
4.850000
  0
CIRCLE
  8
0
  6
CONTINUOUS
 62
1
 10
-155.981995
 20
-119.803001
 40
4.850000
  0
ARC
  8
0
  6
CONTINUOUS
 62
1
 10
-38.482300
 20
-127.458000
 40
8.000000
 50
270.000000
 51
0.000000
  0
CIRCLE
  8
0
  6
CONTINUOUS
 62
1
 10
-180.481995
 20
-35.802898
 40
6.000000
  0
CIRCLE
  8
0
  6
CONTINUOUS
 62
1
 10
-180.481995
 20
-119.803001
 40
6.000000
  0
CIRCLE
  8
0
  6
CONTINUOUS
 62
1
 10
-42.482300
 20
-35.802898
 40
6.000000
  0
CIRCLE
  8
0
  6
CONTINUOUS
 62
1
 10
-42.482300
 20
-119.803001
 40
6.000000
  0
ARC
  8
0
  6
CONTINUOUS
 62
1
 10
-184.481995
 20
-28.457701
 40
8.000000
 50
90.000000
 51
180.000000
  0
ARC
  8
0
  6
CONTINUOUS
 62
1
 10
-184.481995
 20
-127.458000
 40
8.000000
 50
180.000000
 51
270.000000
  0
ARC
  8
0
  6
CONTINUOUS
 62
1
 10
-38.482300
 20
-28.457701
 40
8.000000
 50
0.000000
 51
90.000000
  0
CIRCLE
  8
0
  6
CONTINUOUS
 62
1
 10
-111.482002
 20
-77.802902
 40
21.000000
  0
TEXT
  8
0
 62
7
 10
172.714691
 20
-187.250000
 40
9.000000
  1
KOGANEI CORP.
 50
0.000000
 41
0.771526
 51
0.000000
  7
STANDARD
  0
TEXT
  8
0
 62
7
 10
199.780289
 20
183.925003
 40
6.300000
  1
Ver. 1.1
 50
0.000000
 41
0.958104
 51
0.000000
  7
STANDARD
  0
TEXT
  8
0
 62
7
 10
-271.919708
 20
183.925003
 40
6.300000
  1
NEW DYNA CYLINDER
 50
0.000000
 41
0.741165
 51
0.000000
  7
STANDARD
  0
TEXT
  8
0
 62
7
 10
-269.400391
 20
158.925003
 40
6.300000
  1
MODEL:DDA100-3
 50
0.000000
 41
0.832757
 51
0.000000
  7
STANDARD
  0
ENDSEC
  0
EOF
