  0
SECTION
  2
HEADER
  9
$ACADVER
  1
AC1009
  9
$DWGCODEPAGE
  3
dos932
  9
$INSBASE
 10
0.0
 20
0.0
 30
0.0
  9
$EXTMIN
 10
-399.52490234
 20
-276.5
 30
0.0
  9
$EXTMAX
 10
399.52490234
 20
276.5
 30
0.0
  9
$LIMMIN
 10
-420.0
 20
-297.0
  9
$LIMMAX
 10
420.0
 20
297.0
  9
$ORTHOMODE
 70
       0
  9
$REGENMODE
 70
       1
  9
$FILLMODE
 70
       1
  9
$QTEXTMODE
 70
       0
  9
$MIRRTEXT
 70
       1
  9
$DRAGMODE
 70
       2
  9
$LTSCALE
 40
1.0
  9
$OSMODE
 70
       0
  9
$ATTMODE
 70
       1
  9
$TEXTSIZE
 40
3.20000005
  9
$TRACEWID
 40
0.05
  9
$TEXTSTYLE
  7
MX_NOTE_STANDARD
  9
$CLAYER
  8
0
  9
$CELTYPE
  6
CONTINUOUS
  9
$CECOLOR
 62
     256
  9
$DIMSCALE
 40
1.0
  9
$DIMASZ
 40
2.5
  9
$DIMEXO
 40
1.5
  9
$DIMDLI
 40
3.75
  9
$DIMRND
 40
0.0
  9
$DIMDLE
 40
0.0
  9
$DIMEXE
 40
1.5
  9
$DIMTP
 40
0.0
  9
$DIMTM
 40
0.0
  9
$DIMTXT
 40
3.20000005
  9
$DIMCEN
 40
2.5
  9
$DIMTSZ
 40
0.0
  9
$DIMTOL
 70
       0
  9
$DIMLIM
 70
       0
  9
$DIMTIH
 70
       0
  9
$DIMTOH
 70
       0
  9
$DIMSE1
 70
       0
  9
$DIMSE2
 70
       0
  9
$DIMTAD
 70
       1
  9
$DIMZIN
 70
       8
  9
$DIMBLK
  1

  9
$DIMASO
 70
       1
  9
$DIMSHO
 70
       1
  9
$DIMPOST
  1

  9
$DIMAPOST
  1

  9
$DIMALT
 70
       0
  9
$DIMALTD
 70
       4
  9
$DIMALTF
 40
0.03937008
  9
$DIMLFAC
 40
1.0
  9
$DIMTOFL
 70
       1
  9
$DIMTVP
 40
0.0
  9
$DIMTIX
 70
       0
  9
$DIMSOXD
 70
       0
  9
$DIMSAH
 70
       1
  9
$DIMBLK1
  1
_OPEN30
  9
$DIMBLK2
  1
_OPEN30
  9
$DIMSTYLE
  2
MXDIMSTYLE
  9
$DIMCLRD
 70
       0
  9
$DIMCLRE
 70
       0
  9
$DIMCLRT
 70
       0
  9
$DIMTFAC
 40
1.0
  9
$DIMGAP
 40
1.0
  9
$LUNITS
 70
       2
  9
$LUPREC
 70
       4
  9
$AXISMODE
 70
       0
  9
$AXISUNIT
 10
0.0
 20
0.0
  9
$SKETCHINC
 40
0.1
  9
$FILLETRAD
 40
0.0
  9
$AUNITS
 70
       0
  9
$AUPREC
 70
       0
  9
$MENU
  1
acad
  9
$ELEVATION
 40
0.0
  9
$PELEVATION
 40
0.0
  9
$THICKNESS
 40
0.0
  9
$LIMCHECK
 70
       0
  9
$BLIPMODE
 70
       1
  9
$CHAMFERA
 40
0.0
  9
$CHAMFERB
 40
0.0
  9
$SKPOLY
 70
       0
  9
$TDCREATE
 40
2453914.751377315
  9
$TDUPDATE
 40
2453914.751377315
  9
$TDINDWG
 40
0.0000000000
  9
$TDUSRTIMER
 40
0.0000000000
  9
$USRTIMER
 70
       1
  9
$ANGBASE
 50
0.0
  9
$ANGDIR
 70
       0
  9
$PDMODE
 70
       0
  9
$PDSIZE
 40
0.0
  9
$PLINEWID
 40
0.0
  9
$COORDS
 70
       1
  9
$SPLFRAME
 70
       0
  9
$SPLINETYPE
 70
       6
  9
$SPLINESEGS
 70
       8
  9
$ATTDIA
 70
       0
  9
$ATTREQ
 70
       1
  9
$HANDLING
 70
       1
  9
$HANDSEED
  5
15C
  9
$SURFTAB1
 70
       6
  9
$SURFTAB2
 70
       6
  9
$SURFTYPE
 70
       6
  9
$SURFU
 70
       6
  9
$SURFV
 70
       6
  9
$UCSNAME
  2

  9
$UCSORG
 10
0.0
 20
0.0
 30
0.0
  9
$UCSXDIR
 10
1.0
 20
0.0
 30
0.0
  9
$UCSYDIR
 10
0.0
 20
1.0
 30
0.0
  9
$PUCSNAME
  2

  9
$PUCSORG
 10
0.0
 20
0.0
 30
0.0
  9
$PUCSXDIR
 10
1.0
 20
0.0
 30
0.0
  9
$PUCSYDIR
 10
0.0
 20
1.0
 30
0.0
  9
$USERI1
 70
       0
  9
$USERI2
 70
       0
  9
$USERI3
 70
       0
  9
$USERI4
 70
       0
  9
$USERI5
 70
       0
  9
$USERR1
 40
0.0
  9
$USERR2
 40
0.0
  9
$USERR3
 40
0.0
  9
$USERR4
 40
0.0
  9
$USERR5
 40
0.0
  9
$WORLDVIEW
 70
       1
  9
$SHADEDGE
 70
       3
  9
$SHADEDIF
 70
      70
  9
$TILEMODE
 70
       1
  9
$MAXACTVP
 70
      16
  9
$PINSBASE
 10
0.0
 20
0.0
 30
0.0
  9
$PLIMCHECK
 70
       0
  9
$PEXTMIN
 10
1.00000000E+20
 20
1.00000000E+20
 30
1.00000000E+20
  9
$PEXTMAX
 10
-1.00000000E+20
 20
-1.00000000E+20
 30
-1.00000000E+20
  9
$PLIMMIN
 10
0.0
 20
0.0
  9
$PLIMMAX
 10
12.0
 20
9.0
  9
$UNITMODE
 70
       0
  9
$VISRETAIN
 70
       0
  9
$PLINEGEN
 70
       1
  9
$PSLTSCALE
 70
       0
  9
$TREEDEPTH
 70
    3020
  0
ENDSEC
  0
SECTION
  2
TABLES
  0
TABLE
  2
VPORT
 70
       1
  0
VPORT
  2
*ACTIVE
 70
       0
 10
0.0
 20
0.0
 11
1.0
 21
1.0
 12
0.0
 22
0.0
 13
0.0
 23
0.0
 14
1.0
 24
1.0
 15
0.0
 25
0.0
 16
0.0
 26
0.0
 36
1.0
 17
0.0
 27
0.0
 37
0.0
 40
599.94
 41
1.73205081
 42
50.0
 43
0.0
 44
0.0
 50
0.0
 51
0.0
 71
       0
 72
     100
 73
       1
 74
       1
 75
       0
 76
       0
 77
       0
 78
       0
  0
ENDTAB
  0
TABLE
  2
LTYPE
 70
       1
  0
LTYPE
  2
CONTINUOUS
 70
      64
  3
Solid line
 72
      65
 73
       0
 40
0.0
  0
ENDTAB
  0
TABLE
  2
LAYER
 70
       2
  0
LAYER
  2
0
 70
       0
 62
       7
  6
CONTINUOUS
  0
LAYER
  2
DEFPOINTS
 70
       0
 62
       7
  6
CONTINUOUS
  0
ENDTAB
  0
TABLE
  2
STYLE
 70
       1
  0
STYLE
  2
MX_NOTE_STANDARD
 70
       0
 40
0.0
 41
1.0
 50
0.0
 71
       0
 42
3.20000005
  3
txt.shx
  4
extfont.shx
  0
ENDTAB
  0
TABLE
  2
VIEW
 70
       0
  0
ENDTAB
  0
TABLE
  2
UCS
 70
       0
  0
ENDTAB
  0
TABLE
  2
APPID
 70
       1
  0
APPID
  2
ACAD
 70
       0
  0
ENDTAB
  0
TABLE
  2
DIMSTYLE
 70
       1
  0
DIMSTYLE
  2
MXDIMSTYLE
 70
       0
  3

  4

  5

  6
_OPEN30
  7
_OPEN30
 40
1.0
 41
2.5
 42
1.5
 43
3.75
 44
1.5
 45
0.0
 46
0.0
 47
0.0
 48
0.0
 71
       0
 72
       0
 73
       0
 74
       0
 75
       0
 76
       0
 77
       1
 78
       8
140
3.20000005
141
2.5
142
0.0
143
0.03937008
144
1.0
145
0.0
146
1.0
147
1.0
170
       0
171
       4
172
       1
173
       1
174
       0
175
       0
176
       0
177
       0
178
       0
  0
ENDTAB
  0
ENDSEC
  0
SECTION
  2
BLOCKS
  0
BLOCK
  8
0
  6
BYBLOCK
 62
       0
  5
1F
  2
_OPEN30
 70
       2
 10
0.0
 20
0.0
 30
0.0
  3
_OPEN30
  0
LINE
  8
0
  6
BYBLOCK
 62
       0
  5
20
 10
-1.0
 20
0.267949
 30
0.0
 11
0.0
 21
0.0
 31
0.0
  0
LINE
  8
0
  6
BYBLOCK
 62
       0
  5
21
 10
0.0
 20
0.0
 30
0.0
 11
-1.0
 21
-0.267949
 31
0.0
  0
LINE
  8
0
  6
BYBLOCK
 62
       0
  5
22
 10
0.0
 20
0.0
 30
0.0
 11
-1.0
 21
0.0
 31
0.0
  0
ENDBLK
  8
0
  6
BYBLOCK
 62
       0
  5
23
  0
ENDSEC
  0
SECTION
  2
ENTITIES
  0
LINE
  8
0
  6
CONTINUOUS
 62
       7
  5
24
 10
194.24156197
 20
7.25656651
 30
0.0
 11
138.74156197
 21
7.25656651
 31
0.0
  0
LINE
  8
0
  6
CONTINUOUS
 62
       7
  5
25
 10
140.74156197
 20
-14.14343349
 30
0.0
 11
140.04156197
 21
-13.44343349
 31
0.0
  0
LINE
  8
0
  6
CONTINUOUS
 62
       7
  5
26
 10
140.04156197
 20
-13.44343349
 30
0.0
 11
139.74156197
 21
-13.44343349
 31
0.0
  0
LINE
  8
0
  6
CONTINUOUS
 62
       7
  5
27
 10
139.74156197
 20
-14.14343349
 30
0.0
 11
138.74156197
 21
-14.14343349
 31
0.0
  0
LINE
  8
0
  6
CONTINUOUS
 62
       7
  5
28
 10
138.74156197
 20
-14.14343349
 30
0.0
 11
137.74156197
 21
-13.14343349
 31
0.0
  0
LINE
  8
0
  6
CONTINUOUS
 62
       7
  5
29
 10
137.74156197
 20
-14.14343349
 30
0.0
 11
136.74156197
 21
-14.14343349
 31
0.0
  0
LINE
  8
0
  6
CONTINUOUS
 62
       7
  5
2A
 10
136.74156197
 20
10.05656651
 30
0.0
 11
136.74156197
 21
-16.94343349
 31
0.0
  0
LINE
  8
0
  6
CONTINUOUS
 62
       7
  5
2B
 10
140.04156197
 20
6.55656651
 30
0.0
 11
139.74156197
 21
6.55656651
 31
0.0
  0
LINE
  8
0
  6
CONTINUOUS
 62
       7
  5
2C
 10
140.74156197
 20
7.25656651
 30
0.0
 11
140.04156197
 21
6.55656651
 31
0.0
  0
LINE
  8
0
  6
CONTINUOUS
 62
       7
  5
2D
 10
138.74156197
 20
7.25656651
 30
0.0
 11
137.74156197
 21
6.25656651
 31
0.0
  0
LINE
  8
0
  6
CONTINUOUS
 62
       7
  5
2E
 10
137.74156197
 20
-14.14343349
 30
0.0
 11
137.74156197
 21
7.25656651
 31
0.0
  0
LINE
  8
0
  6
CONTINUOUS
 62
       7
  5
2F
 10
137.74156197
 20
7.25656651
 30
0.0
 11
136.74156197
 21
7.25656651
 31
0.0
  0
LINE
  8
0
  6
CONTINUOUS
 62
       7
  5
30
 10
101.74156197
 20
-16.94343349
 30
0.0
 11
115.74156197
 21
-16.94343349
 31
0.0
  0
LINE
  8
0
  6
CONTINUOUS
 62
       7
  5
31
 10
101.74156197
 20
10.05656651
 30
0.0
 11
115.74156197
 21
10.05656651
 31
0.0
  0
LINE
  8
0
  6
CONTINUOUS
 62
       7
  5
32
 10
100.74156197
 20
7.25656651
 30
0.0
 11
101.74156197
 21
7.25656651
 31
0.0
  0
LINE
  8
0
  6
CONTINUOUS
 62
       7
  5
33
 10
100.74156197
 20
-14.14343349
 30
0.0
 11
100.74156197
 21
7.25656651
 31
0.0
  0
LINE
  8
0
  6
CONTINUOUS
 62
       7
  5
34
 10
99.74156197
 20
7.25656651
 30
0.0
 11
100.74156197
 21
6.25656651
 31
0.0
  0
LINE
  8
0
  6
CONTINUOUS
 62
       7
  5
35
 10
98.74156197
 20
7.25656651
 30
0.0
 11
99.74156197
 21
7.25656651
 31
0.0
  0
LINE
  8
0
  6
CONTINUOUS
 62
       7
  5
36
 10
97.74156197
 20
7.25656651
 30
0.0
 11
98.44156197
 21
6.55656651
 31
0.0
  0
LINE
  8
0
  6
CONTINUOUS
 62
       7
  5
37
 10
98.44156197
 20
6.55656651
 30
0.0
 11
98.74156197
 21
6.55656651
 31
0.0
  0
LINE
  8
0
  6
CONTINUOUS
 62
       7
  5
38
 10
101.74156197
 20
10.05656651
 30
0.0
 11
101.74156197
 21
-16.94343349
 31
0.0
  0
LINE
  8
0
  6
CONTINUOUS
 62
       7
  5
39
 10
100.74156197
 20
-14.14343349
 30
0.0
 11
101.74156197
 21
-14.14343349
 31
0.0
  0
LINE
  8
0
  6
CONTINUOUS
 62
       7
  5
3A
 10
99.74156197
 20
-14.14343349
 30
0.0
 11
100.74156197
 21
-13.14343349
 31
0.0
  0
LINE
  8
0
  6
CONTINUOUS
 62
       7
  5
3B
 10
98.74156197
 20
-14.14343349
 30
0.0
 11
99.74156197
 21
-14.14343349
 31
0.0
  0
LINE
  8
0
  6
CONTINUOUS
 62
       7
  5
3C
 10
97.74156197
 20
-14.14343349
 30
0.0
 11
98.44156197
 21
-13.44343349
 31
0.0
  0
LINE
  8
0
  6
CONTINUOUS
 62
       7
  5
3D
 10
98.44156197
 20
-13.44343349
 30
0.0
 11
98.74156197
 21
-13.44343349
 31
0.0
  0
LINE
  8
0
  6
CONTINUOUS
 62
       7
  5
3E
 10
115.74156197
 20
8.05656651
 30
0.0
 11
122.74156197
 21
8.05656651
 31
0.0
  0
LINE
  8
0
  6
CONTINUOUS
 62
       7
  5
3F
 10
115.74156197
 20
-14.94343349
 30
0.0
 11
122.74156197
 21
-14.94343349
 31
0.0
  0
LINE
  8
0
  6
CONTINUOUS
 62
       7
  5
40
 10
115.74156197
 20
-16.94343349
 30
0.0
 11
115.74156197
 21
10.05656651
 31
0.0
  0
LINE
  8
0
  6
CONTINUOUS
 62
       7
  5
41
 10
122.74156197
 20
10.05656651
 30
0.0
 11
122.74156197
 21
-16.94343349
 31
0.0
  0
LINE
  8
0
  6
CONTINUOUS
 62
       7
  5
42
 10
122.74156197
 20
10.05656651
 30
0.0
 11
136.74156197
 21
10.05656651
 31
0.0
  0
LINE
  8
0
  6
CONTINUOUS
 62
       7
  5
43
 10
136.74156197
 20
-16.94343349
 30
0.0
 11
122.74156197
 21
-16.94343349
 31
0.0
  0
LINE
  8
0
  6
CONTINUOUS
 62
       7
  5
44
 10
-236.75843803
 20
-19.03343349
 30
0.0
 11
-242.54843803
 21
-19.03343349
 31
0.0
  0
LINE
  8
0
  6
CONTINUOUS
 62
       7
  5
45
 10
-236.25843803
 20
-16.95343349
 30
0.0
 11
-236.75843803
 21
-16.95343349
 31
0.0
  0
LINE
  8
0
  6
CONTINUOUS
 62
       7
  5
46
 10
-263.25843803
 20
2.55656651
 30
0.0
 11
-262.71843803
 21
3.47656651
 31
0.0
  0
LINE
  8
0
  6
CONTINUOUS
 62
       7
  5
47
 10
-258.78843803
 20
-10.37343349
 30
0.0
 11
-258.25843803
 21
-9.44343349
 31
0.0
  0
LINE
  8
0
  6
CONTINUOUS
 62
       7
  5
48
 10
-258.25843803
 20
2.55656651
 30
0.0
 11
-258.78843803
 21
3.47656651
 31
0.0
  0
LINE
  8
0
  6
CONTINUOUS
 62
       7
  5
49
 10
-262.71843803
 20
0.01656651
 30
0.0
 11
-258.78843803
 21
0.01656651
 31
0.0
  0
LINE
  8
0
  6
CONTINUOUS
 62
       7
  5
4A
 10
-262.71843803
 20
-6.94343349
 30
0.0
 11
-258.78843803
 21
-6.94343349
 31
0.0
  0
LINE
  8
0
  6
CONTINUOUS
 62
       7
  5
4B
 10
-262.71843803
 20
-10.37343349
 30
0.0
 11
-258.78843803
 21
-10.37343349
 31
0.0
  0
LINE
  8
0
  6
CONTINUOUS
 62
       7
  5
4C
 10
-258.78843803
 20
3.47656651
 30
0.0
 11
-262.71843803
 21
3.47656651
 31
0.0
  0
LINE
  8
0
  6
CONTINUOUS
 62
       7
  5
4D
 10
-243.75843803
 20
10.05656651
 30
0.0
 11
-242.54843803
 21
12.13656651
 31
0.0
  0
LINE
  8
0
  6
CONTINUOUS
 62
       7
  5
4E
 10
-245.25843803
 20
-12.44343349
 30
0.0
 11
-244.25843803
 21
-13.44343349
 31
0.0
  0
LINE
  8
0
  6
CONTINUOUS
 62
       7
  5
4F
 10
-245.25843803
 20
5.55656651
 30
0.0
 11
-244.25843803
 21
6.55656651
 31
0.0
  0
LINE
  8
0
  6
CONTINUOUS
 62
       7
  5
50
 10
-244.25843803
 20
6.55656651
 30
0.0
 11
-243.75843803
 21
6.55656651
 31
0.0
  0
LINE
  8
0
  6
CONTINUOUS
 62
       7
  5
51
 10
-244.25843803
 20
-13.44343349
 30
0.0
 11
-243.75843803
 21
-13.44343349
 31
0.0
  0
LINE
  8
0
  6
CONTINUOUS
 62
       7
  5
52
 10
-236.75843803
 20
10.05656651
 30
0.0
 11
-236.25843803
 21
10.05656651
 31
0.0
  0
LINE
  8
0
  6
CONTINUOUS
 62
       7
  5
53
 10
-242.54843803
 20
12.13656651
 30
0.0
 11
-236.75843803
 21
12.13656651
 31
0.0
  0
LINE
  8
0
  6
CONTINUOUS
 62
       7
  5
54
 10
-251.25843803
 20
-6.09343349
 30
0.0
 11
-251.25843803
 21
-0.80343349
 31
0.0
  0
LINE
  8
0
  6
CONTINUOUS
 62
       7
  5
55
 10
-246.25843803
 20
-6.09343349
 30
0.0
 11
-246.25843803
 21
-0.80343349
 31
0.0
  0
LINE
  8
0
  6
CONTINUOUS
 62
       7
  5
56
 10
-251.25843803
 20
-0.80343349
 30
0.0
 11
-246.25843803
 21
-0.80343349
 31
0.0
  0
LINE
  8
0
  6
CONTINUOUS
 62
       7
  5
57
 10
-251.25843803
 20
-6.09343349
 30
0.0
 11
-246.25843803
 21
-6.09343349
 31
0.0
  0
LINE
  8
0
  6
CONTINUOUS
 62
       2
  5
58
 10
-251.25843803
 20
-6.09343349
 30
0.0
 11
-246.25843803
 21
-0.80343349
 31
0.0
  0
LINE
  8
0
  6
CONTINUOUS
 62
       2
  5
59
 10
-251.25843803
 20
-0.80343349
 30
0.0
 11
-246.25843803
 21
-6.09343349
 31
0.0
  0
LINE
  8
0
  6
CONTINUOUS
 62
       7
  5
5A
 10
-236.25843803
 20
-16.94343349
 30
0.0
 11
-236.25843803
 21
-12.44343349
 31
0.0
  0
LINE
  8
0
  6
CONTINUOUS
 62
       7
  5
5B
 10
-233.25843803
 20
10.05656651
 30
0.0
 11
-217.25843803
 21
10.05656651
 31
0.0
  0
LINE
  8
0
  6
CONTINUOUS
 62
       7
  5
5C
 10
-233.25843803
 20
-16.94343349
 30
0.0
 11
-217.25843803
 21
-16.94343349
 31
0.0
  0
LINE
  8
0
  6
CONTINUOUS
 62
       2
  5
5D
 10
-245.25843803
 20
-12.44343349
 30
0.0
 11
-243.75843803
 21
-12.44343349
 31
0.0
  0
LINE
  8
0
  6
CONTINUOUS
 62
       7
  5
5E
 10
-233.25843803
 20
6.55656651
 30
0.0
 11
-236.25843803
 21
6.55656651
 31
0.0
  0
LINE
  8
0
  6
CONTINUOUS
 62
       2
  5
5F
 10
-245.25843803
 20
5.55656651
 30
0.0
 11
-243.75843803
 21
5.55656651
 31
0.0
  0
LINE
  8
0
  6
CONTINUOUS
 62
       7
  5
60
 10
-258.25843803
 20
-9.44343349
 30
0.0
 11
-258.25843803
 21
2.55656651
 31
0.0
  0
LINE
  8
0
  6
CONTINUOUS
 62
       7
  5
61
 10
-253.25843803
 20
-7.44343349
 30
0.0
 11
-253.25843803
 21
0.55656651
 31
0.0
  0
LINE
  8
0
  6
CONTINUOUS
 62
       7
  5
62
 10
-263.25843803
 20
2.55656651
 30
0.0
 11
-263.25843803
 21
-9.44343349
 31
0.0
  0
LINE
  8
0
  6
CONTINUOUS
 62
       7
  5
63
 10
-235.25843803
 20
-13.44343349
 30
0.0
 11
-235.25843803
 21
6.55656651
 31
0.0
  0
LINE
  8
0
  6
CONTINUOUS
 62
       2
  5
64
 10
-235.25843803
 20
5.55656651
 30
0.0
 11
-233.51843803
 21
6.55656651
 31
0.0
  0
LINE
  8
0
  6
CONTINUOUS
 62
       2
  5
65
 10
-235.25843803
 20
-12.44343349
 30
0.0
 11
-233.51843803
 21
-13.44343349
 31
0.0
  0
LINE
  8
0
  6
CONTINUOUS
 62
       7
  5
66
 10
-263.25843803
 20
-7.44343349
 30
0.0
 11
-267.25843803
 21
-7.44343349
 31
0.0
  0
LINE
  8
0
  6
CONTINUOUS
 62
       7
  5
67
 10
-267.25843803
 20
0.55656651
 30
0.0
 11
-263.25843803
 21
0.55656651
 31
0.0
  0
LINE
  8
0
  6
CONTINUOUS
 62
       2
  5
68
 10
-253.25843803
 20
-0.44343349
 30
0.0
 11
-251.51843803
 21
0.55656651
 31
0.0
  0
LINE
  8
0
  6
CONTINUOUS
 62
       2
  5
69
 10
-253.25843803
 20
-6.44343349
 30
0.0
 11
-251.51843803
 21
-7.44343349
 31
0.0
  0
LINE
  8
0
  6
CONTINUOUS
 62
       2
  5
6A
 10
-258.25843803
 20
-6.44343349
 30
0.0
 11
-253.25843803
 21
-6.44343349
 31
0.0
  0
LINE
  8
0
  6
CONTINUOUS
 62
       2
  5
6B
 10
-258.25843803
 20
-0.44343349
 30
0.0
 11
-253.25843803
 21
-0.44343349
 31
0.0
  0
LINE
  8
0
  6
CONTINUOUS
 62
       7
  5
6C
 10
-217.25843803
 20
-14.14343349
 30
0.0
 11
-216.25843803
 21
-14.14343349
 31
0.0
  0
LINE
  8
0
  6
CONTINUOUS
 62
       7
  5
6D
 10
-217.25843803
 20
7.25656651
 30
0.0
 11
-216.25843803
 21
7.25656651
 31
0.0
  0
LINE
  8
0
  6
CONTINUOUS
 62
       7
  5
6E
 10
-216.25843803
 20
-13.14343349
 30
0.0
 11
-215.25843803
 21
-14.14343349
 31
0.0
  0
LINE
  8
0
  6
CONTINUOUS
 62
       7
  5
6F
 10
-213.95843803
 20
-13.44343349
 30
0.0
 11
-213.25843803
 21
-14.14343349
 31
0.0
  0
LINE
  8
0
  6
CONTINUOUS
 62
       7
  5
70
 10
-215.25843803
 20
-14.14343349
 30
0.0
 11
-214.25843803
 21
-14.14343349
 31
0.0
  0
LINE
  8
0
  6
CONTINUOUS
 62
       7
  5
71
 10
-216.25843803
 20
6.25656651
 30
0.0
 11
-215.25843803
 21
7.25656651
 31
0.0
  0
LINE
  8
0
  6
CONTINUOUS
 62
       7
  5
72
 10
-213.95843803
 20
6.55656651
 30
0.0
 11
-213.25843803
 21
7.25656651
 31
0.0
  0
LINE
  8
0
  6
CONTINUOUS
 62
       7
  5
73
 10
-215.25843803
 20
7.25656651
 30
0.0
 11
-214.25843803
 21
7.25656651
 31
0.0
  0
LINE
  8
0
  6
CONTINUOUS
 62
       7
  5
74
 10
-263.25843803
 20
-9.44343349
 30
0.0
 11
-262.71843803
 21
-10.37343349
 31
0.0
  0
LINE
  8
0
  6
CONTINUOUS
 62
       7
  5
75
 10
-243.75843803
 20
10.05656651
 30
0.0
 11
-243.75843803
 21
-16.94343349
 31
0.0
  0
LINE
  8
0
  6
CONTINUOUS
 62
       7
  5
76
 10
-236.75843803
 20
-19.03343349
 30
0.0
 11
-236.75843803
 21
12.13656651
 31
0.0
  0
LINE
  8
0
  6
CONTINUOUS
 62
       7
  5
77
 10
-236.25843803
 20
-12.44343349
 30
0.0
 11
-236.25843803
 21
10.05656651
 31
0.0
  0
LINE
  8
0
  6
CONTINUOUS
 62
       7
  5
78
 10
-245.25843803
 20
-12.44343349
 30
0.0
 11
-245.25843803
 21
5.55656651
 31
0.0
  0
LINE
  8
0
  6
CONTINUOUS
 62
       7
  5
79
 10
-233.25843803
 20
-16.94343349
 30
0.0
 11
-233.25843803
 21
10.05656651
 31
0.0
  0
LINE
  8
0
  6
CONTINUOUS
 62
       7
  5
7A
 10
-217.25843803
 20
10.05656651
 30
0.0
 11
-217.25843803
 21
-16.94343349
 31
0.0
  0
LINE
  8
0
  6
CONTINUOUS
 62
       7
  5
7B
 10
-216.25843803
 20
-14.14343349
 30
0.0
 11
-216.25843803
 21
7.25656651
 31
0.0
  0
LINE
  8
0
  6
CONTINUOUS
 62
       7
  5
7C
 10
-214.25843803
 20
6.55656651
 30
0.0
 11
-213.95843803
 21
6.55656651
 31
0.0
  0
LINE
  8
0
  6
CONTINUOUS
 62
       7
  5
7D
 10
-214.25843803
 20
-13.44343349
 30
0.0
 11
-213.95843803
 21
-13.44343349
 31
0.0
  0
LINE
  8
0
  6
CONTINUOUS
 62
       2
  5
7E
 10
-225.25843803
 20
14.32656651
 30
0.0
 11
-225.25843803
 21
1.00656651
 31
0.0
  0
LINE
  8
0
  6
CONTINUOUS
 62
       2
  5
7F
 10
-236.25843803
 20
5.55656651
 30
0.0
 11
-235.25843803
 21
5.55656651
 31
0.0
  0
LINE
  8
0
  6
CONTINUOUS
 62
       2
  5
80
 10
-236.25843803
 20
-12.44343349
 30
0.0
 11
-235.25843803
 21
-12.44343349
 31
0.0
  0
LINE
  8
0
  6
CONTINUOUS
 62
       2
  5
81
 10
109.74156197
 20
14.50656651
 30
0.0
 11
109.74156197
 21
1.00656651
 31
0.0
  0
LINE
  8
0
  6
CONTINUOUS
 62
       7
  5
82
 10
-236.25843803
 20
-13.44343349
 30
0.0
 11
-233.25843803
 21
-13.44343349
 31
0.0
  0
LINE
  8
0
  6
CONTINUOUS
 62
       7
  5
83
 10
-244.25843803
 20
6.55656651
 30
0.0
 11
-244.25843803
 21
-13.44343349
 31
0.0
  0
LINE
  8
0
  6
CONTINUOUS
 62
       7
  5
84
 10
-215.25843803
 20
7.25656651
 30
0.0
 11
-215.25843803
 21
-14.14343349
 31
0.0
  0
LINE
  8
0
  6
CONTINUOUS
 62
       7
  5
85
 10
-214.25843803
 20
7.25656651
 30
0.0
 11
-214.25843803
 21
-14.14343349
 31
0.0
  0
LINE
  8
0
  6
CONTINUOUS
 62
       7
  5
86
 10
-213.25843803
 20
7.25656651
 30
0.0
 11
-213.25843803
 21
-14.14343349
 31
0.0
  0
LINE
  8
0
  6
CONTINUOUS
 62
       7
  5
87
 10
138.74156197
 20
7.25656651
 30
0.0
 11
138.74156197
 21
-14.14343349
 31
0.0
  0
LINE
  8
0
  6
CONTINUOUS
 62
       7
  5
88
 10
139.74156197
 20
7.25656651
 30
0.0
 11
139.74156197
 21
-14.14343349
 31
0.0
  0
LINE
  8
0
  6
CONTINUOUS
 62
       7
  5
89
 10
99.74156197
 20
7.25656651
 30
0.0
 11
99.74156197
 21
-14.14343349
 31
0.0
  0
LINE
  8
0
  6
CONTINUOUS
 62
       7
  5
8A
 10
98.74156197
 20
7.25656651
 30
0.0
 11
98.74156197
 21
-14.14343349
 31
0.0
  0
LINE
  8
0
  6
CONTINUOUS
 62
       7
  5
8B
 10
140.74156197
 20
7.25656651
 30
0.0
 11
140.74156197
 21
-14.14343349
 31
0.0
  0
LINE
  8
0
  6
CONTINUOUS
 62
       7
  5
8C
 10
97.74156197
 20
7.25656651
 30
0.0
 11
97.74156197
 21
-14.14343349
 31
0.0
  0
LINE
  8
0
  6
CONTINUOUS
 62
       7
  5
8D
 10
-242.54843803
 20
-19.03343349
 30
0.0
 11
-243.75843803
 21
-16.94343349
 31
0.0
  0
LINE
  8
0
  6
CONTINUOUS
 62
       7
  5
8E
 10
-236.75843803
 20
-11.24343349
 30
0.0
 11
-242.54843803
 21
-11.24343349
 31
0.0
  0
LINE
  8
0
  6
CONTINUOUS
 62
       7
  5
8F
 10
-236.75843803
 20
4.34656651
 30
0.0
 11
-242.54843803
 21
4.34656651
 31
0.0
  0
LINE
  8
0
  6
CONTINUOUS
 62
       7
  5
90
 10
-213.25843803
 20
-14.14343349
 30
0.0
 11
97.74156197
 21
-14.14343349
 31
0.0
  0
LINE
  8
0
  6
CONTINUOUS
 62
       2
  5
91
 10
-273.25843803
 20
-3.44343349
 30
0.0
 11
240.24156197
 21
-3.44343349
 31
0.0
  0
LINE
  8
0
  6
CONTINUOUS
 62
       7
  5
92
 10
285.42156197
 20
4.55656651
 30
0.0
 11
285.42156197
 21
-11.44343349
 31
0.0
  0
LINE
  8
0
  6
CONTINUOUS
 62
       7
  5
93
 10
297.42156197
 20
4.55656651
 30
0.0
 11
297.42156197
 21
-11.44343349
 31
0.0
  0
LINE
  8
0
  6
CONTINUOUS
 62
       2
  5
94
 10
272.92487801
 20
-3.44343349
 30
0.0
 11
309.92487801
 21
-3.44343349
 31
0.0
  0
LINE
  8
0
  6
CONTINUOUS
 62
       2
  5
95
 10
291.42156197
 20
15.0565661
 30
0.0
 11
291.42156197
 21
-21.94343309
 31
0.0
  0
LINE
  8
0
  6
CONTINUOUS
 62
       7
  5
96
 10
-268.25843803
 20
-6.44343349
 30
0.0
 11
-268.25843803
 21
-0.44343349
 31
0.0
  0
LINE
  8
0
  6
CONTINUOUS
 62
       2
  5
97
 10
-268.25843803
 20
-6.44343349
 30
0.0
 11
-263.25843803
 21
-6.44343349
 31
0.0
  0
LINE
  8
0
  6
CONTINUOUS
 62
       7
  5
98
 10
-268.25843803
 20
-0.44343349
 30
0.0
 11
-267.25843803
 21
0.55656651
 31
0.0
  0
LINE
  8
0
  6
CONTINUOUS
 62
       2
  5
99
 10
-268.25843803
 20
-0.44343349
 30
0.0
 11
-263.25843803
 21
-0.44343349
 31
0.0
  0
LINE
  8
0
  6
CONTINUOUS
 62
       7
  5
9A
 10
-267.25843803
 20
0.55656651
 30
0.0
 11
-267.25843803
 21
-7.44343349
 31
0.0
  0
LINE
  8
0
  6
CONTINUOUS
 62
       7
  5
9B
 10
-268.25843803
 20
-6.44343349
 30
0.0
 11
-267.25843803
 21
-7.44343349
 31
0.0
  0
LINE
  8
0
  6
CONTINUOUS
 62
       7
  5
9C
 10
-245.25843803
 20
0.55656651
 30
0.0
 11
-258.25843803
 21
0.55656651
 31
0.0
  0
LINE
  8
0
  6
CONTINUOUS
 62
       7
  5
9D
 10
-258.25843803
 20
-7.44343349
 30
0.0
 11
-245.25843803
 21
-7.44343349
 31
0.0
  0
LINE
  8
0
  6
CONTINUOUS
 62
       7
  5
9E
 10
214.24156197
 20
-16.94343349
 30
0.0
 11
214.24156197
 21
10.05656651
 31
0.0
  0
LINE
  8
0
  6
CONTINUOUS
 62
       7
  5
9F
 10
214.24156197
 20
10.05656651
 30
0.0
 11
198.24156197
 21
10.05656651
 31
0.0
  0
LINE
  8
0
  6
CONTINUOUS
 62
       7
  5
A0
 10
214.24156197
 20
-16.94343349
 30
0.0
 11
198.24156197
 21
-16.94343349
 31
0.0
  0
LINE
  8
0
  6
CONTINUOUS
 62
       7
  5
A1
 10
196.24156197
 20
-14.14343349
 30
0.0
 11
197.24156197
 21
-13.14343349
 31
0.0
  0
LINE
  8
0
  6
CONTINUOUS
 62
       7
  5
A2
 10
195.24156197
 20
-14.14343349
 30
0.0
 11
196.24156197
 21
-14.14343349
 31
0.0
  0
LINE
  8
0
  6
CONTINUOUS
 62
       7
  5
A3
 10
197.24156197
 20
-14.14343349
 30
0.0
 11
198.24156197
 21
-14.14343349
 31
0.0
  0
LINE
  8
0
  6
CONTINUOUS
 62
       7
  5
A4
 10
196.24156197
 20
7.25656651
 30
0.0
 11
197.24156197
 21
6.25656651
 31
0.0
  0
LINE
  8
0
  6
CONTINUOUS
 62
       7
  5
A5
 10
195.24156197
 20
7.25656651
 30
0.0
 11
196.24156197
 21
7.25656651
 31
0.0
  0
LINE
  8
0
  6
CONTINUOUS
 62
       7
  5
A6
 10
197.24156197
 20
7.25656651
 30
0.0
 11
198.24156197
 21
7.25656651
 31
0.0
  0
LINE
  8
0
  6
CONTINUOUS
 62
       2
  5
A7
 10
206.24156197
 20
14.00656651
 30
0.0
 11
206.24156197
 21
0.78656651
 31
0.0
  0
LINE
  8
0
  6
CONTINUOUS
 62
       7
  5
A8
 10
198.24156197
 20
10.05656651
 30
0.0
 11
198.24156197
 21
-16.94343349
 31
0.0
  0
LINE
  8
0
  6
CONTINUOUS
 62
       7
  5
A9
 10
194.94156197
 20
6.55656651
 30
0.0
 11
195.24156197
 21
6.55656651
 31
0.0
  0
LINE
  8
0
  6
CONTINUOUS
 62
       7
  5
AA
 10
197.24156197
 20
7.25656651
 30
0.0
 11
197.24156197
 21
-14.14343349
 31
0.0
  0
LINE
  8
0
  6
CONTINUOUS
 62
       7
  5
AB
 10
194.94156197
 20
-13.44343349
 30
0.0
 11
195.24156197
 21
-13.44343349
 31
0.0
  0
LINE
  8
0
  6
CONTINUOUS
 62
       7
  5
AC
 10
194.24156197
 20
-14.14343349
 30
0.0
 11
194.94156197
 21
-13.44343349
 31
0.0
  0
LINE
  8
0
  6
CONTINUOUS
 62
       7
  5
AD
 10
194.24156197
 20
7.25656651
 30
0.0
 11
194.94156197
 21
6.55656651
 31
0.0
  0
LINE
  8
0
  6
CONTINUOUS
 62
       7
  5
AE
 10
196.24156197
 20
7.25656651
 30
0.0
 11
196.24156197
 21
-14.14343349
 31
0.0
  0
LINE
  8
0
  6
CONTINUOUS
 62
       7
  5
AF
 10
195.24156197
 20
7.25656651
 30
0.0
 11
195.24156197
 21
-14.14343349
 31
0.0
  0
LINE
  8
0
  6
CONTINUOUS
 62
       7
  5
B0
 10
194.24156197
 20
7.25656651
 30
0.0
 11
194.24156197
 21
-14.14343349
 31
0.0
  0
LINE
  8
0
  6
CONTINUOUS
 62
       7
  5
B1
 10
235.24156197
 20
-12.44343349
 30
0.0
 11
235.24156197
 21
5.55656651
 31
0.0
  0
LINE
  8
0
  6
CONTINUOUS
 62
       7
  5
B2
 10
216.24156197
 20
-13.44343349
 30
0.0
 11
216.24156197
 21
-11.44343349
 31
0.0
  0
LINE
  8
0
  6
CONTINUOUS
 62
       7
  5
B3
 10
215.24156197
 20
-11.44343349
 30
0.0
 11
215.24156197
 21
4.55656651
 31
0.0
  0
LINE
  8
0
  6
CONTINUOUS
 62
       7
  5
B4
 10
215.24156197
 20
4.55656651
 30
0.0
 11
234.40156197
 21
4.55656651
 31
0.0
  0
LINE
  8
0
  6
CONTINUOUS
 62
       7
  5
B5
 10
215.24156197
 20
-11.44343349
 30
0.0
 11
234.40156197
 21
-11.44343349
 31
0.0
  0
LINE
  8
0
  6
CONTINUOUS
 62
       7
  5
B6
 10
214.24156197
 20
6.55656651
 30
0.0
 11
234.40156197
 21
6.55656651
 31
0.0
  0
LINE
  8
0
  6
CONTINUOUS
 62
       2
  5
B7
 10
235.24156197
 20
5.55656651
 30
0.0
 11
216.24156197
 21
5.55656651
 31
0.0
  0
LINE
  8
0
  6
CONTINUOUS
 62
       2
  5
B8
 10
216.24156197
 20
-12.44343349
 30
0.0
 11
235.24156197
 21
-12.44343349
 31
0.0
  0
LINE
  8
0
  6
CONTINUOUS
 62
       7
  5
B9
 10
234.40156197
 20
-13.44343349
 30
0.0
 11
214.24156197
 21
-13.44343349
 31
0.0
  0
LINE
  8
0
  6
CONTINUOUS
 62
       7
  5
BA
 10
216.24156197
 20
4.55656651
 30
0.0
 11
216.24156197
 21
6.55656651
 31
0.0
  0
LINE
  8
0
  6
CONTINUOUS
 62
       7
  5
BB
 10
235.24156197
 20
5.55656651
 30
0.0
 11
234.40156197
 21
6.55656651
 31
0.0
  0
LINE
  8
0
  6
CONTINUOUS
 62
       7
  5
BC
 10
235.24156197
 20
-12.44343349
 30
0.0
 11
234.40156197
 21
-13.44343349
 31
0.0
  0
LINE
  8
0
  6
CONTINUOUS
 62
       7
  5
BD
 10
234.40156197
 20
-13.44343349
 30
0.0
 11
234.40156197
 21
-11.44343349
 31
0.0
  0
LINE
  8
0
  6
CONTINUOUS
 62
       2
  5
BE
 10
216.24156197
 20
5.55656651
 30
0.0
 11
214.50156197
 21
6.55656651
 31
0.0
  0
LINE
  8
0
  6
CONTINUOUS
 62
       2
  5
BF
 10
216.24156197
 20
-12.44343349
 30
0.0
 11
214.50156197
 21
-13.44343349
 31
0.0
  0
LINE
  8
0
  6
CONTINUOUS
 62
       2
  5
C0
 10
226.24156197
 20
2.55655125
 30
0.0
 11
226.24156197
 21
-9.44344875
 31
0.0
  0
LINE
  8
0
  6
CONTINUOUS
 62
       7
  5
C1
 10
234.40156197
 20
4.55656651
 30
0.0
 11
234.40156197
 21
6.55656651
 31
0.0
  0
LINE
  8
0
  6
CONTINUOUS
 62
       7
  5
C2
 10
234.40156197
 20
-11.44343349
 30
0.0
 11
235.24156197
 21
-10.61343349
 31
0.0
  0
LINE
  8
0
  6
CONTINUOUS
 62
       7
  5
C3
 10
234.40156197
 20
4.55656651
 30
0.0
 11
235.24156197
 21
3.71656651
 31
0.0
  0
LINE
  8
0
  6
CONTINUOUS
 62
       2
  5
C4
 10
235.24156197
 20
3.71656651
 30
0.0
 11
229.25156197
 21
-0.82343349
 31
0.0
  0
LINE
  8
0
  6
CONTINUOUS
 62
       2
  5
C5
 10
215.24156197
 20
4.55656651
 30
0.0
 11
222.89156197
 21
-1.25343349
 31
0.0
  0
LINE
  8
0
  6
CONTINUOUS
 62
       2
  5
C6
 10
229.25156197
 20
-6.07343349
 30
0.0
 11
235.24156197
 21
-10.61343349
 31
0.0
  0
LINE
  8
0
  6
CONTINUOUS
 62
       2
  5
C7
 10
222.89156197
 20
-5.64343349
 30
0.0
 11
215.24156197
 21
-11.44343349
 31
0.0
  0
LINE
  8
0
  6
CONTINUOUS
 62
       2
  5
C8
 10
128.74156197
 20
-11.69343349
 30
0.0
 11
128.74156197
 21
-23.62343349
 31
0.0
  0
LINE
  8
0
  6
CONTINUOUS
 62
       7
  5
C9
 10
-213.25843803
 20
7.25656651
 30
0.0
 11
97.74156197
 21
7.25656651
 31
0.0
  0
ARC
  8
0
  6
CONTINUOUS
 62
       2
  5
CA
 10
291.42156197
 20
-3.44343395
 30
0.0
 40
8.99388715
 50
48.1548448
 51
131.8451552
  0
CIRCLE
  8
0
  6
CONTINUOUS
 62
       7
  5
CB
 10
291.42487801
 20
-3.44343349
 30
0.0
 40
13.5
  0
ARC
  8
0
  6
CONTINUOUS
 62
       2
  5
CC
 10
291.42156197
 20
-3.44343304
 30
0.0
 40
9.00133913
 50
228.19730865
 51
311.80269135
  0
CIRCLE
  8
0
  6
CONTINUOUS
 62
       7
  5
CD
 10
291.42487801
 20
-3.44343349
 30
0.0
 40
10.0
  0
CIRCLE
  8
0
  6
CONTINUOUS
 62
       7
  5
CE
 10
226.24157417
 20
-3.44344875
 30
0.0
 40
4.0
  0
POLYLINE
  8
0
  6
CONTINUOUS
 62
       7
  5
CF
 66
       1
 10
0.0
 20
0.0
 30
0.0
  0
VERTEX
  8
0
  6
CONTINUOUS
 62
       7
  5
F5
 10
-262.71843803
 20
-6.94343349
 30
0.0
  0
VERTEX
  8
0
  6
CONTINUOUS
 62
       7
  5
F6
 10
-262.94952005
 20
-6.08760222
 30
0.0
  0
VERTEX
  8
0
  6
CONTINUOUS
 62
       7
  5
F7
 10
-263.11929489
 20
-5.21559139
 30
0.0
  0
VERTEX
  8
0
  6
CONTINUOUS
 62
       7
  5
F8
 10
-263.22364129
 20
-4.33250161
 30
0.0
  0
VERTEX
  8
0
  6
CONTINUOUS
 62
       7
  5
F9
 10
-263.25843803
 20
-3.44343349
 30
0.0
  0
VERTEX
  8
0
  6
CONTINUOUS
 62
       7
  5
FA
 10
-263.22166091
 20
-2.56460917
 30
0.0
  0
VERTEX
  8
0
  6
CONTINUOUS
 62
       7
  5
FB
 10
-263.11670244
 20
-1.69198813
 30
0.0
  0
VERTEX
  8
0
  6
CONTINUOUS
 62
       7
  5
FC
 10
-262.94761177
 20
-0.83008977
 30
0.0
  0
VERTEX
  8
0
  6
CONTINUOUS
 62
       7
  5
FD
 10
-262.71843803
 20
0.01656651
 30
0.0
  0
SEQEND
  8
0
  6
CONTINUOUS
 62
       7
  5
FE
  0
POLYLINE
  8
0
  6
CONTINUOUS
 62
       7
  5
D0
 66
       1
 10
0.0
 20
0.0
 30
0.0
  0
VERTEX
  8
0
  6
CONTINUOUS
 62
       7
  5
FF
 10
-258.78843803
 20
3.47656651
 30
0.0
  0
VERTEX
  8
0
  6
CONTINUOUS
 62
       7
  5
100
 10
-258.40418388
 20
2.6472471
 30
0.0
  0
VERTEX
  8
0
  6
CONTINUOUS
 62
       7
  5
101
 10
-258.25843803
 20
1.74656651
 30
0.0
  0
VERTEX
  8
0
  6
CONTINUOUS
 62
       7
  5
102
 10
-258.4041838
 20
0.8458858
 30
0.0
  0
VERTEX
  8
0
  6
CONTINUOUS
 62
       7
  5
103
 10
-258.78843803
 20
0.01656651
 30
0.0
  0
SEQEND
  8
0
  6
CONTINUOUS
 62
       7
  5
104
  0
POLYLINE
  8
0
  6
CONTINUOUS
 62
       7
  5
D1
 66
       1
 10
0.0
 20
0.0
 30
0.0
  0
VERTEX
  8
0
  6
CONTINUOUS
 62
       7
  5
105
 10
-262.71843803
 20
3.47656651
 30
0.0
  0
VERTEX
  8
0
  6
CONTINUOUS
 62
       7
  5
106
 10
-263.10769497
 20
2.64724863
 30
0.0
  0
VERTEX
  8
0
  6
CONTINUOUS
 62
       7
  5
107
 10
-263.25843803
 20
1.74656651
 30
0.0
  0
VERTEX
  8
0
  6
CONTINUOUS
 62
       7
  5
108
 10
-263.10769464
 20
0.84588499
 30
0.0
  0
VERTEX
  8
0
  6
CONTINUOUS
 62
       7
  5
109
 10
-262.71843803
 20
0.01656651
 30
0.0
  0
SEQEND
  8
0
  6
CONTINUOUS
 62
       7
  5
10A
  0
POLYLINE
  8
0
  6
CONTINUOUS
 62
       7
  5
D2
 66
       1
 10
0.0
 20
0.0
 30
0.0
  0
VERTEX
  8
0
  6
CONTINUOUS
 62
       7
  5
10B
 10
-258.78843803
 20
-10.37343349
 30
0.0
  0
VERTEX
  8
0
  6
CONTINUOUS
 62
       7
  5
10C
 10
-258.40442035
 20
-9.55311126
 30
0.0
  0
VERTEX
  8
0
  6
CONTINUOUS
 62
       7
  5
10D
 10
-258.25843803
 20
-8.66343349
 30
0.0
  0
VERTEX
  8
0
  6
CONTINUOUS
 62
       7
  5
10E
 10
-258.40442036
 20
-7.76755482
 30
0.0
  0
VERTEX
  8
0
  6
CONTINUOUS
 62
       7
  5
10F
 10
-258.78843803
 20
-6.94343349
 30
0.0
  0
SEQEND
  8
0
  6
CONTINUOUS
 62
       7
  5
110
  0
POLYLINE
  8
0
  6
CONTINUOUS
 62
       7
  5
D3
 66
       1
 10
0.0
 20
0.0
 30
0.0
  0
VERTEX
  8
0
  6
CONTINUOUS
 62
       7
  5
111
 10
-262.71843803
 20
-6.94343349
 30
0.0
  0
VERTEX
  8
0
  6
CONTINUOUS
 62
       7
  5
112
 10
-263.1074564
 20
-7.7663503
 30
0.0
  0
VERTEX
  8
0
  6
CONTINUOUS
 62
       7
  5
113
 10
-263.25843803
 20
-8.66343349
 30
0.0
  0
VERTEX
  8
0
  6
CONTINUOUS
 62
       7
  5
114
 10
-263.10745641
 20
-9.55431338
 30
0.0
  0
VERTEX
  8
0
  6
CONTINUOUS
 62
       7
  5
115
 10
-262.71843803
 20
-10.37343349
 30
0.0
  0
SEQEND
  8
0
  6
CONTINUOUS
 62
       7
  5
116
  0
POLYLINE
  8
0
  6
CONTINUOUS
 62
       7
  5
D4
 66
       1
 10
0.0
 20
0.0
 30
0.0
  0
VERTEX
  8
0
  6
CONTINUOUS
 62
       7
  5
117
 10
-246.25843803
 20
-0.80343349
 30
0.0
  0
VERTEX
  8
0
  6
CONTINUOUS
 62
       7
  5
118
 10
-245.74649655
 20
-1.61243435
 30
0.0
  0
VERTEX
  8
0
  6
CONTINUOUS
 62
       7
  5
119
 10
-245.39135612
 20
-2.50670102
 30
0.0
  0
VERTEX
  8
0
  6
CONTINUOUS
 62
       7
  5
11A
 10
-245.25843803
 20
-3.44343349
 30
0.0
  0
VERTEX
  8
0
  6
CONTINUOUS
 62
       7
  5
11B
 10
-245.3913562
 20
-4.38414828
 30
0.0
  0
VERTEX
  8
0
  6
CONTINUOUS
 62
       7
  5
11C
 10
-245.74649647
 20
-5.28253494
 30
0.0
  0
VERTEX
  8
0
  6
CONTINUOUS
 62
       7
  5
11D
 10
-246.25843803
 20
-6.09343349
 30
0.0
  0
SEQEND
  8
0
  6
CONTINUOUS
 62
       7
  5
11E
  0
POLYLINE
  8
0
  6
CONTINUOUS
 62
       7
  5
D5
 66
       1
 10
0.0
 20
0.0
 30
0.0
  0
VERTEX
  8
0
  6
CONTINUOUS
 62
       7
  5
11F
 10
-251.25843803
 20
-6.09343349
 30
0.0
  0
VERTEX
  8
0
  6
CONTINUOUS
 62
       7
  5
120
 10
-251.77037952
 20
-5.28323176
 30
0.0
  0
VERTEX
  8
0
  6
CONTINUOUS
 62
       7
  5
121
 10
-252.12551995
 20
-4.38554199
 30
0.0
  0
VERTEX
  8
0
  6
CONTINUOUS
 62
       7
  5
122
 10
-252.25843803
 20
-3.44343349
 30
0.0
  0
VERTEX
  8
0
  6
CONTINUOUS
 62
       7
  5
123
 10
-252.12551986
 20
-2.50531185
 30
0.0
  0
VERTEX
  8
0
  6
CONTINUOUS
 62
       7
  5
124
 10
-251.77037959
 20
-1.61173971
 30
0.0
  0
VERTEX
  8
0
  6
CONTINUOUS
 62
       7
  5
125
 10
-251.25843803
 20
-0.80343349
 30
0.0
  0
SEQEND
  8
0
  6
CONTINUOUS
 62
       7
  5
126
  0
POLYLINE
  8
0
  6
CONTINUOUS
 62
       7
  5
D6
 66
       1
 10
0.0
 20
0.0
 30
0.0
  0
VERTEX
  8
0
  6
CONTINUOUS
 62
       7
  5
127
 10
-258.78843803
 20
0.01656651
 30
0.0
  0
VERTEX
  8
0
  6
CONTINUOUS
 62
       7
  5
128
 10
-258.56082755
 20
-0.83028219
 30
0.0
  0
VERTEX
  8
0
  6
CONTINUOUS
 62
       7
  5
129
 10
-258.39517366
 20
-1.69250088
 30
0.0
  0
VERTEX
  8
0
  6
CONTINUOUS
 62
       7
  5
12A
 10
-258.29365195
 20
-2.56518588
 30
0.0
  0
VERTEX
  8
0
  6
CONTINUOUS
 62
       7
  5
12B
 10
-258.25843803
 20
-3.44343349
 30
0.0
  0
VERTEX
  8
0
  6
CONTINUOUS
 62
       7
  5
12C
 10
-258.29167363
 20
-4.33192329
 30
0.0
  0
VERTEX
  8
0
  6
CONTINUOUS
 62
       7
  5
12D
 10
-258.39258286
 20
-5.21507729
 30
0.0
  0
VERTEX
  8
0
  6
CONTINUOUS
 62
       7
  5
12E
 10
-258.55891968
 20
-6.0874094
 30
0.0
  0
VERTEX
  8
0
  6
CONTINUOUS
 62
       7
  5
12F
 10
-258.78843803
 20
-6.94343349
 30
0.0
  0
SEQEND
  8
0
  6
CONTINUOUS
 62
       7
  5
130
  0
POLYLINE
  8
0
  6
CONTINUOUS
 62
       7
  5
D7
 66
       1
 10
0.0
 20
0.0
 30
0.0
  0
VERTEX
  8
0
  6
CONTINUOUS
 62
       7
  5
131
 10
-242.54843803
 20
-11.24343349
 30
0.0
  0
VERTEX
  8
0
  6
CONTINUOUS
 62
       7
  5
132
 10
-242.82353244
 20
-10.29567018
 30
0.0
  0
VERTEX
  8
0
  6
CONTINUOUS
 62
       7
  5
133
 10
-243.06532424
 20
-9.33704422
 30
0.0
  0
VERTEX
  8
0
  6
CONTINUOUS
 62
       7
  5
134
 10
-243.27277269
 20
-8.36909597
 30
0.0
  0
VERTEX
  8
0
  6
CONTINUOUS
 62
       7
  5
135
 10
-243.44483702
 20
-7.39336581
 30
0.0
  0
VERTEX
  8
0
  6
CONTINUOUS
 62
       7
  5
136
 10
-243.58047647
 20
-6.41139412
 30
0.0
  0
VERTEX
  8
0
  6
CONTINUOUS
 62
       7
  5
137
 10
-243.6786503
 20
-5.42472125
 30
0.0
  0
VERTEX
  8
0
  6
CONTINUOUS
 62
       7
  5
138
 10
-243.73831774
 20
-4.43488758
 30
0.0
  0
VERTEX
  8
0
  6
CONTINUOUS
 62
       7
  5
139
 10
-243.75843803
 20
-3.44343349
 30
0.0
  0
VERTEX
  8
0
  6
CONTINUOUS
 62
       7
  5
13A
 10
-243.73831748
 20
-2.45335966
 30
0.0
  0
VERTEX
  8
0
  6
CONTINUOUS
 62
       7
  5
13B
 10
-243.67864999
 20
-1.46510498
 30
0.0
  0
VERTEX
  8
0
  6
CONTINUOUS
 62
       7
  5
13C
 10
-243.58047627
 20
-0.48009185
 30
0.0
  0
VERTEX
  8
0
  6
CONTINUOUS
 62
       7
  5
13D
 10
-243.44483699
 20
0.50025733
 30
0.0
  0
VERTEX
  8
0
  6
CONTINUOUS
 62
       7
  5
13E
 10
-243.27277284
 20
1.47452016
 30
0.0
  0
VERTEX
  8
0
  6
CONTINUOUS
 62
       7
  5
13F
 10
-243.0653245
 20
2.44127424
 30
0.0
  0
VERTEX
  8
0
  6
CONTINUOUS
 62
       7
  5
140
 10
-242.82353267
 20
3.39909715
 30
0.0
  0
VERTEX
  8
0
  6
CONTINUOUS
 62
       7
  5
141
 10
-242.54843803
 20
4.34656651
 30
0.0
  0
SEQEND
  8
0
  6
CONTINUOUS
 62
       7
  5
142
  0
POLYLINE
  8
0
  6
CONTINUOUS
 62
       7
  5
D8
 66
       1
 10
0.0
 20
0.0
 30
0.0
  0
VERTEX
  8
0
  6
CONTINUOUS
 62
       7
  5
143
 10
-242.54843803
 20
12.13656651
 30
0.0
  0
VERTEX
  8
0
  6
CONTINUOUS
 62
       7
  5
144
 10
-242.94904141
 20
11.41923293
 30
0.0
  0
VERTEX
  8
0
  6
CONTINUOUS
 62
       7
  5
145
 10
-243.28346666
 20
10.6615108
 30
0.0
  0
VERTEX
  8
0
  6
CONTINUOUS
 62
       7
  5
146
 10
-243.53859021
 20
9.87345545
 30
0.0
  0
VERTEX
  8
0
  6
CONTINUOUS
 62
       7
  5
147
 10
-243.70128852
 20
9.06512224
 30
0.0
  0
VERTEX
  8
0
  6
CONTINUOUS
 62
       7
  5
148
 10
-243.75843803
 20
8.24656651
 30
0.0
  0
VERTEX
  8
0
  6
CONTINUOUS
 62
       7
  5
149
 10
-243.70128912
 20
7.42574015
 30
0.0
  0
VERTEX
  8
0
  6
CONTINUOUS
 62
       7
  5
14A
 10
-243.53859059
 20
6.61477323
 30
0.0
  0
VERTEX
  8
0
  6
CONTINUOUS
 62
       7
  5
14B
 10
-243.28346651
 20
5.82421948
 30
0.0
  0
VERTEX
  8
0
  6
CONTINUOUS
 62
       7
  5
14C
 10
-242.94904096
 20
5.06463266
 30
0.0
  0
VERTEX
  8
0
  6
CONTINUOUS
 62
       7
  5
14D
 10
-242.54843803
 20
4.34656651
 30
0.0
  0
SEQEND
  8
0
  6
CONTINUOUS
 62
       7
  5
14E
  0
POLYLINE
  8
0
  6
CONTINUOUS
 62
       7
  5
D9
 66
       1
 10
0.0
 20
0.0
 30
0.0
  0
VERTEX
  8
0
  6
CONTINUOUS
 62
       7
  5
14F
 10
-242.54843803
 20
-11.24343349
 30
0.0
  0
VERTEX
  8
0
  6
CONTINUOUS
 62
       7
  5
150
 10
-242.94904063
 20
-11.96119118
 30
0.0
  0
VERTEX
  8
0
  6
CONTINUOUS
 62
       7
  5
151
 10
-243.28346591
 20
-12.72016079
 30
0.0
  0
VERTEX
  8
0
  6
CONTINUOUS
 62
       7
  5
152
 10
-243.5385899
 20
-13.51025156
 30
0.0
  0
VERTEX
  8
0
  6
CONTINUOUS
 62
       7
  5
153
 10
-243.7012886
 20
-14.32137271
 30
0.0
  0
VERTEX
  8
0
  6
CONTINUOUS
 62
       7
  5
154
 10
-243.75843803
 20
-15.14343349
 30
0.0
  0
VERTEX
  8
0
  6
CONTINUOUS
 62
       7
  5
155
 10
-243.70128869
 20
-15.96322068
 30
0.0
  0
VERTEX
  8
0
  6
CONTINUOUS
 62
       7
  5
156
 10
-243.53858984
 20
-16.77170762
 30
0.0
  0
VERTEX
  8
0
  6
CONTINUOUS
 62
       7
  5
157
 10
-243.28346566
 20
-17.55930097
 30
0.0
  0
VERTEX
  8
0
  6
CONTINUOUS
 62
       7
  5
158
 10
-242.94904033
 20
-18.31640738
 30
0.0
  0
VERTEX
  8
0
  6
CONTINUOUS
 62
       7
  5
159
 10
-242.54843803
 20
-19.03343349
 30
0.0
  0
SEQEND
  8
0
  6
CONTINUOUS
 62
       7
  5
15A
  0
LINE
  8
0
  6
CONTINUOUS
 62
       7
  5
DA
 10
-343.89468803
 20
4.35656651
 30
0.0
 11
-343.89468803
 21
-11.23343349
 31
0.0
  0
LINE
  8
0
  6
CONTINUOUS
 62
       7
  5
DB
 10
-316.89468803
 20
4.35656651
 30
0.0
 11
-316.89468803
 21
-11.23343349
 31
0.0
  0
LINE
  8
0
  6
CONTINUOUS
 62
       2
  5
DC
 10
-330.39468803
 20
-24.01823513
 30
0.0
 11
-330.39468803
 21
17.14656651
 31
0.0
  0
CIRCLE
  8
0
  6
CONTINUOUS
 62
       7
  5
DD
 10
-330.39921318
 20
-3.43709865
 30
0.0
 40
9.0
  0
CIRCLE
  8
0
  6
CONTINUOUS
 62
       7
  5
DE
 10
-330.39921318
 20
-3.43709865
 30
0.0
 40
10.0
  0
CIRCLE
  8
0
  6
CONTINUOUS
 62
       7
  5
DF
 10
-330.39921318
 20
-3.43709865
 30
0.0
 40
13.5
  0
CIRCLE
  8
0
  6
CONTINUOUS
 62
       2
  5
E0
 10
-330.39921318
 20
-3.43709865
 30
0.0
 40
3.0
  0
CIRCLE
  8
0
  6
CONTINUOUS
 62
       7
  5
E1
 10
-330.39921318
 20
-3.43709865
 30
0.0
 40
6.0
  0
CIRCLE
  8
0
  6
CONTINUOUS
 62
       7
  5
E2
 10
-330.39921318
 20
-3.43709865
 30
0.0
 40
4.0
  0
LINE
  8
0
  6
CONTINUOUS
 62
       7
  5
E3
 10
-343.89468803
 20
4.35656651
 30
0.0
 11
-330.39468803
 21
12.14656651
 31
0.0
  0
LINE
  8
0
  6
CONTINUOUS
 62
       2
  5
E4
 10
-348.89468803
 20
-3.44343349
 30
0.0
 11
-311.89468803
 21
-3.44343349
 31
0.0
  0
LINE
  8
0
  6
CONTINUOUS
 62
       7
  5
E5
 10
-336.39468803
 20
-6.90343349
 30
0.0
 11
-330.39468803
 21
-10.37343349
 31
0.0
  0
LINE
  8
0
  6
CONTINUOUS
 62
       7
  5
E6
 10
-330.39468803
 20
3.48656651
 30
0.0
 11
-324.39468803
 21
0.02656651
 31
0.0
  0
LINE
  8
0
  6
CONTINUOUS
 62
       7
  5
E7
 10
-330.39468803
 20
-10.37343349
 30
0.0
 11
-324.39468803
 21
-6.90343349
 31
0.0
  0
LINE
  8
0
  6
CONTINUOUS
 62
       7
  5
E8
 10
-336.39468803
 20
0.02656651
 30
0.0
 11
-330.39468803
 21
3.48656651
 31
0.0
  0
LINE
  8
0
  6
CONTINUOUS
 62
       7
  5
E9
 10
-324.39468803
 20
0.02656651
 30
0.0
 11
-324.39468803
 21
-6.90343349
 31
0.0
  0
LINE
  8
0
  6
CONTINUOUS
 62
       7
  5
EA
 10
-336.39468803
 20
0.02656651
 30
0.0
 11
-336.39468803
 21
-6.90343349
 31
0.0
  0
LINE
  8
0
  6
CONTINUOUS
 62
       7
  5
EB
 10
-330.39468803
 20
12.14656651
 30
0.0
 11
-316.89468803
 21
4.35656651
 31
0.0
  0
LINE
  8
0
  6
CONTINUOUS
 62
       7
  5
EC
 10
-316.89468803
 20
-11.23343349
 30
0.0
 11
-330.39468803
 21
-19.01823513
 31
0.0
  0
LINE
  8
0
  6
CONTINUOUS
 62
       7
  5
ED
 10
-343.89468803
 20
-11.23343349
 30
0.0
 11
-330.40373466
 21
-19.02345188
 31
0.0
  0
LINE
  8
0
  6
CONTINUOUS
 62
       7
  5
EE
 10
140.74156197
 20
-14.14343349
 30
0.0
 11
194.24156197
 21
-14.14343349
 31
0.0
  0
TEXT
  8
0
  6
CONTINUOUS
 62
       7
  5
EF
 10
-382.43666705
 20
247.0
 30
0.0
 40
9.0
  1
MODEL:DAT20*25*250
 41
1.05882353
  7
MX_NOTE_STANDARD
 11
-382.43666705
 21
251.5
 31
0.0
 73
       2
  0
LINE
  8
0
  6
CONTINUOUS
 62
       7
  5
F0
 10
-399.52490234
 20
-276.5
 30
0.0
 11
399.52490234
 21
-276.5
 31
0.0
  0
LINE
  8
0
  6
CONTINUOUS
 62
       7
  5
F1
 10
-399.52490234
 20
276.5
 30
0.0
 11
399.52490234
 21
276.5
 31
0.0
  0
LINE
  8
0
  6
CONTINUOUS
 62
       7
  5
F2
 10
-399.52490234
 20
276.5
 30
0.0
 11
-399.52490234
 21
-276.5
 31
0.0
  0
LINE
  8
0
  6
CONTINUOUS
 62
       7
  5
F3
 10
399.52490234
 20
276.5
 30
0.0
 11
399.52490234
 21
-276.5
 31
0.0
  0
ENDSEC
  0
EOF
