  0
SECTION
  2
HEADER
  0
ENDSEC
  0
SECTION
  2
TABLES
  0
TABLE
  2
LTYPE
 70
     4
  0
LTYPE
  2
CONTINUOUS
 70
    64
  3
Solid line
 72
    65
 73
     0
 40
0.000000
  0
LTYPE
  2
DASHED
 70
    64
  3
__ __ __ __ __ __ __ __ __ __ __ __ __ __ __
 72
    65
 73
     2
 40
3.500000
 49
2.000000
 49
-1.500000
  0
LTYPE
  2
CENTER
 70
    64
  3
____ _ ____ _ ____ _ ____ _ ____ _ ____ _ ____
 72
    65
 73
     4
 40
17.500000
 49
13.000000
 49
-1.500000
 49
1.500000
 49
-1.500000
  0
LTYPE
  2
PHANTOM
 70
    64
  3
_____ _ _ _____ _ _ _____ _ _ _____ _ _ ____  
 72
    65
 73
     6
 40
15.500000
 49
8.000000
 49
-1.500000
 49
1.500000
 49
-1.500000
 49
1.500000
 49
-1.500000
  0
LTYPE
  2
DASHED1
 70
    64
  3
__ __ __ __ __ __ __ __ __ __ __ __ __ __ __
 72
    65
 73
     2
 40
1.500000
 49
1.000000
 49
-0.500000
  0
LTYPE
  2
DASHED2
 70
    64
  3
__ __ __ __ __ __ __ __ __ __ __ __ __ __ __
 72
    65
 73
     2
 40
3.500000
 49
2.500000
 49
-1.000000
  0
LTYPE
  2
DASHED3
 70
    64
  3
__ __ __ __ __ __ __ __ __ __ __ __ __ __ __
 72
    65
 73
     2
 40
6.000000
 49
4.000000
 49
-2.000000
  0
LTYPE
  2
DASHED4
 70
    64
  3
__ __ __ __ __ __ __ __ __ __ __ __ __ __ __
 72
    65
 73
     2
 40
12.000000
 49
10.000000
 49
-2.000000
  0
LTYPE
  2
DASHED5
 70
    64
  3
__ __ __ __ __ __ __ __ __ __ __ __ __ __ __
 72
    65
 73
     2
 40
17.000000
 49
15.000000
 49
-2.000000
  0
LTYPE
  2
DASHED6
 70
    64
  3
__ __ __ __ __ __ __ __ __ __ __ __ __ __ __
 72
    65
 73
     2
 40
29.000000
 49
27.000000
 49
-2.000000
  0
LTYPE
  2
PHANTOM1
 70
    64
  3
_____ _ _ _____ _ _ _____ _ _ _____ _ _ ____  
 72
    65
 73
     6
 40
31.000000
 49
25.000000
 49
-1.500000
 49
1.000000
 49
-1.000000
 49
1.000000
 49
-1.500000
  0
LTYPE
  2
PHANTOM2
 70
    64
  3
_____ _ _ _____ _ _ _____ _ _ _____ _ _ ____  
 72
    65
 73
     6
 40
36.000000
 49
27.000000
 49
-1.500000
 49
2.500000
 49
-1.000000
 49
2.500000
 49
-1.500000
  0
LTYPE
  2
PHANTOM3
 70
    64
  3
_____ _ _ _____ _ _ _____ _ _ _____ _ _ ____  
 72
    65
 73
     6
 40
78.000000
 49
64.000000
 49
-2.000000
 49
4.000000
 49
-2.000000
 49
4.000000
 49
-2.000000
  0
LTYPE
  2
CENTER1
 70
    64
  3
____ _ ____ _ ____ _ ____ _ ____ _ ____ _ ____
 72
    65
 73
     4
 40
19.000000
 49
14.000000
 49
-1.000000
 49
3.000000
 49
-1.000000
  0
LTYPE
  2
CENTER2
 70
    64
  3
____ _ ____ _ ____ _ ____ _ ____ _ ____ _ ____
 72
    65
 73
     4
 40
28.500000
 49
25.000000
 49
-1.000000
 49
1.500000
 49
-1.000000
  0
LTYPE
  2
CENTER3
 70
    64
  3
____ _ ____ _ ____ _ ____ _ ____ _ ____ _ ____
 72
    65
 73
     4
 40
31.500000
 49
27.000000
 49
-1.000000
 49
2.500000
 49
-1.000000
  0
LTYPE
  2
CENTER4
 70
    64
  3
____ _ ____ _ ____ _ ____ _ ____ _ ____ _ ____
 72
    65
 73
     4
 40
50.000000
 49
45.000000
 49
-1.000000
 49
3.000000
 49
-1.000000
  0
LTYPE
  2
CENTER5
 70
    64
  3
____ _ ____ _ ____ _ ____ _ ____ _ ____ _ ____
 72
    65
 73
     4
 40
100.000000
 49
92.000000
 49
-2.000000
 49
4.000000
 49
-2.000000
  0
LTYPE
  2
SBK1
 70
    64
  3
______ _ _ _ ______ _ _ _ ______ _ _ _ _____  
 72
    65
 73
     8
 40
60.500000
 49
45.000000
 49
-2.000000
 49
2.500000
 49
-2.000000
 49
2.500000
 49
-2.000000
 49
2.500000
 49
-2.000000
  0
LTYPE
  2
SBK2
 70
    64
  3
______ _ _ _ ______ _ _ _ ______ _ _ _ _____  
 72
    65
 73
     8
 40
84.000000
 49
64.000000
 49
-2.000000
 49
4.000000
 49
-2.000000
 49
4.000000
 49
-2.000000
 49
4.000000
 49
-2.000000
  0
LTYPE
  2
STCH
 70
    64
  3
__ __ __ __ __ __ __ __ __ __ __ __ __ __ __
 72
    65
 73
     2
 40
3.000000
 49
1.000000
 49
-2.000000
  0
LTYPE
  2
MTCH
 70
    64
  3
_____ _ _ _____ _ _ _____ _ _ _____ _ _ ____  
 72
    65
 73
     6
 40
80.000000
 49
66.000000
 49
-2.000000
 49
4.000000
 49
-2.000000
 49
4.000000
 49
-2.000000
  0
ENDTAB
  0
TABLE
  2
LAYER
 70
     1
  0
LAYER
  2
0
 70
     0
 62
     7
  6
CONTINUOUS
  0
ENDTAB
  0
TABLE
  2
STYLE
 70
     1
  0
STYLE
  2
STANDARD
 70
     0
 40
0.000000
 41
1.000000
 50
0.000000
 71
     0
 42
0.200000
  3
txt
  4
BIGFONT
  0
ENDTAB
  0
TABLE
  2
VIEW
 70
     0
  0
ENDTAB
  0
ENDSEC
  0
SECTION
  2
BLOCKS
  0
ENDSEC
  0
SECTION
  2
ENTITIES
  0
LINE
  8
0
 62
     1
 10
-185.436783
 20
-138.954254
 11
-185.436783
 21
115.604218
  0
LINE
  8
0
 62
     1
 10
185.436783
 20
115.604218
 11
185.436783
 21
-138.954254
  0
LINE
  8
0
 62
     1
 10
-185.436783
 20
-138.954254
 11
185.436783
 21
-138.954254
  0
LINE
  8
0
 62
     1
 10
-185.436783
 20
115.604218
 11
185.436783
 21
115.604218
  0
LINE
  8
0
 62
     1
 10
-185.436783
 20
101.303177
 11
-109.164589
 21
101.303177
  0
LINE
  8
0
 62
     1
 10
-109.164589
 20
101.303177
 11
-109.164589
 21
115.604218
  0
LINE
  8
0
 62
     1
 10
109.164581
 20
-124.653229
 11
185.436783
 21
-124.653229
  0
LINE
  8
0
 62
     1
 10
109.164581
 20
101.303177
 11
185.436783
 21
101.303177
  0
LINE
  8
0
 62
     1
 10
109.164581
 20
115.604218
 11
109.164581
 21
101.303177
  0
LINE
  8
0
 62
     1
 10
109.164581
 20
-124.653229
 11
109.164581
 21
-138.954254
  0
TEXT
  8
0
 62
     1
 10
113.360985
 20
105.635330
 40
4.242641
  1
DATE : JUN ,1992
 50
0.000000
 41
1.052631
 51
0.000000
  7
STANDARD
  0
TEXT
  8
0
 62
     1
 10
-172.764969
 20
104.953705
 40
5.000000
  1
SLIM BRAKE
 50
0.000000
 41
1.052632
 51
0.000000
  7
STANDARD
  0
TEXT
  8
0
 62
     1
 10
114.336403
 20
-135.303741
 40
5.000000
  1
KOGANEI CORP.
 50
0.000000
 41
1.052632
 51
0.000000
  7
STANDARD
  0
TEXT
  8
0
 10
-166.485077
 20
84.294273
 40
5.000000
  1
MODEL : DAR 40*ST(25)
 50
0.000000
 41
1.052632
 51
0.000000
  7
STANDARD
  0
POINT
  8
0
 10
-76.800003
 20
-66.500000
  0
POINT
  8
0
 10
120.199997
 20
-66.500000
  0
LINE
  8
0
 10
-120.799988
 20
-59.500000
 11
-96.799988
 21
-59.500000
  0
LINE
  8
0
 10
-120.799988
 20
-73.500000
 11
-96.799988
 21
-73.500000
  0
LINE
  8
0
 10
-98.799988
 20
-59.500000
 11
-98.799988
 21
-73.500000
  0
LINE
  8
0
 10
-96.799988
 20
-73.500000
 11
-96.799988
 21
-59.500000
  0
LINE
  8
0
 10
-96.799927
 20
-59.500050
 11
-95.799927
 21
-58.500050
  0
LINE
  8
0
 10
-96.799957
 20
-73.499977
 11
-95.799934
 21
-74.499985
  0
LINE
  8
0
 10
-95.799988
 20
-74.500000
 11
-95.799988
 21
-58.500000
  0
LINE
  8
0
 10
-91.799988
 20
-70.372986
 11
-91.799988
 21
-62.627014
  0
LINE
  8
0
 10
-95.799988
 20
-62.627014
 11
-91.799988
 21
-62.627014
  0
LINE
  8
0
 10
-95.799988
 20
-70.372986
 11
-91.799988
 21
-70.372986
  0
LINE
  8
0
 10
-95.799988
 20
-62.626980
 11
-91.799957
 21
-70.372948
  0
LINE
  8
0
 10
-91.799973
 20
-62.627029
 11
-95.799973
 21
-70.373001
  0
LINE
  8
0
 10
-95.799988
 20
-58.500000
 11
-90.799988
 21
-58.500000
  0
LINE
  8
0
 10
-95.799988
 20
-74.500000
 11
-90.799988
 21
-74.500000
  0
LINE
  8
0
 10
-90.799988
 20
-51.500000
 11
-90.799988
 21
-81.500000
  0
LINE
  8
0
 10
-87.468994
 20
-90.171356
 11
-80.300003
 21
-90.171356
  0
LINE
  8
0
 10
-89.299988
 20
-46.000000
 11
-89.299988
 21
-87.000000
  0
LINE
  8
0
 10
-89.299965
 20
-46.000046
 11
-87.468971
 21
-42.828671
  0
LINE
  8
0
 10
-89.299980
 20
-87.000015
 11
-87.468987
 21
-90.171364
  0
LINE
  8
0
 10
-80.300003
 20
-87.000000
 11
-79.800003
 21
-87.000000
  0
LINE
  8
0
 10
-79.800003
 20
-46.000000
 11
-79.800003
 21
-87.000000
  0
LINE
  8
0
 10
-80.300003
 20
-42.828644
 11
-80.300003
 21
-90.171356
  0
LINE
  8
0
 10
-80.300003
 20
-46.000000
 11
-79.800003
 21
-46.000000
  0
LINE
  8
0
 10
-87.468994
 20
-42.828644
 11
-80.300003
 21
-42.828644
  0
LINE
  8
0
 10
-87.468994
 20
-78.335678
 11
-80.300003
 21
-78.335678
  0
LINE
  8
0
 10
-87.468994
 20
-54.664322
 11
-80.300003
 21
-54.664322
  0
LINE
  8
0
 10
-89.541351
 20
-50.000000
 11
-89.299988
 21
-50.000000
  0
LINE
  8
0
 10
-89.541351
 20
-83.000000
 11
-89.299988
 21
-83.000000
  0
LINE
  8
0
 10
-90.800003
 20
-51.499958
 11
-89.541397
 21
-49.999962
  0
LINE
  8
0
 10
-90.800003
 20
-81.499985
 11
-89.541367
 21
-82.999985
  0
LINE
  8
0
 10
-90.380432
 20
-82.000000
 11
-89.299988
 21
-82.000000
  0
LINE
  8
0
 10
-90.380463
 20
-51.000000
 11
-89.299988
 21
-51.000000
  0
LINE
  8
0
 10
120.199997
 20
-51.500000
 11
120.199997
 21
-81.500000
  0
LINE
  8
0
 10
118.412231
 20
-50.000084
 11
120.199844
 21
-51.500084
  0
LINE
  8
0
 10
118.412613
 20
-83.000244
 11
120.200287
 21
-81.500244
  0
LINE
  8
0
 10
93.199997
 20
-50.000000
 11
118.412369
 21
-50.000000
  0
LINE
  8
0
 10
93.199997
 20
-83.000000
 11
118.412369
 21
-83.000000
  0
LINE
  8
0
 10
118.412369
 20
-83.000000
 11
118.412369
 21
-82.000000
  0
LINE
  8
0
 10
118.412369
 20
-51.000000
 11
118.412369
 21
-50.000000
  0
LINE
  8
0
 10
93.199997
 20
-50.000000
 11
118.412369
 21
-50.000000
  0
LINE
  8
0
 10
95.199997
 20
-51.000000
 11
119.604111
 21
-51.000000
  0
LINE
  8
0
 10
95.199997
 20
-82.000000
 11
119.604111
 21
-82.000000
  0
LINE
  8
0
 10
95.199997
 20
-50.000000
 11
95.199997
 21
-51.000000
  0
LINE
  8
0
 10
95.199997
 20
-82.000000
 11
95.199997
 21
-83.000000
  0
LINE
  8
0
 10
93.199997
 20
-45.699997
 11
93.199997
 21
-87.300003
  0
LINE
  8
0
 10
95.200012
 20
-51.000031
 11
93.467957
 21
-50.000023
  0
LINE
  8
0
 10
95.199860
 20
-81.999817
 11
93.467819
 21
-82.999817
  0
LINE
  8
0
 10
93.199997
 20
-45.699997
 11
93.199997
 21
-87.300003
  0
LINE
  8
0
 10
78.199997
 20
-45.699997
 11
78.199997
 21
-87.300003
  0
LINE
  8
0
 10
-124.820801
 20
-66.500000
 11
124.170624
 21
-66.500000
  0
LINE
  8
0
 10
108.199997
 20
-59.644394
 11
108.199997
 21
-73.791000
  0
LINE
  8
0
 10
85.199997
 20
-54.274994
 11
85.199997
 21
-43.591354
  0
LINE
  8
0
 10
-121.799988
 20
-60.500000
 11
-98.799988
 21
-60.500000
  0
LINE
  8
0
 10
-121.799988
 20
-72.500000
 11
-98.799988
 21
-72.500000
  0
LINE
  8
0
 10
-120.799988
 20
-59.500000
 11
-120.799988
 21
-73.500000
  0
LINE
  8
0
 10
-120.799973
 20
-59.500042
 11
-121.799973
 21
-60.500046
  0
LINE
  8
0
 10
-121.799988
 20
-60.500000
 11
-121.799988
 21
-72.500000
  0
LINE
  8
0
 10
-121.799957
 20
-72.499985
 11
-120.799957
 21
-73.499985
  0
LINE
  8
0
 10
-31.800003
 20
-35.541451
 11
-31.800003
 21
-40.500000
  0
LINE
  8
0
 10
-18.200005
 20
-26.500000
 11
-16.300003
 21
-26.500000
  0
LINE
  8
0
 10
-33.800007
 20
-36.696144
 11
-24.799999
 21
-31.499985
  0
LINE
  8
0
 10
-19.400002
 20
-27.800003
 11
-18.200005
 21
-27.800003
  0
LINE
  8
0
 10
-13.800003
 20
-31.500000
 11
-13.800003
 21
-40.500000
  0
LINE
  8
0
 10
-33.800003
 20
-31.500000
 11
-33.800003
 21
-40.500000
  0
LINE
  8
0
 10
-33.800003
 20
-31.500000
 11
-13.800003
 21
-31.500000
  0
LINE
  8
0
 10
-21.300003
 20
-26.500000
 11
-19.400002
 21
-26.500000
  0
LINE
  8
0
 10
-21.300003
 20
-26.500000
 11
-21.300003
 21
-28.199997
  0
LINE
  8
0
 10
-16.300003
 20
-26.500000
 11
-16.300003
 21
-28.199997
  0
LINE
  8
0
 10
-21.800003
 20
-28.199997
 11
-15.800003
 21
-28.199997
  0
LINE
  8
0
 10
-15.800003
 20
-28.199997
 11
-15.800003
 21
-31.500000
  0
LINE
  8
0
 10
-21.800003
 20
-28.199997
 11
-21.800003
 21
-31.500000
  0
LINE
  8
0
 10
-18.200005
 20
-26.500000
 11
-18.200005
 21
-27.800003
  0
LINE
  8
0
 10
-19.400002
 20
-26.500000
 11
-19.400002
 21
-27.800003
  0
LINE
  8
0
 10
-76.800003
 20
-40.500000
 11
-76.800003
 21
-92.500000
  0
LINE
  8
0
 10
-79.800003
 20
-50.000000
 11
-76.800003
 21
-50.000000
  0
LINE
  8
0
 10
-79.800003
 20
-83.000000
 11
-76.800003
 21
-83.000000
  0
LINE
  8
0
 10
-78.800003
 20
-50.000000
 11
-78.800003
 21
-83.000000
  0
LINE
  8
0
 10
-79.800003
 20
-82.000000
 11
-78.800003
 21
-82.000000
  0
LINE
  8
0
 10
-79.800003
 20
-51.000000
 11
-78.800003
 21
-51.000000
  0
LINE
  8
0
 10
12.199997
 20
-45.699997
 11
93.199997
 21
-45.699997
  0
LINE
  8
0
 10
-49.800003
 20
-49.000053
 11
-49.800003
 21
-39.182800
  0
LINE
  8
0
 10
-1.800003
 20
-49.000053
 11
-1.800003
 21
-39.182800
  0
LINE
  8
0
 10
-9.800003
 20
-40.500000
 11
-9.800003
 21
-92.500000
  0
LINE
  8
0
 10
6.199997
 20
-40.500000
 11
6.199997
 21
-92.500000
  0
LINE
  8
0
 10
-76.800003
 20
-40.500000
 11
6.199997
 21
-40.500000
  0
LINE
  8
0
 10
-76.800003
 20
-92.500000
 11
6.199997
 21
-92.500000
  0
LINE
  8
0
 10
93.199997
 20
-87.300003
 11
12.199997
 21
-87.300003
  0
LINE
  8
0
 10
6.199997
 20
-41.500000
 11
11.699997
 21
-41.500000
  0
LINE
  8
0
 10
6.199997
 20
-51.500000
 11
11.699997
 21
-51.500000
  0
LINE
  8
0
 10
11.699951
 20
-51.499996
 11
12.199951
 21
-50.633965
  0
LINE
  8
0
 10
11.699997
 20
-51.500000
 11
11.699997
 21
-41.500000
  0
LINE
  8
0
 10
11.699966
 20
-41.500008
 11
12.199966
 21
-42.366032
  0
LINE
  8
0
 10
12.199997
 20
-50.633976
 11
12.199997
 21
-42.366028
  0
LINE
  8
0
 10
6.199997
 20
-81.500000
 11
11.699997
 21
-81.500000
  0
LINE
  8
0
 10
11.699966
 20
-81.500000
 11
12.199966
 21
-82.366020
  0
LINE
  8
0
 10
12.199997
 20
-82.366028
 11
12.199997
 21
-90.633972
  0
LINE
  8
0
 10
6.199997
 20
-91.500000
 11
11.699997
 21
-91.500000
  0
LINE
  8
0
 10
11.699997
 20
-81.500000
 11
11.699997
 21
-91.500000
  0
LINE
  8
0
 10
11.700066
 20
-91.500038
 11
12.200066
 21
-90.634018
  0
CIRCLE
  8
0
 10
108.199997
 20
-66.500000
 40
5.000000
  0
POLYLINE
  8
0
 66
     1
  0
VERTEX
  8
0
 10
-87.468994
 20
-54.664322
  0
VERTEX
  8
0
 10
-87.752899
 20
-55.621761
  0
VERTEX
  8
0
 10
-88.014343
 20
-56.586731
  0
VERTEX
  8
0
 10
-88.252892
 20
-57.558548
  0
VERTEX
  8
0
 10
-88.468132
 20
-58.536526
  0
VERTEX
  8
0
 10
-88.659637
 20
-59.519978
  0
VERTEX
  8
0
 10
-88.826988
 20
-60.508224
  0
VERTEX
  8
0
 10
-88.969749
 20
-61.500580
  0
VERTEX
  8
0
 10
-89.087509
 20
-62.496353
  0
VERTEX
  8
0
 10
-89.179832
 20
-63.494869
  0
VERTEX
  8
0
 10
-89.246300
 20
-64.495438
  0
VERTEX
  8
0
 10
-89.286499
 20
-65.497375
  0
VERTEX
  8
0
 10
-89.299988
 20
-66.500000
  0
VERTEX
  8
0
 10
-89.286499
 20
-67.502625
  0
VERTEX
  8
0
 10
-89.246300
 20
-68.504562
  0
VERTEX
  8
0
 10
-89.179832
 20
-69.505127
  0
VERTEX
  8
0
 10
-89.087509
 20
-70.503647
  0
VERTEX
  8
0
 10
-88.969749
 20
-71.499420
  0
VERTEX
  8
0
 10
-88.826988
 20
-72.491776
  0
VERTEX
  8
0
 10
-88.659637
 20
-73.480019
  0
VERTEX
  8
0
 10
-88.468132
 20
-74.463478
  0
VERTEX
  8
0
 10
-88.252892
 20
-75.441452
  0
VERTEX
  8
0
 10
-88.014343
 20
-76.413269
  0
VERTEX
  8
0
 10
-87.752899
 20
-77.378242
  0
VERTEX
  8
0
 10
-87.468994
 20
-78.335678
  0
SEQEND
  0
POLYLINE
  8
0
 66
     1
  0
VERTEX
  8
0
 10
-87.468994
 20
-78.335678
  0
VERTEX
  8
0
 10
-87.912537
 20
-79.107155
  0
VERTEX
  8
0
 10
-88.307152
 20
-79.912758
  0
VERTEX
  8
0
 10
-88.645805
 20
-80.746788
  0
VERTEX
  8
0
 10
-88.921455
 20
-81.603569
  0
VERTEX
  8
0
 10
-89.127060
 20
-82.477409
  0
VERTEX
  8
0
 10
-89.255585
 20
-83.362625
  0
VERTEX
  8
0
 10
-89.299988
 20
-84.253525
  0
VERTEX
  8
0
 10
-89.255585
 20
-85.144424
  0
VERTEX
  8
0
 10
-89.127060
 20
-86.029640
  0
VERTEX
  8
0
 10
-88.921455
 20
-86.903473
  0
VERTEX
  8
0
 10
-88.645805
 20
-87.760254
  0
VERTEX
  8
0
 10
-88.307152
 20
-88.594284
  0
VERTEX
  8
0
 10
-87.912537
 20
-89.399879
  0
VERTEX
  8
0
 10
-87.468994
 20
-90.171356
  0
SEQEND
  0
POLYLINE
  8
0
 66
     1
  0
VERTEX
  8
0
 10
-87.468994
 20
-42.828644
  0
VERTEX
  8
0
 10
-87.912537
 20
-43.600121
  0
VERTEX
  8
0
 10
-88.307152
 20
-44.405720
  0
VERTEX
  8
0
 10
-88.645805
 20
-45.239750
  0
VERTEX
  8
0
 10
-88.921455
 20
-46.096527
  0
VERTEX
  8
0
 10
-89.127060
 20
-46.970364
  0
VERTEX
  8
0
 10
-89.255585
 20
-47.855576
  0
VERTEX
  8
0
 10
-89.299988
 20
-48.746475
  0
VERTEX
  8
0
 10
-89.255585
 20
-49.637375
  0
VERTEX
  8
0
 10
-89.127060
 20
-50.522591
  0
VERTEX
  8
0
 10
-88.921455
 20
-51.396431
  0
VERTEX
  8
0
 10
-88.645805
 20
-52.253212
  0
VERTEX
  8
0
 10
-88.307152
 20
-53.087246
  0
VERTEX
  8
0
 10
-87.912537
 20
-53.892845
  0
VERTEX
  8
0
 10
-87.468994
 20
-54.664322
  0
SEQEND
  0
POINT
  8
0
 10
-76.800003
 20
33.333336
  0
POINT
  8
0
 10
120.199997
 20
33.333336
  0
POINT
  8
0
 10
-76.800003
 20
33.333336
  0
POINT
  8
0
 10
-49.800003
 20
16.333336
  0
POINT
  8
0
 10
85.199997
 20
33.333336
  0
LINE
  8
0
 10
-76.800003
 20
59.333336
 11
-76.800003
 21
7.333336
  0
LINE
  8
0
 10
93.199997
 20
54.133354
 11
93.199997
 21
12.533348
  0
LINE
  8
0
 10
78.199997
 20
54.133354
 11
78.199997
 21
12.533348
  0
LINE
  8
0
 10
12.199997
 20
54.133339
 11
93.199997
 21
54.133339
  0
LINE
  8
0
 10
-9.800003
 20
59.333336
 11
-9.800003
 21
7.333336
  0
LINE
  8
0
 10
6.199997
 20
59.333336
 11
6.199997
 21
7.333336
  0
LINE
  8
0
 10
-76.800003
 20
59.333336
 11
6.199997
 21
59.333336
  0
LINE
  8
0
 10
-76.800003
 20
7.333336
 11
6.199997
 21
7.333336
  0
LINE
  8
0
 10
93.199997
 20
12.533333
 11
12.199997
 21
12.533333
  0
LINE
  8
0
 10
6.199997
 20
58.333336
 11
11.699997
 21
58.333336
  0
LINE
  8
0
 10
6.199997
 20
48.333336
 11
11.699997
 21
48.333336
  0
LINE
  8
0
 10
11.699951
 20
48.333340
 11
12.199951
 21
49.199364
  0
LINE
  8
0
 10
11.699997
 20
48.333336
 11
11.699997
 21
58.333336
  0
LINE
  8
0
 10
11.699936
 20
58.333309
 11
12.199936
 21
57.467285
  0
LINE
  8
0
 10
12.199997
 20
49.199364
 11
12.199997
 21
57.467308
  0
LINE
  8
0
 10
6.199997
 20
18.333336
 11
11.699997
 21
18.333336
  0
LINE
  8
0
 10
11.699951
 20
18.333340
 11
12.199951
 21
17.467312
  0
LINE
  8
0
 10
12.199997
 20
17.467308
 11
12.199997
 21
9.199364
  0
LINE
  8
0
 10
6.199997
 20
8.333336
 11
11.699997
 21
8.333336
  0
LINE
  8
0
 10
11.699997
 20
18.333336
 11
11.699997
 21
8.333336
  0
LINE
  8
0
 10
11.700081
 20
8.333288
 11
12.200081
 21
9.199314
  0
LINE
  8
0
 10
-18.200005
 20
44.260277
 11
-18.200005
 21
39.406395
  0
LINE
  8
0
 10
-19.400002
 20
44.260277
 11
-19.400002
 21
39.406395
  0
LINE
  8
0
 10
-13.800003
 20
54.833336
 11
-13.800003
 21
38.833336
  0
LINE
  8
0
 10
-31.800003
 20
56.833336
 11
-15.800003
 21
56.833336
  0
LINE
  8
0
 10
-33.800003
 20
54.833336
 11
-33.800003
 21
38.833336
  0
LINE
  8
0
 10
-31.799988
 20
56.833328
 11
-33.799992
 21
54.833328
  0
LINE
  8
0
 10
-15.800007
 20
56.833305
 11
-13.800011
 21
54.833305
  0
LINE
  8
0
 10
-31.799999
 20
36.833317
 11
-33.799995
 21
38.833313
  0
LINE
  8
0
 10
-15.800007
 20
36.833344
 11
-13.800003
 21
38.833344
  0
LINE
  8
0
 10
-30.300003
 20
52.488029
 11
-30.300003
 21
50.178642
  0
LINE
  8
0
 10
-26.300003
 20
52.488029
 11
-26.300003
 21
50.178642
  0
LINE
  8
0
 10
-30.300003
 20
52.488060
 11
-28.300007
 21
53.642754
  0
LINE
  8
0
 10
-28.300011
 20
49.023941
 11
-26.300011
 21
50.178642
  0
LINE
  8
0
 10
-28.300003
 20
53.642742
 11
-26.300003
 21
52.488041
  0
LINE
  8
0
 10
-30.299988
 20
50.178642
 11
-28.299988
 21
49.023941
  0
LINE
  8
0
 10
-22.799995
 20
56.833340
 11
-13.799999
 21
47.833344
  0
LINE
  8
0
 10
-33.799995
 20
45.833344
 11
-24.799995
 21
36.833344
  0
LINE
  8
0
 10
-31.800003
 20
36.833336
 11
-15.800003
 21
36.833336
  0
LINE
  8
0
 10
-1.800003
 20
32.008110
 11
-1.800003
 21
18.552452
  0
LINE
  8
0
 10
-8.953003
 20
25.333336
 11
4.379204
 21
25.333336
  0
LINE
  8
0
 10
85.199997
 20
40.008110
 11
85.199997
 21
26.552452
  0
LINE
  8
0
 10
-56.953007
 20
16.333336
 11
-43.620796
 21
16.333336
  0
LINE
  8
0
 10
-1.800003
 20
48.008110
 11
-1.800003
 21
34.552452
  0
LINE
  8
0
 10
-8.953003
 20
41.333336
 11
4.379204
 21
41.333336
  0
LINE
  8
0
 10
120.199997
 20
43.333336
 11
120.199997
 21
23.333328
  0
LINE
  8
0
 10
94.199997
 20
43.333336
 11
120.199997
 21
43.333336
  0
LINE
  8
0
 10
94.199997
 20
23.333328
 11
120.199997
 21
23.333328
  0
LINE
  8
0
  6
DASHED
 10
103.199997
 20
43.333336
 11
103.199997
 21
23.333328
  0
LINE
  8
0
  6
DASHED
 10
113.199997
 20
43.333336
 11
113.199997
 21
23.333328
  0
LINE
  8
0
 10
108.199997
 20
47.333336
 11
108.199997
 21
19.333328
  0
LINE
  8
0
 10
94.199997
 20
16.833328
 11
94.199997
 21
23.333328
  0
LINE
  8
0
 10
94.199997
 20
43.333336
 11
94.199997
 21
49.833336
  0
LINE
  8
0
 10
-90.800003
 20
17.833359
 11
-90.800003
 21
48.833321
  0
LINE
  8
0
 10
-98.800003
 20
26.333321
 11
-98.800003
 21
40.333336
  0
LINE
  8
0
 10
-78.800003
 20
49.833321
 11
-78.800003
 21
16.833359
  0
LINE
  8
0
 10
-121.800003
 20
39.333336
 11
-121.800003
 21
27.333336
  0
LINE
  8
0
 10
-121.799934
 20
39.333202
 11
-120.799957
 21
40.333206
  0
LINE
  8
0
 10
-120.800003
 20
40.333336
 11
-120.800003
 21
26.333321
  0
LINE
  8
0
 10
-121.800003
 20
39.333336
 11
-98.800003
 21
39.333336
  0
LINE
  8
0
 10
-90.800003
 20
40.333351
 11
-120.800003
 21
40.333351
  0
LINE
  8
0
 10
-90.800003
 20
48.833321
 11
-89.299988
 21
48.833321
  0
LINE
  8
0
 10
-76.800003
 20
49.833321
 11
-79.800003
 21
49.833321
  0
LINE
  8
0
 10
-90.799950
 20
48.833225
 11
-89.799965
 21
49.833221
  0
LINE
  8
0
 10
-89.800018
 20
49.833321
 11
-89.800018
 21
16.833359
  0
LINE
  8
0
 10
93.199997
 20
49.833336
 11
94.199997
 21
49.833336
  0
LINE
  8
0
 10
-120.799973
 20
26.333385
 11
-121.799973
 21
27.333391
  0
LINE
  8
0
 10
-98.800003
 20
27.333336
 11
-121.800003
 21
27.333336
  0
LINE
  8
0
 10
-120.800003
 20
26.333321
 11
-90.800003
 21
26.333321
  0
LINE
  8
0
 10
-78.800003
 20
17.833359
 11
-79.800003
 21
17.833359
  0
LINE
  8
0
 10
-89.800018
 20
16.833359
 11
-89.299988
 21
16.833359
  0
LINE
  8
0
 10
-89.800049
 20
16.833334
 11
-90.800026
 21
17.833317
  0
LINE
  8
0
 10
94.199997
 20
16.833328
 11
93.199997
 21
16.833328
  0
LINE
  8
0
 10
-126.040070
 20
33.333336
 11
125.194366
 21
33.333336
  0
LINE
  8
0
 10
-87.468994
 20
57.004692
 11
-79.800003
 21
57.004692
  0
LINE
  8
0
 10
-79.800003
 20
57.004692
 11
-79.800003
 21
9.661980
  0
LINE
  8
0
 10
-80.300003
 20
57.004692
 11
-80.300003
 21
9.661980
  0
LINE
  8
0
 10
-89.299973
 20
53.833267
 11
-87.468979
 21
57.004646
  0
LINE
  8
0
 10
-89.299988
 20
53.833336
 11
-89.299988
 21
12.833336
  0
LINE
  8
0
 10
-89.299988
 20
12.833334
 11
-87.468994
 21
9.661987
  0
LINE
  8
0
 10
-87.468994
 20
9.661980
 11
-79.800003
 21
9.661980
  0
LINE
  8
0
 10
-89.299988
 20
49.833321
 11
-89.800018
 21
49.833321
  0
LINE
  8
0
 10
-79.800003
 20
48.833321
 11
-78.800003
 21
48.833321
  0
LINE
  8
0
 10
-89.299988
 20
17.833359
 11
-90.800003
 21
17.833359
  0
LINE
  8
0
 10
-79.800003
 20
16.833359
 11
-76.800003
 21
16.833359
  0
LINE
  8
0
 10
-49.800003
 20
23.008110
 11
-49.800003
 21
9.552452
  0
CIRCLE
  8
0
 10
-18.800003
 20
41.833336
 40
2.500000
  0
CIRCLE
  8
0
 10
-1.800003
 20
41.333336
 40
4.250000
  0
CIRCLE
  8
0
 10
-18.800003
 20
41.833336
 40
3.000000
  0
CIRCLE
  8
0
 10
-28.300003
 20
51.333336
 40
4.250000
  0
CIRCLE
  8
0
 10
-1.800003
 20
25.333336
 40
5.000000
  0
CIRCLE
  8
0
 10
85.199997
 20
33.333336
 40
5.000000
  0
CIRCLE
  8
0
 10
-1.800003
 20
25.333336
 40
4.250000
  0
CIRCLE
  8
0
 10
-1.800003
 20
41.333336
 40
5.000000
  0
CIRCLE
  8
0
 10
-28.300003
 20
51.333336
 40
4.750000
  0
ARC
  8
0
 10
-50.130112
 20
45.168846
 40
39.169880
 50
162.412216
 51
197.587738
  0
ARC
  8
0
 10
-50.130112
 20
21.497185
 40
39.169880
 50
162.412186
 51
197.587708
  0
CIRCLE
  8
0
 10
85.199997
 20
33.333336
 40
4.250000
  0
CIRCLE
  8
0
 10
-49.800003
 20
16.333336
 40
5.000000
  0
CIRCLE
  8
0
 10
-49.800003
 20
16.333336
 40
4.250000
  0
POINT
  8
0
 10
-155.300018
 20
-66.500000
  0
POINT
  8
0
 10
-129.300018
 20
-66.500000
  0
LINE
  8
0
 10
-175.800018
 20
-54.664322
 11
-175.800018
 21
-78.335678
  0
LINE
  8
0
 10
-134.800018
 20
-54.664322
 11
-134.800018
 21
-78.335678
  0
LINE
  8
0
 10
-175.799835
 20
-54.664471
 11
-155.299896
 21
-42.828812
  0
LINE
  8
0
 10
-155.299957
 20
-90.171356
 11
-134.799957
 21
-78.335686
  0
LINE
  8
0
 10
-155.300125
 20
-42.828827
 11
-134.800125
 21
-54.664501
  0
LINE
  8
0
 10
-175.799927
 20
-78.335709
 11
-155.299988
 21
-90.171371
  0
LINE
  8
0
 10
-184.627731
 20
-66.500000
 11
-125.864891
 21
-66.500000
  0
LINE
  8
0
 10
-155.300018
 20
-37.557434
 11
-155.300018
 21
-95.688400
  0
LINE
  8
0
 10
-181.300018
 20
-43.444359
 11
-181.300018
 21
-89.555641
  0
LINE
  8
0
 10
-129.300018
 20
-43.444359
 11
-129.300018
 21
-89.555641
  0
LINE
  8
0
 10
-178.355652
 20
-92.500000
 11
-132.244385
 21
-92.500000
  0
LINE
  8
0
 10
-178.355652
 20
-40.500000
 11
-132.244385
 21
-40.500000
  0
LINE
  8
0
 10
-175.300018
 20
-81.829453
 11
-175.300018
 21
-90.950089
  0
LINE
  8
0
 10
-179.901993
 20
-86.500000
 11
-170.667343
 21
-86.500000
  0
LINE
  8
0
 10
-135.300018
 20
-81.829453
 11
-135.300018
 21
-90.950089
  0
LINE
  8
0
 10
-130.698044
 20
-86.500000
 11
-139.932693
 21
-86.500000
  0
LINE
  8
0
 10
-175.300018
 20
-51.170544
 11
-175.300018
 21
-42.049911
  0
LINE
  8
0
 10
-179.901993
 20
-46.500000
 11
-170.667343
 21
-46.500000
  0
LINE
  8
0
 10
-135.300018
 20
-51.170544
 11
-135.300018
 21
-42.049911
  0
LINE
  8
0
 10
-130.698044
 20
-46.500000
 11
-139.932693
 21
-46.500000
  0
LINE
  8
0
 10
-166.800018
 20
-28.199997
 11
-166.800018
 21
-31.500000
  0
LINE
  8
0
 10
-160.800018
 20
-28.199997
 11
-160.800018
 21
-31.500000
  0
LINE
  8
0
 10
-167.800079
 20
-31.500069
 11
-158.800049
 21
-36.696236
  0
LINE
  8
0
 10
-158.800018
 20
-31.500000
 11
-158.800018
 21
-40.500000
  0
LINE
  8
0
 10
-178.800018
 20
-31.500000
 11
-178.800018
 21
-40.900928
  0
LINE
  8
0
 10
-178.800018
 20
-31.500000
 11
-158.800018
 21
-31.500000
  0
LINE
  8
0
 10
-166.300018
 20
-26.500000
 11
-161.300018
 21
-26.500000
  0
LINE
  8
0
 10
-166.300018
 20
-26.500000
 11
-166.300018
 21
-28.199997
  0
LINE
  8
0
 10
-161.300018
 20
-26.500000
 11
-161.300018
 21
-28.199997
  0
LINE
  8
0
 10
-166.800018
 20
-28.199997
 11
-160.800018
 21
-28.199997
  0
CIRCLE
  8
0
 10
-135.300018
 20
-86.500000
 40
2.100000
  0
CIRCLE
  8
0
 10
-135.300018
 20
-86.500000
 40
3.000000
  0
CIRCLE
  8
0
 10
-175.300018
 20
-46.500000
 40
3.000000
  0
CIRCLE
  8
0
 10
-175.300018
 20
-46.500000
 40
2.100000
  0
CIRCLE
  8
0
 10
-135.300018
 20
-46.500000
 40
2.100000
  0
CIRCLE
  8
0
 10
-135.300018
 20
-46.500000
 40
3.000000
  0
CIRCLE
  8
0
 10
-155.300018
 20
-66.500000
 40
20.500000
  0
CIRCLE
  8
0
 10
-155.300018
 20
-66.500000
 40
16.500000
  0
CIRCLE
  8
0
 10
-155.300018
 20
-66.500000
 40
15.500000
  0
CIRCLE
  8
0
 10
-155.300018
 20
-66.500000
 40
7.000000
  0
CIRCLE
  8
0
 10
-155.300018
 20
-66.500000
 40
6.000000
  0
ARC
  8
0
 10
-155.300018
 20
-66.500000
 40
34.750000
 50
41.565182
 51
48.434830
  0
ARC
  8
0
 10
-155.300018
 20
-66.500000
 40
34.750000
 50
131.565201
 51
138.434830
  0
ARC
  8
0
 10
-155.300018
 20
-66.500000
 40
34.749996
 50
221.565170
 51
228.434799
  0
ARC
  8
0
 10
-155.300018
 20
-66.500000
 40
34.749996
 50
311.565186
 51
318.434814
  0
CIRCLE
  8
0
 10
-175.300018
 20
-86.500000
 40
3.000000
  0
CIRCLE
  8
0
 10
-175.300018
 20
-86.500000
 40
2.100000
  0
POINT
  8
0
 10
154.700012
 20
-66.500000
  0
POINT
  8
0
 10
180.700012
 20
-66.500000
  0
LINE
  8
0
 10
184.027725
 20
-66.500000
 11
125.264893
 21
-66.500000
  0
LINE
  8
0
 10
154.700012
 20
-37.557434
 11
154.700012
 21
-95.688400
  0
LINE
  8
0
 10
180.700012
 20
-43.444359
 11
180.700012
 21
-89.555641
  0
LINE
  8
0
 10
128.700012
 20
-43.444359
 11
128.700012
 21
-89.555641
  0
LINE
  8
0
 10
177.755646
 20
-92.500000
 11
131.644379
 21
-92.500000
  0
LINE
  8
0
 10
177.755646
 20
-40.500000
 11
131.644379
 21
-40.500000
  0
LINE
  8
0
 10
166.200012
 20
-28.199997
 11
166.200012
 21
-31.500000
  0
LINE
  8
0
 10
160.200012
 20
-28.199997
 11
160.200012
 21
-31.500000
  0
LINE
  8
0
 10
167.200043
 20
-31.500015
 11
158.200027
 21
-36.696175
  0
LINE
  8
0
 10
158.200012
 20
-31.500000
 11
158.200012
 21
-40.500000
  0
LINE
  8
0
 10
178.200012
 20
-31.500000
 11
178.200012
 21
-40.500000
  0
LINE
  8
0
 10
178.200012
 20
-31.500000
 11
158.200012
 21
-31.500000
  0
LINE
  8
0
 10
165.700012
 20
-26.500000
 11
160.700012
 21
-26.500000
  0
LINE
  8
0
 10
165.700012
 20
-26.500000
 11
165.700012
 21
-28.199997
  0
LINE
  8
0
 10
160.700012
 20
-26.500000
 11
160.700012
 21
-28.199997
  0
LINE
  8
0
 10
166.200012
 20
-28.199997
 11
160.200012
 21
-28.199997
  0
LINE
  8
0
 10
144.700012
 20
-53.375595
 11
144.700012
 21
-79.624405
  0
LINE
  8
0
 10
164.700012
 20
-53.375595
 11
164.700012
 21
-79.624405
  0
LINE
  8
0
  6
DASHED
 10
144.700012
 20
-61.500000
 11
164.700012
 21
-61.500000
  0
LINE
  8
0
  6
DASHED
 10
144.700012
 20
-71.500000
 11
164.700012
 21
-71.500000
  0
LINE
  8
0
 10
168.700012
 20
-46.500000
 11
180.700012
 21
-46.500000
  0
LINE
  8
0
 10
174.700012
 20
-52.500000
 11
174.700012
 21
-40.500000
  0
LINE
  8
0
 10
128.700012
 20
-86.500000
 11
140.700012
 21
-86.500000
  0
LINE
  8
0
 10
134.700012
 20
-92.500000
 11
134.700012
 21
-80.500000
  0
CIRCLE
  8
0
 10
174.700012
 20
-46.500000
 40
4.133972
  0
CIRCLE
  8
0
 10
174.700012
 20
-46.500000
 40
5.000000
  0
CIRCLE
  8
0
 10
134.700012
 20
-86.500000
 40
5.000000
  0
CIRCLE
  8
0
 10
134.700012
 20
-86.500000
 40
4.133972
  0
ARC
  8
0
 10
154.700012
 20
-66.500000
 40
34.749996
 50
131.565140
 51
138.434784
  0
ARC
  8
0
 10
154.700012
 20
-66.500000
 40
34.749996
 50
41.565136
 51
48.434765
  0
ARC
  8
0
 10
154.700012
 20
-66.500000
 40
34.750004
 50
311.565155
 51
318.434814
  0
ARC
  8
0
 10
154.700012
 20
-66.500000
 40
34.749996
 50
221.565170
 51
228.434830
  0
CIRCLE
  8
0
 10
154.700012
 20
-66.500000
 40
16.500000
  0
ARC
  8
0
 10
154.700012
 20
-66.500000
 40
15.500001
 50
49.822231
 51
130.177704
  0
ARC
  8
0
 10
154.700012
 20
-66.500000
 40
15.499996
 50
229.822296
 51
310.177765
  0
CIRCLE
  8
0
 10
154.700012
 20
-66.500000
 40
20.799988
  0
ENDSEC
  0
EOF
