  0
SECTION
  2
HEADER
  0
ENDSEC
  0
SECTION
  2
TABLES
  0
TABLE
  2
LTYPE
 70
     4
  0
LTYPE
  2
CONTINUOUS
 70
    64
  3
Solid line
 72
    65
 73
     0
 40
0.000000
  0
LTYPE
  2
DASHED
 70
    64
  3
__ __ __ __ __ __ __ __ __ __ __ __ __ __ __
 72
    65
 73
     2
 40
3.500000
 49
2.000000
 49
-1.500000
  0
LTYPE
  2
CENTER
 70
    64
  3
____ _ ____ _ ____ _ ____ _ ____ _ ____ _ ____
 72
    65
 73
     4
 40
17.500000
 49
13.000000
 49
-1.500000
 49
1.500000
 49
-1.500000
  0
LTYPE
  2
PHANTOM
 70
    64
  3
_____ _ _ _____ _ _ _____ _ _ _____ _ _ ____  
 72
    65
 73
     6
 40
15.500000
 49
8.000000
 49
-1.500000
 49
1.500000
 49
-1.500000
 49
1.500000
 49
-1.500000
  0
LTYPE
  2
DASHED1
 70
    64
  3
__ __ __ __ __ __ __ __ __ __ __ __ __ __ __
 72
    65
 73
     2
 40
1.500000
 49
1.000000
 49
-0.500000
  0
LTYPE
  2
DASHED2
 70
    64
  3
__ __ __ __ __ __ __ __ __ __ __ __ __ __ __
 72
    65
 73
     2
 40
3.500000
 49
2.500000
 49
-1.000000
  0
LTYPE
  2
DASHED3
 70
    64
  3
__ __ __ __ __ __ __ __ __ __ __ __ __ __ __
 72
    65
 73
     2
 40
6.000000
 49
4.000000
 49
-2.000000
  0
LTYPE
  2
DASHED4
 70
    64
  3
__ __ __ __ __ __ __ __ __ __ __ __ __ __ __
 72
    65
 73
     2
 40
12.000000
 49
10.000000
 49
-2.000000
  0
LTYPE
  2
DASHED5
 70
    64
  3
__ __ __ __ __ __ __ __ __ __ __ __ __ __ __
 72
    65
 73
     2
 40
17.000000
 49
15.000000
 49
-2.000000
  0
LTYPE
  2
DASHED6
 70
    64
  3
__ __ __ __ __ __ __ __ __ __ __ __ __ __ __
 72
    65
 73
     2
 40
29.000000
 49
27.000000
 49
-2.000000
  0
LTYPE
  2
PHANTOM1
 70
    64
  3
_____ _ _ _____ _ _ _____ _ _ _____ _ _ ____  
 72
    65
 73
     6
 40
31.000000
 49
25.000000
 49
-1.500000
 49
1.000000
 49
-1.000000
 49
1.000000
 49
-1.500000
  0
LTYPE
  2
PHANTOM2
 70
    64
  3
_____ _ _ _____ _ _ _____ _ _ _____ _ _ ____  
 72
    65
 73
     6
 40
36.000000
 49
27.000000
 49
-1.500000
 49
2.500000
 49
-1.000000
 49
2.500000
 49
-1.500000
  0
LTYPE
  2
PHANTOM3
 70
    64
  3
_____ _ _ _____ _ _ _____ _ _ _____ _ _ ____  
 72
    65
 73
     6
 40
78.000000
 49
64.000000
 49
-2.000000
 49
4.000000
 49
-2.000000
 49
4.000000
 49
-2.000000
  0
LTYPE
  2
CENTER1
 70
    64
  3
____ _ ____ _ ____ _ ____ _ ____ _ ____ _ ____
 72
    65
 73
     4
 40
19.000000
 49
14.000000
 49
-1.000000
 49
3.000000
 49
-1.000000
  0
LTYPE
  2
CENTER2
 70
    64
  3
____ _ ____ _ ____ _ ____ _ ____ _ ____ _ ____
 72
    65
 73
     4
 40
28.500000
 49
25.000000
 49
-1.000000
 49
1.500000
 49
-1.000000
  0
LTYPE
  2
CENTER3
 70
    64
  3
____ _ ____ _ ____ _ ____ _ ____ _ ____ _ ____
 72
    65
 73
     4
 40
31.500000
 49
27.000000
 49
-1.000000
 49
2.500000
 49
-1.000000
  0
LTYPE
  2
CENTER4
 70
    64
  3
____ _ ____ _ ____ _ ____ _ ____ _ ____ _ ____
 72
    65
 73
     4
 40
50.000000
 49
45.000000
 49
-1.000000
 49
3.000000
 49
-1.000000
  0
LTYPE
  2
CENTER5
 70
    64
  3
____ _ ____ _ ____ _ ____ _ ____ _ ____ _ ____
 72
    65
 73
     4
 40
100.000000
 49
92.000000
 49
-2.000000
 49
4.000000
 49
-2.000000
  0
LTYPE
  2
SBK1
 70
    64
  3
______ _ _ _ ______ _ _ _ ______ _ _ _ _____  
 72
    65
 73
     8
 40
60.500000
 49
45.000000
 49
-2.000000
 49
2.500000
 49
-2.000000
 49
2.500000
 49
-2.000000
 49
2.500000
 49
-2.000000
  0
LTYPE
  2
SBK2
 70
    64
  3
______ _ _ _ ______ _ _ _ ______ _ _ _ _____  
 72
    65
 73
     8
 40
84.000000
 49
64.000000
 49
-2.000000
 49
4.000000
 49
-2.000000
 49
4.000000
 49
-2.000000
 49
4.000000
 49
-2.000000
  0
LTYPE
  2
STCH
 70
    64
  3
__ __ __ __ __ __ __ __ __ __ __ __ __ __ __
 72
    65
 73
     2
 40
3.000000
 49
1.000000
 49
-2.000000
  0
LTYPE
  2
MTCH
 70
    64
  3
_____ _ _ _____ _ _ _____ _ _ _____ _ _ ____  
 72
    65
 73
     6
 40
80.000000
 49
66.000000
 49
-2.000000
 49
4.000000
 49
-2.000000
 49
4.000000
 49
-2.000000
  0
ENDTAB
  0
TABLE
  2
LAYER
 70
     1
  0
LAYER
  2
0
 70
     0
 62
     7
  6
CONTINUOUS
  0
ENDTAB
  0
TABLE
  2
STYLE
 70
     1
  0
STYLE
  2
STANDARD
 70
     0
 40
0.000000
 41
1.000000
 50
0.000000
 71
     0
 42
0.200000
  3
txt
  4
BIGFONT
  0
ENDTAB
  0
TABLE
  2
VIEW
 70
     0
  0
ENDTAB
  0
ENDSEC
  0
SECTION
  2
BLOCKS
  0
ENDSEC
  0
SECTION
  2
ENTITIES
  0
LINE
  8
0
 62
     1
 10
-199.500000
 20
-138.500000
 11
199.500000
 21
-138.500000
  0
LINE
  8
0
 62
     1
 10
-115.699493
 20
-55.000000
 11
-115.699493
 21
-65.000000
  0
LINE
  8
0
 62
     1
 10
116.000000
 20
-20.000000
 11
134.071869
 21
-20.000000
  0
LINE
  8
0
 62
     1
 10
-185.436783
 20
-127.279236
 11
-185.436783
 21
127.279236
  0
LINE
  8
0
 62
     1
 10
185.436783
 20
127.279236
 11
185.436783
 21
-127.279236
  0
LINE
  8
0
 62
     1
 10
-185.436783
 20
-127.279236
 11
185.436783
 21
-127.279236
  0
LINE
  8
0
 62
     1
 10
-185.436783
 20
127.279236
 11
185.436783
 21
127.279236
  0
LINE
  8
0
 62
     1
 10
-185.436783
 20
112.978195
 11
-109.164589
 21
112.978195
  0
LINE
  8
0
 62
     1
 10
-109.164589
 20
112.978195
 11
-109.164589
 21
127.279236
  0
LINE
  8
0
 62
     1
 10
109.164581
 20
-112.978210
 11
185.436783
 21
-112.978210
  0
LINE
  8
0
 62
     1
 10
109.164581
 20
112.978195
 11
185.436783
 21
112.978195
  0
LINE
  8
0
 62
     1
 10
109.164581
 20
127.279236
 11
109.164581
 21
112.978195
  0
LINE
  8
0
 62
     1
 10
109.164581
 20
-112.978210
 11
109.164581
 21
-127.279236
  0
TEXT
  8
0
 62
     1
 10
113.360985
 20
117.310349
 40
4.242641
  1
DATE : JUN ,1992
 50
0.000000
 41
1.052631
 51
0.000000
  7
STANDARD
  0
TEXT
  8
0
 62
     1
 10
-172.764969
 20
116.628723
 40
5.000000
  1
SLIM BRAKE
 50
0.000000
 41
1.052632
 51
0.000000
  7
STANDARD
  0
TEXT
  8
0
 62
     1
 10
114.336403
 20
-123.628723
 40
5.000000
  1
KOGANEI CORP.
 50
0.000000
 41
1.052632
 51
0.000000
  7
STANDARD
  0
TEXT
  8
0
 10
-168.463547
 20
90.559349
 40
5.000000
  1
MODEL : DAR 32*ST(25)
 50
0.000000
 41
1.052632
 51
0.000000
  7
STANDARD
  0
POINT
  8
0
 10
-71.699493
 20
-60.000000
  0
POINT
  8
0
 10
110.300507
 20
-60.000000
  0
LINE
  8
0
 10
-118.375000
 20
-60.000000
 11
113.150589
 21
-60.000000
  0
LINE
  8
0
 10
-116.699493
 20
-64.000000
 11
-116.699493
 21
-56.000000
  0
LINE
  8
0
 10
-74.911865
 20
-42.000000
 11
-74.411865
 21
-42.000000
  0
LINE
  8
0
 10
-74.911865
 20
-78.000000
 11
-74.411865
 21
-78.000000
  0
LINE
  8
0
 10
-82.304169
 20
-80.784607
 11
-74.911865
 21
-80.784607
  0
LINE
  8
0
 10
-83.911865
 20
-42.000000
 11
-83.911865
 21
-78.000000
  0
LINE
  8
0
 10
-83.911819
 20
-41.999954
 11
-82.304115
 21
-39.215343
  0
LINE
  8
0
 10
-83.911865
 20
-78.000000
 11
-82.304169
 21
-80.784592
  0
LINE
  8
0
 10
-82.304169
 20
-49.607697
 11
-74.911865
 21
-49.607697
  0
LINE
  8
0
 10
-82.304169
 20
-70.392303
 11
-74.911865
 21
-70.392303
  0
LINE
  8
0
 10
-82.304169
 20
-39.215393
 11
-74.911865
 21
-39.215393
  0
LINE
  8
0
 10
-115.699493
 20
-55.000000
 11
-91.699493
 21
-55.000000
  0
LINE
  8
0
 10
-115.699493
 20
-65.000000
 11
-91.699486
 21
-65.000000
  0
LINE
  8
0
 10
-93.699493
 20
-55.000000
 11
-93.699493
 21
-65.000000
  0
LINE
  8
0
 10
-91.699493
 20
-55.000000
 11
-91.699493
 21
-65.000000
  0
LINE
  8
0
 10
-90.699493
 20
-54.000000
 11
-85.699493
 21
-54.000000
  0
LINE
  8
0
 10
-90.699493
 20
-66.000000
 11
-85.699493
 21
-66.000000
  0
LINE
  8
0
 10
-91.699440
 20
-55.000076
 11
-90.699448
 21
-54.000080
  0
LINE
  8
0
 10
-91.699440
 20
-64.999992
 11
-90.699463
 21
-65.999985
  0
LINE
  8
0
 10
-86.699493
 20
-56.683376
 11
-86.699493
 21
-63.316624
  0
LINE
  8
0
 10
-85.699493
 20
-48.000000
 11
-83.911865
 21
-48.000000
  0
LINE
  8
0
 10
-85.699493
 20
-72.000000
 11
-83.911865
 21
-72.000000
  0
LINE
  8
0
 10
-85.699493
 20
-48.000000
 11
-85.699493
 21
-72.000000
  0
LINE
  8
0
 10
-85.699501
 20
-47.999947
 11
-83.911873
 21
-46.499947
  0
LINE
  8
0
 10
-85.699387
 20
-71.999893
 11
-83.911758
 21
-73.499893
  0
LINE
  8
0
 10
-83.911865
 20
-46.500000
 11
-83.911865
 21
-73.500000
  0
LINE
  8
0
 10
67.300507
 20
-42.500000
 11
67.300507
 21
-77.500000
  0
LINE
  8
0
 10
83.300507
 20
-42.500000
 11
83.300507
 21
-77.500000
  0
LINE
  8
0
 10
67.300507
 20
-42.500000
 11
83.300507
 21
-42.500000
  0
LINE
  8
0
 10
67.300507
 20
-77.500000
 11
83.300507
 21
-77.500000
  0
LINE
  8
0
 10
83.300507
 20
-46.500000
 11
109.041855
 21
-46.500000
  0
LINE
  8
0
 10
83.300507
 20
-73.500000
 11
109.041855
 21
-73.500000
  0
LINE
  8
0
 10
110.300507
 20
-48.000000
 11
110.300507
 21
-72.000000
  0
LINE
  8
0
 10
98.300507
 20
-51.788284
 11
98.300507
 21
-67.750000
  0
LINE
  8
0
 10
109.041855
 20
-46.500042
 11
110.300491
 21
-48.000038
  0
LINE
  8
0
 10
109.041977
 20
-73.500053
 11
110.300644
 21
-72.000053
  0
LINE
  8
0
 10
109.041855
 20
-46.500000
 11
109.041855
 21
-47.500000
  0
LINE
  8
0
 10
109.041855
 20
-72.500000
 11
109.041855
 21
-73.500000
  0
LINE
  8
0
 10
85.300507
 20
-46.500000
 11
85.300507
 21
-47.500000
  0
LINE
  8
0
 10
85.300507
 20
-72.500000
 11
85.300507
 21
-73.500000
  0
LINE
  8
0
 10
85.300507
 20
-47.500000
 11
109.880951
 21
-47.500000
  0
LINE
  8
0
 10
85.300507
 20
-72.500000
 11
109.880966
 21
-72.500000
  0
LINE
  8
0
 10
83.568405
 20
-46.500034
 11
85.300461
 21
-47.500034
  0
LINE
  8
0
 10
83.568451
 20
-73.499962
 11
85.300522
 21
-72.499969
  0
LINE
  8
0
 10
-74.911865
 20
-39.215393
 11
-74.911865
 21
-80.784607
  0
LINE
  8
0
 10
-74.411865
 20
-42.000000
 11
-74.411865
 21
-78.000000
  0
LINE
  8
0
 10
-90.699944
 20
-54.000004
 11
-90.699944
 21
-66.000000
  0
LINE
  8
0
 10
-116.699493
 20
-56.000000
 11
-93.699493
 21
-56.000000
  0
LINE
  8
0
 10
-90.699501
 20
-56.683376
 11
-86.699493
 21
-56.683376
  0
LINE
  8
0
 10
-90.699493
 20
-63.316624
 11
-86.699493
 21
-63.316624
  0
LINE
  8
0
 10
-90.699516
 20
-56.683384
 11
-86.699509
 21
-63.316624
  0
LINE
  8
0
 10
-86.699585
 20
-56.683327
 11
-90.699585
 21
-63.316578
  0
LINE
  8
0
 10
75.300507
 20
-41.177505
 11
75.300507
 21
-49.725632
  0
LINE
  8
0
 10
3.800507
 20
-43.199997
 11
67.300507
 21
-43.199997
  0
LINE
  8
0
 10
3.800507
 20
-76.800003
 11
67.300507
 21
-76.800003
  0
LINE
  8
0
 10
-71.699493
 20
-37.500000
 11
-71.699493
 21
-82.500000
  0
LINE
  8
0
 10
-71.699493
 20
-73.500000
 11
-74.411865
 21
-73.500000
  0
LINE
  8
0
 10
-74.411865
 20
-46.500000
 11
-71.699493
 21
-46.500000
  0
LINE
  8
0
 10
-73.699493
 20
-73.500000
 11
-73.699493
 21
-46.500000
  0
LINE
  8
0
 10
-74.411865
 20
-72.000000
 11
-73.699493
 21
-72.000000
  0
LINE
  8
0
 10
-74.411865
 20
-48.000000
 11
-73.699493
 21
-48.000000
  0
LINE
  8
0
 10
-71.699493
 20
-37.500000
 11
-1.699493
 21
-37.500000
  0
LINE
  8
0
 10
-17.699493
 20
-37.500000
 11
-17.699493
 21
-82.500000
  0
LINE
  8
0
 10
-71.699493
 20
-82.500000
 11
-1.699493
 21
-82.500000
  0
LINE
  8
0
 10
-1.699493
 20
-37.500000
 11
-1.699493
 21
-82.500000
  0
LINE
  8
0
 10
-48.699493
 20
-35.763199
 11
-48.699493
 21
-45.069710
  0
LINE
  8
0
 10
-9.699493
 20
-35.346489
 11
-9.699493
 21
-44.930809
  0
LINE
  8
0
 10
-38.699493
 20
-32.541451
 11
-38.699493
 21
-37.500000
  0
LINE
  8
0
 10
-25.099495
 20
-22.000000
 11
-23.199493
 21
-22.000000
  0
LINE
  8
0
 10
-40.699493
 20
-33.696159
 11
-31.699490
 21
-28.500006
  0
LINE
  8
0
 10
-26.299492
 20
-23.300003
 11
-25.099495
 21
-23.300003
  0
LINE
  8
0
 10
-22.699493
 20
-28.500000
 11
-22.699493
 21
-37.500000
  0
LINE
  8
0
 10
-20.699493
 20
-28.500000
 11
-20.699493
 21
-37.500000
  0
LINE
  8
0
 10
-40.699493
 20
-28.500000
 11
-40.699493
 21
-37.500000
  0
LINE
  8
0
 10
-40.699493
 20
-28.500000
 11
-20.699493
 21
-28.500000
  0
LINE
  8
0
 10
-28.199493
 20
-22.000000
 11
-26.299492
 21
-22.000000
  0
LINE
  8
0
 10
-28.199493
 20
-22.000000
 11
-28.199493
 21
-23.699997
  0
LINE
  8
0
 10
-23.199493
 20
-22.000000
 11
-23.199493
 21
-23.699997
  0
LINE
  8
0
 10
-28.699493
 20
-23.699997
 11
-22.699493
 21
-23.699997
  0
LINE
  8
0
 10
-22.699493
 20
-23.699997
 11
-22.699493
 21
-28.500000
  0
LINE
  8
0
 10
-28.699493
 20
-23.699997
 11
-28.699493
 21
-28.500000
  0
LINE
  8
0
 10
-25.099495
 20
-22.000000
 11
-25.099495
 21
-23.300003
  0
LINE
  8
0
 10
-26.299492
 20
-22.000000
 11
-26.299492
 21
-23.300003
  0
LINE
  8
0
 10
3.300507
 20
-81.250000
 11
3.300507
 21
-72.750000
  0
LINE
  8
0
 10
3.300499
 20
-72.750015
 11
3.800499
 21
-73.616035
  0
LINE
  8
0
 10
-1.699493
 20
-72.750000
 11
3.300507
 21
-72.750000
  0
LINE
  8
0
 10
-1.699493
 20
-81.250000
 11
3.300507
 21
-81.250000
  0
LINE
  8
0
 10
3.800507
 20
-80.383972
 11
3.800507
 21
-73.616028
  0
LINE
  8
0
 10
3.300461
 20
-81.249969
 11
3.800468
 21
-80.383942
  0
LINE
  8
0
 10
3.300507
 20
-47.250000
 11
3.300507
 21
-38.750000
  0
LINE
  8
0
 10
3.300491
 20
-38.750008
 11
3.800484
 21
-39.616028
  0
LINE
  8
0
 10
-1.699493
 20
-38.750000
 11
3.300507
 21
-38.750000
  0
LINE
  8
0
 10
-1.699493
 20
-47.250000
 11
3.300507
 21
-47.250000
  0
LINE
  8
0
 10
3.800507
 20
-46.383968
 11
3.800507
 21
-39.616028
  0
LINE
  8
0
 10
3.300476
 20
-47.249977
 11
3.800484
 21
-46.383945
  0
LINE
  8
0
 10
-116.699493
 20
-64.000000
 11
-93.699493
 21
-64.000000
  0
LINE
  8
0
 10
-115.699493
 20
-55.000000
 11
-115.699493
 21
-65.000000
  0
LINE
  8
0
 10
-116.699493
 20
-56.000034
 11
-115.699493
 21
-55.000031
  0
LINE
  8
0
 10
-115.699478
 20
-64.999977
 11
-116.699471
 21
-63.999977
  0
CIRCLE
  8
0
 10
98.300507
 20
-60.000000
 40
5.000000
  0
POLYLINE
  8
0
 66
     1
  0
VERTEX
  8
0
 10
-82.304169
 20
-49.607697
  0
VERTEX
  8
0
 10
-82.575142
 20
-50.525139
  0
VERTEX
  8
0
 10
-82.822601
 20
-51.450382
  0
VERTEX
  8
0
 10
-83.046059
 20
-52.382652
  0
VERTEX
  8
0
 10
-83.245041
 20
-53.321163
  0
VERTEX
  8
0
 10
-83.419052
 20
-54.265137
  0
VERTEX
  8
0
 10
-83.567619
 20
-55.213795
  0
VERTEX
  8
0
 10
-83.690262
 20
-56.166351
  0
VERTEX
  8
0
 10
-83.786491
 20
-57.122032
  0
VERTEX
  8
0
 10
-83.855820
 20
-58.080055
  0
VERTEX
  8
0
 10
-83.897774
 20
-59.039639
  0
VERTEX
  8
0
 10
-83.911865
 20
-60.000000
  0
VERTEX
  8
0
 10
-83.897774
 20
-60.960361
  0
VERTEX
  8
0
 10
-83.855820
 20
-61.919945
  0
VERTEX
  8
0
 10
-83.786491
 20
-62.877968
  0
VERTEX
  8
0
 10
-83.690262
 20
-63.833649
  0
VERTEX
  8
0
 10
-83.567619
 20
-64.786209
  0
VERTEX
  8
0
 10
-83.419052
 20
-65.734863
  0
VERTEX
  8
0
 10
-83.245041
 20
-66.678841
  0
VERTEX
  8
0
 10
-83.046059
 20
-67.617348
  0
VERTEX
  8
0
 10
-82.822601
 20
-68.549622
  0
VERTEX
  8
0
 10
-82.575142
 20
-69.474861
  0
VERTEX
  8
0
 10
-82.304169
 20
-70.392303
  0
SEQEND
  0
POLYLINE
  8
0
 66
     1
  0
VERTEX
  8
0
 10
-82.304169
 20
-39.215393
  0
VERTEX
  8
0
 10
-82.754517
 20
-40.008736
  0
VERTEX
  8
0
 10
-83.144997
 20
-40.841721
  0
VERTEX
  8
0
 10
-83.465782
 20
-41.706425
  0
VERTEX
  8
0
 10
-83.707062
 20
-42.594917
  0
VERTEX
  8
0
 10
-83.859032
 20
-43.499268
  0
VERTEX
  8
0
 10
-83.911865
 20
-44.411545
  0
VERTEX
  8
0
 10
-83.859032
 20
-45.323822
  0
VERTEX
  8
0
 10
-83.707062
 20
-46.228172
  0
VERTEX
  8
0
 10
-83.465782
 20
-47.116665
  0
VERTEX
  8
0
 10
-83.144997
 20
-47.981369
  0
VERTEX
  8
0
 10
-82.754524
 20
-48.814354
  0
VERTEX
  8
0
 10
-82.304169
 20
-49.607697
  0
SEQEND
  0
POLYLINE
  8
0
 66
     1
  0
VERTEX
  8
0
 10
-82.304169
 20
-70.392303
  0
VERTEX
  8
0
 10
-82.754524
 20
-71.185646
  0
VERTEX
  8
0
 10
-83.144997
 20
-72.018631
  0
VERTEX
  8
0
 10
-83.465782
 20
-72.883339
  0
VERTEX
  8
0
 10
-83.707062
 20
-73.771828
  0
VERTEX
  8
0
 10
-83.859032
 20
-74.676178
  0
VERTEX
  8
0
 10
-83.911865
 20
-75.588455
  0
VERTEX
  8
0
 10
-83.859032
 20
-76.500732
  0
VERTEX
  8
0
 10
-83.707062
 20
-77.405083
  0
VERTEX
  8
0
 10
-83.465782
 20
-78.293571
  0
VERTEX
  8
0
 10
-83.144997
 20
-79.158279
  0
VERTEX
  8
0
 10
-82.754517
 20
-79.991264
  0
VERTEX
  8
0
 10
-82.304169
 20
-80.784607
  0
SEQEND
  0
POINT
  8
0
 10
-71.699493
 20
35.500000
  0
POINT
  8
0
 10
110.300507
 20
35.500000
  0
POINT
  8
0
 10
-71.699493
 20
35.500000
  0
POINT
  8
0
 10
75.300507
 20
35.500000
  0
POINT
  8
0
 10
-48.699493
 20
21.000000
  0
LINE
  8
0
 10
67.300507
 20
53.000000
 11
67.300507
 21
18.000000
  0
LINE
  8
0
 10
67.300507
 20
53.000000
 11
83.300507
 21
53.000000
  0
LINE
  8
0
 10
67.300507
 20
18.000000
 11
83.300507
 21
18.000000
  0
LINE
  8
0
 10
83.300507
 20
53.000000
 11
83.300507
 21
18.000000
  0
LINE
  8
0
 10
3.800507
 20
52.300003
 11
67.300507
 21
52.300003
  0
LINE
  8
0
 10
3.800507
 20
18.699997
 11
67.300507
 21
18.699997
  0
LINE
  8
0
 10
-122.546738
 20
35.500000
 11
116.232193
 21
35.500000
  0
LINE
  8
0
 10
-71.699493
 20
58.000000
 11
-71.699493
 21
13.000000
  0
LINE
  8
0
 10
-71.699493
 20
58.000000
 11
-1.699493
 21
58.000000
  0
LINE
  8
0
 10
-17.699493
 20
58.000000
 11
-17.699493
 21
13.000000
  0
LINE
  8
0
 10
-71.699493
 20
13.000000
 11
-1.699493
 21
13.000000
  0
LINE
  8
0
 10
-1.699493
 20
58.000000
 11
-1.699493
 21
13.000000
  0
LINE
  8
0
 10
-25.099487
 20
43.426941
 11
-25.099487
 21
38.573059
  0
LINE
  8
0
 10
-26.299500
 20
43.426941
 11
-26.299500
 21
38.573059
  0
LINE
  8
0
 10
-20.699493
 20
54.000000
 11
-20.699493
 21
38.000000
  0
LINE
  8
0
 10
-38.699493
 20
36.000000
 11
-22.699493
 21
36.000000
  0
LINE
  8
0
 10
-38.699493
 20
56.000000
 11
-22.699493
 21
56.000000
  0
LINE
  8
0
 10
-40.699493
 20
54.000000
 11
-40.699493
 21
38.000000
  0
LINE
  8
0
 10
-38.699474
 20
55.999985
 11
-40.699478
 21
53.999981
  0
LINE
  8
0
 10
-22.699501
 20
55.999973
 11
-20.699497
 21
53.999969
  0
LINE
  8
0
 10
-38.699493
 20
35.999996
 11
-40.699493
 21
38.000000
  0
LINE
  8
0
 10
-22.699493
 20
35.999992
 11
-20.699490
 21
37.999996
  0
LINE
  8
0
 10
-37.199493
 20
51.654694
 11
-37.199493
 21
49.345306
  0
LINE
  8
0
 10
-33.199493
 20
51.654694
 11
-33.199493
 21
49.345306
  0
LINE
  8
0
 10
-37.199490
 20
51.654739
 11
-35.199497
 21
52.809433
  0
LINE
  8
0
 10
-35.199509
 20
48.190624
 11
-33.199505
 21
49.345325
  0
LINE
  8
0
 10
-35.199501
 20
52.809414
 11
-33.199497
 21
51.654709
  0
LINE
  8
0
 10
-37.199482
 20
49.345325
 11
-35.199482
 21
48.190624
  0
LINE
  8
0
 10
-29.699471
 20
56.000023
 11
-20.699463
 21
47.000019
  0
LINE
  8
0
 10
-40.699493
 20
45.000000
 11
-31.699490
 21
35.999992
  0
LINE
  8
0
 10
-16.852497
 20
27.500000
 11
-3.520287
 21
27.500000
  0
LINE
  8
0
 10
-9.699493
 20
34.174774
 11
-9.699493
 21
20.719116
  0
LINE
  8
0
 10
-55.852497
 20
21.000000
 11
-42.520287
 21
21.000000
  0
LINE
  8
0
 10
75.300507
 20
42.174774
 11
75.300507
 21
28.719116
  0
LINE
  8
0
 10
-16.852497
 20
43.500000
 11
-3.520287
 21
43.500000
  0
LINE
  8
0
 10
-9.699493
 20
50.174774
 11
-9.699493
 21
36.719116
  0
LINE
  8
0
 10
3.300507
 20
14.250000
 11
3.300507
 21
22.750000
  0
LINE
  8
0
 10
3.300453
 20
22.749996
 11
3.800461
 21
21.883972
  0
LINE
  8
0
 10
-1.699493
 20
22.750000
 11
3.300507
 21
22.750000
  0
LINE
  8
0
 10
-1.699493
 20
14.250000
 11
3.300507
 21
14.250000
  0
LINE
  8
0
 10
3.800507
 20
15.116028
 11
3.800507
 21
21.883972
  0
LINE
  8
0
 10
3.300476
 20
14.250023
 11
3.800484
 21
15.116060
  0
LINE
  8
0
 10
3.300507
 20
48.250000
 11
3.300507
 21
56.750000
  0
LINE
  8
0
 10
3.300453
 20
56.749977
 11
3.800453
 21
55.883949
  0
LINE
  8
0
 10
-1.699493
 20
56.750000
 11
3.300507
 21
56.750000
  0
LINE
  8
0
 10
-1.699493
 20
48.250000
 11
3.300507
 21
48.250000
  0
LINE
  8
0
 10
3.800507
 20
49.116028
 11
3.800507
 21
55.883972
  0
LINE
  8
0
 10
3.300499
 20
48.250004
 11
3.800507
 21
49.116043
  0
LINE
  8
0
 10
98.300507
 20
48.500008
 11
98.300507
 21
22.500008
  0
LINE
  8
0
  6
DASHED
 10
93.300507
 20
45.500008
 11
93.300507
 21
25.500008
  0
LINE
  8
0
  6
DASHED
 10
103.300507
 20
45.500008
 11
103.300507
 21
25.500008
  0
LINE
  8
0
 10
110.300507
 20
25.500008
 11
110.300507
 21
45.500008
  0
LINE
  8
0
 10
84.300507
 20
21.500008
 11
84.300507
 21
25.500008
  0
LINE
  8
0
 10
83.300507
 20
49.500008
 11
84.300507
 21
49.500008
  0
LINE
  8
0
 10
84.300507
 20
21.500008
 11
83.300507
 21
21.500008
  0
LINE
  8
0
 10
84.300507
 20
45.500008
 11
84.300507
 21
49.500008
  0
LINE
  8
0
 10
84.300507
 20
45.500008
 11
110.300507
 21
45.500008
  0
LINE
  8
0
 10
84.300507
 20
25.500008
 11
110.300507
 21
25.500008
  0
LINE
  8
0
 10
-85.699493
 20
22.999992
 11
-85.699493
 21
48.000023
  0
LINE
  8
0
 10
-93.699493
 20
30.499977
 11
-93.699493
 21
40.500023
  0
LINE
  8
0
 10
-73.699493
 20
49.000023
 11
-73.699493
 21
21.999992
  0
LINE
  8
0
 10
-116.699493
 20
39.500023
 11
-116.699493
 21
31.499992
  0
LINE
  8
0
 10
-116.699310
 20
39.499798
 11
-115.699326
 21
40.499798
  0
LINE
  8
0
 10
-115.699493
 20
40.500023
 11
-115.699493
 21
30.499977
  0
LINE
  8
0
 10
-116.699486
 20
39.500023
 11
-93.699493
 21
39.500023
  0
LINE
  8
0
 10
-85.699493
 20
40.500038
 11
-115.699486
 21
40.500038
  0
LINE
  8
0
 10
-85.699493
 20
48.000023
 11
-83.911865
 21
48.000023
  0
LINE
  8
0
 10
-71.699493
 20
49.000023
 11
-74.411865
 21
49.000023
  0
LINE
  8
0
 10
-85.699516
 20
48.000061
 11
-84.699539
 21
49.000061
  0
LINE
  8
0
 10
-84.699509
 20
49.000023
 11
-84.699509
 21
21.999992
  0
LINE
  8
0
 10
-115.699478
 20
30.500067
 11
-116.699463
 21
31.500061
  0
LINE
  8
0
 10
-93.699493
 20
31.499992
 11
-116.699486
 21
31.499992
  0
LINE
  8
0
 10
-115.699486
 20
30.499977
 11
-85.699493
 21
30.499977
  0
LINE
  8
0
 10
-73.699493
 20
22.999992
 11
-74.411865
 21
22.999992
  0
LINE
  8
0
 10
-84.699509
 20
21.999992
 11
-83.911865
 21
21.999992
  0
LINE
  8
0
 10
-84.699501
 20
22.000011
 11
-85.699501
 21
23.000013
  0
LINE
  8
0
 10
-82.304169
 20
56.284607
 11
-74.411865
 21
56.284607
  0
LINE
  8
0
 10
-74.411865
 20
56.284607
 11
-74.411865
 21
14.715393
  0
LINE
  8
0
 10
-74.911865
 20
56.284607
 11
-74.911865
 21
14.715393
  0
LINE
  8
0
 10
-83.911850
 20
53.500050
 11
-82.304153
 21
56.284660
  0
LINE
  8
0
 10
-83.911865
 20
53.500000
 11
-83.911865
 21
17.500000
  0
LINE
  8
0
 10
-83.911850
 20
17.500013
 11
-82.304153
 21
14.715416
  0
LINE
  8
0
 10
-82.304169
 20
14.715393
 11
-74.411865
 21
14.715393
  0
LINE
  8
0
 10
-83.911865
 20
49.000023
 11
-84.699509
 21
49.000023
  0
LINE
  8
0
 10
-74.411865
 20
48.000023
 11
-73.699493
 21
48.000023
  0
LINE
  8
0
 10
-83.911865
 20
22.999992
 11
-85.699493
 21
22.999992
  0
LINE
  8
0
 10
-74.411865
 20
21.999992
 11
-71.699493
 21
21.999992
  0
LINE
  8
0
 10
-48.699493
 20
27.674774
 11
-48.699493
 21
14.219116
  0
CIRCLE
  8
0
 10
-9.699493
 20
43.500000
 40
5.000000
  0
CIRCLE
  8
0
 10
-9.699493
 20
27.500000
 40
4.250000
  0
CIRCLE
  8
0
 10
-9.699493
 20
27.500000
 40
5.000000
  0
CIRCLE
  8
0
 10
-35.199493
 20
50.500000
 40
4.250000
  0
CIRCLE
  8
0
 10
75.300507
 20
35.500000
 40
5.000000
  0
CIRCLE
  8
0
 10
-35.199493
 20
50.500000
 40
4.750000
  0
CIRCLE
  8
0
 10
75.300507
 20
35.500000
 40
4.250000
  0
CIRCLE
  8
0
 10
-9.699493
 20
43.500000
 40
4.250000
  0
CIRCLE
  8
0
 10
-25.699493
 20
41.000000
 40
2.500000
  0
CIRCLE
  8
0
 10
-25.699493
 20
41.000000
 40
3.000000
  0
ARC
  8
0
 10
-49.520584
 20
45.892456
 40
34.391285
 50
162.411789
 51
197.588196
  0
ARC
  8
0
 10
-49.520584
 20
25.108154
 40
34.391281
 50
162.411728
 51
197.588135
  0
CIRCLE
  8
0
 10
-48.699493
 20
21.000000
 40
5.000000
  0
CIRCLE
  8
0
 10
-48.699493
 20
21.000000
 40
4.250000
  0
POINT
  8
0
 10
-145.699493
 20
-60.000000
  0
POINT
  8
0
 10
-123.199493
 20
-60.000000
  0
LINE
  8
0
 10
-163.699493
 20
-49.607697
 11
-163.699493
 21
-70.392303
  0
LINE
  8
0
 10
-127.699493
 20
-49.607697
 11
-127.699493
 21
-70.392303
  0
LINE
  8
0
 10
-163.699509
 20
-49.607689
 11
-145.699509
 21
-39.215385
  0
LINE
  8
0
 10
-145.699493
 20
-80.784599
 11
-127.699509
 21
-70.392288
  0
LINE
  8
0
 10
-145.699417
 20
-39.215317
 11
-127.699463
 21
-49.607597
  0
LINE
  8
0
 10
-163.699463
 20
-70.392189
 11
-145.699493
 21
-80.784485
  0
LINE
  8
0
 10
-171.750366
 20
-60.000000
 11
-120.377945
 21
-60.000000
  0
LINE
  8
0
 10
-145.699493
 20
-34.924690
 11
-145.699493
 21
-87.099823
  0
LINE
  8
0
 10
-123.199493
 20
-39.040215
 11
-123.199493
 21
-80.959785
  0
LINE
  8
0
 10
-168.199493
 20
-39.040215
 11
-168.199493
 21
-80.959785
  0
LINE
  8
0
 10
-166.659271
 20
-37.500000
 11
-124.739716
 21
-37.500000
  0
LINE
  8
0
 10
-166.659271
 20
-82.500000
 11
-124.739716
 21
-82.500000
  0
LINE
  8
0
 10
-162.699493
 20
-72.771492
 11
-162.699493
 21
-81.094414
  0
LINE
  8
0
 10
-166.688843
 20
-77.000000
 11
-158.453537
 21
-77.000000
  0
LINE
  8
0
 10
-166.688843
 20
-43.000000
 11
-158.453537
 21
-43.000000
  0
LINE
  8
0
 10
-162.699493
 20
-47.228508
 11
-162.699493
 21
-38.905586
  0
LINE
  8
0
 10
-124.710144
 20
-77.000000
 11
-132.945450
 21
-77.000000
  0
LINE
  8
0
 10
-128.699493
 20
-72.771492
 11
-128.699493
 21
-81.094414
  0
LINE
  8
0
 10
-124.710144
 20
-43.000000
 11
-132.945450
 21
-43.000000
  0
LINE
  8
0
 10
-128.699493
 20
-47.228508
 11
-128.699493
 21
-38.905586
  0
LINE
  8
0
 10
-146.199493
 20
-28.500000
 11
-146.199493
 21
-37.500000
  0
LINE
  8
0
 10
-166.199493
 20
-28.500000
 11
-166.199493
 21
-37.500000
  0
LINE
  8
0
 10
-166.199493
 20
-28.500000
 11
-146.199493
 21
-28.500000
  0
LINE
  8
0
 10
-153.699493
 20
-22.000000
 11
-148.699493
 21
-22.000000
  0
LINE
  8
0
 10
-153.699493
 20
-22.000000
 11
-153.699493
 21
-23.699997
  0
LINE
  8
0
 10
-148.699493
 20
-22.000000
 11
-148.699493
 21
-23.699997
  0
LINE
  8
0
 10
-154.199493
 20
-23.699997
 11
-148.199493
 21
-23.699997
  0
LINE
  8
0
 10
-148.199493
 20
-23.699997
 11
-148.199493
 21
-28.500000
  0
LINE
  8
0
 10
-153.449493
 20
-23.699997
 11
-153.449493
 21
-28.500000
  0
LINE
  8
0
 10
-155.199509
 20
-28.500042
 11
-146.199493
 21
-33.696198
  0
CIRCLE
  8
0
 10
-162.699493
 20
-43.000000
 40
2.500000
  0
CIRCLE
  8
0
 10
-128.699493
 20
-77.000000
 40
2.500000
  0
CIRCLE
  8
0
 10
-128.699493
 20
-77.000000
 40
1.750000
  0
CIRCLE
  8
0
 10
-128.699493
 20
-43.000000
 40
2.500000
  0
CIRCLE
  8
0
 10
-162.699493
 20
-43.000000
 40
1.750000
  0
CIRCLE
  8
0
 10
-128.699493
 20
-43.000000
 40
1.750000
  0
CIRCLE
  8
0
 10
-145.699493
 20
-60.000000
 40
12.500000
  0
CIRCLE
  8
0
 10
-145.699493
 20
-60.000000
 40
13.500000
  0
CIRCLE
  8
0
 10
-145.699493
 20
-60.000000
 40
18.000000
  0
CIRCLE
  8
0
 10
-145.699493
 20
-60.000000
 40
5.000000
  0
CIRCLE
  8
0
 10
-145.699493
 20
-60.000000
 40
4.000000
  0
ARC
  8
0
 10
-145.699493
 20
-60.000000
 40
30.750002
 50
42.970287
 51
47.029713
  0
ARC
  8
0
 10
-145.699493
 20
-60.000000
 40
30.750002
 50
132.970306
 51
137.029724
  0
ARC
  8
0
 10
-145.699493
 20
-60.000000
 40
30.750002
 50
222.970245
 51
227.029694
  0
ARC
  8
0
 10
-145.699493
 20
-60.000000
 40
30.750002
 50
312.970276
 51
317.029724
  0
CIRCLE
  8
0
 10
-162.699493
 20
-77.000000
 40
2.500000
  0
CIRCLE
  8
0
 10
-162.699493
 20
-77.000000
 40
1.750000
  0
POINT
  8
0
 10
169.003632
 20
-60.000000
  0
POINT
  8
0
 10
146.503632
 20
-60.000000
  0
LINE
  8
0
 10
124.003632
 20
-39.040211
 11
124.003632
 21
-80.959778
  0
LINE
  8
0
 10
169.003632
 20
-39.040218
 11
169.003632
 21
-80.959793
  0
LINE
  8
0
 10
167.463409
 20
-37.500004
 11
125.543854
 21
-37.499996
  0
LINE
  8
0
 10
167.463409
 20
-82.500000
 11
125.543854
 21
-82.500000
  0
LINE
  8
0
 10
158.253632
 20
-43.000000
 11
168.753632
 21
-43.000004
  0
LINE
  8
0
 10
163.503632
 20
-48.250004
 11
163.503632
 21
-37.750004
  0
LINE
  8
0
 10
147.003632
 20
-28.500000
 11
147.003632
 21
-37.500000
  0
LINE
  8
0
 10
167.003632
 20
-28.500004
 11
167.003632
 21
-37.500004
  0
LINE
  8
0
 10
167.003632
 20
-28.500004
 11
147.003632
 21
-28.500000
  0
LINE
  8
0
 10
154.503632
 20
-22.000000
 11
149.503632
 21
-22.000000
  0
LINE
  8
0
 10
154.503632
 20
-22.000000
 11
154.503632
 21
-23.699997
  0
LINE
  8
0
 10
149.503632
 20
-22.000000
 11
149.503632
 21
-23.699997
  0
LINE
  8
0
 10
155.003632
 20
-23.699997
 11
149.003632
 21
-23.699997
  0
LINE
  8
0
 10
149.003632
 20
-23.699997
 11
149.003632
 21
-28.500000
  0
LINE
  8
0
 10
155.003632
 20
-23.699997
 11
155.003632
 21
-28.500002
  0
LINE
  8
0
 10
156.003632
 20
-28.499922
 11
147.003586
 21
-33.696091
  0
LINE
  8
0
 10
119.503632
 20
-59.999996
 11
173.503632
 21
-60.000004
  0
LINE
  8
0
 10
146.503632
 20
-33.000000
 11
146.503632
 21
-87.000000
  0
LINE
  8
0
 10
136.503632
 20
-50.930824
 11
136.503632
 21
-69.069176
  0
LINE
  8
0
 10
156.503632
 20
-50.780457
 11
156.503632
 21
-69.219543
  0
LINE
  8
0
  6
DASHED
 10
136.503632
 20
-55.000000
 11
156.503632
 21
-55.000000
  0
LINE
  8
0
  6
DASHED
 10
136.503632
 20
-65.000000
 11
156.503632
 21
-65.000000
  0
LINE
  8
0
 10
129.503632
 20
-82.250000
 11
129.503632
 21
-71.750000
  0
LINE
  8
0
 10
124.253632
 20
-77.000000
 11
134.753632
 21
-77.000000
  0
CIRCLE
  8
0
 10
163.503632
 20
-43.000004
 40
3.383972
  0
ARC
  8
0
 10
146.503632
 20
-60.000000
 40
12.500000
 50
36.869896
 51
143.130081
  0
CIRCLE
  8
0
 10
129.503632
 20
-77.000000
 40
3.383972
  0
CIRCLE
  8
0
 10
163.503632
 20
-43.000004
 40
4.250000
  0
CIRCLE
  8
0
 10
129.503632
 20
-77.000000
 40
4.250000
  0
ARC
  8
0
 10
146.503632
 20
-60.000000
 40
12.500005
 50
216.869919
 51
323.130096
  0
ARC
  8
0
 10
146.503632
 20
-60.000000
 40
30.749998
 50
132.970230
 51
137.029663
  0
ARC
  8
0
 10
146.503632
 20
-60.000000
 40
30.749998
 50
42.970238
 51
47.029652
  0
ARC
  8
0
 10
146.503632
 20
-60.000000
 40
30.750002
 50
312.970276
 51
317.029694
  0
ARC
  8
0
 10
146.503632
 20
-60.000000
 40
30.750002
 50
222.970245
 51
227.029678
  0
CIRCLE
  8
0
 10
146.503632
 20
-60.000000
 40
17.500000
  0
CIRCLE
  8
0
 10
146.503632
 20
-60.000000
 40
13.500000
  0
LINE
  8
0
 62
     1
 10
100.700218
 20
-46.499958
 11
116.000008
 21
-19.999983
  0
LINE
  8
0
 62
     1
 10
100.700218
 20
-46.499958
 11
102.821541
 21
-44.378639
  0
LINE
  8
0
 62
     1
 10
100.700218
 20
-46.499958
 11
101.476677
 21
-43.602180
  0
ENDSEC
  0
EOF
