  0
SECTION
  2
HEADER
  0
ENDSEC
  0
SECTION
  2
TABLES
  0
TABLE
  2
LTYPE
 70
     4
  0
LTYPE
  2
CONTINUOUS
 70
    64
  3
Solid line
 72
    65
 73
     0
 40
0.000000
  0
LTYPE
  2
DASHED
 70
    64
  3
__ __ __ __ __ __ __ __ __ __ __ __ __ __ __
 72
    65
 73
     2
 40
3.500000
 49
2.000000
 49
-1.500000
  0
LTYPE
  2
CENTER
 70
    64
  3
____ _ ____ _ ____ _ ____ _ ____ _ ____ _ ____
 72
    65
 73
     4
 40
17.500000
 49
13.000000
 49
-1.500000
 49
1.500000
 49
-1.500000
  0
LTYPE
  2
PHANTOM
 70
    64
  3
_____ _ _ _____ _ _ _____ _ _ _____ _ _ ____  
 72
    65
 73
     6
 40
15.500000
 49
8.000000
 49
-1.500000
 49
1.500000
 49
-1.500000
 49
1.500000
 49
-1.500000
  0
LTYPE
  2
DASHED1
 70
    64
  3
__ __ __ __ __ __ __ __ __ __ __ __ __ __ __
 72
    65
 73
     2
 40
1.500000
 49
1.000000
 49
-0.500000
  0
LTYPE
  2
DASHED2
 70
    64
  3
__ __ __ __ __ __ __ __ __ __ __ __ __ __ __
 72
    65
 73
     2
 40
3.500000
 49
2.500000
 49
-1.000000
  0
LTYPE
  2
DASHED3
 70
    64
  3
__ __ __ __ __ __ __ __ __ __ __ __ __ __ __
 72
    65
 73
     2
 40
6.000000
 49
4.000000
 49
-2.000000
  0
LTYPE
  2
DASHED4
 70
    64
  3
__ __ __ __ __ __ __ __ __ __ __ __ __ __ __
 72
    65
 73
     2
 40
12.000000
 49
10.000000
 49
-2.000000
  0
LTYPE
  2
DASHED5
 70
    64
  3
__ __ __ __ __ __ __ __ __ __ __ __ __ __ __
 72
    65
 73
     2
 40
17.000000
 49
15.000000
 49
-2.000000
  0
LTYPE
  2
DASHED6
 70
    64
  3
__ __ __ __ __ __ __ __ __ __ __ __ __ __ __
 72
    65
 73
     2
 40
29.000000
 49
27.000000
 49
-2.000000
  0
LTYPE
  2
PHANTOM1
 70
    64
  3
_____ _ _ _____ _ _ _____ _ _ _____ _ _ ____  
 72
    65
 73
     6
 40
31.000000
 49
25.000000
 49
-1.500000
 49
1.000000
 49
-1.000000
 49
1.000000
 49
-1.500000
  0
LTYPE
  2
PHANTOM2
 70
    64
  3
_____ _ _ _____ _ _ _____ _ _ _____ _ _ ____  
 72
    65
 73
     6
 40
36.000000
 49
27.000000
 49
-1.500000
 49
2.500000
 49
-1.000000
 49
2.500000
 49
-1.500000
  0
LTYPE
  2
PHANTOM3
 70
    64
  3
_____ _ _ _____ _ _ _____ _ _ _____ _ _ ____  
 72
    65
 73
     6
 40
78.000000
 49
64.000000
 49
-2.000000
 49
4.000000
 49
-2.000000
 49
4.000000
 49
-2.000000
  0
LTYPE
  2
CENTER1
 70
    64
  3
____ _ ____ _ ____ _ ____ _ ____ _ ____ _ ____
 72
    65
 73
     4
 40
19.000000
 49
14.000000
 49
-1.000000
 49
3.000000
 49
-1.000000
  0
LTYPE
  2
CENTER2
 70
    64
  3
____ _ ____ _ ____ _ ____ _ ____ _ ____ _ ____
 72
    65
 73
     4
 40
28.500000
 49
25.000000
 49
-1.000000
 49
1.500000
 49
-1.000000
  0
LTYPE
  2
CENTER3
 70
    64
  3
____ _ ____ _ ____ _ ____ _ ____ _ ____ _ ____
 72
    65
 73
     4
 40
31.500000
 49
27.000000
 49
-1.000000
 49
2.500000
 49
-1.000000
  0
LTYPE
  2
CENTER4
 70
    64
  3
____ _ ____ _ ____ _ ____ _ ____ _ ____ _ ____
 72
    65
 73
     4
 40
50.000000
 49
45.000000
 49
-1.000000
 49
3.000000
 49
-1.000000
  0
LTYPE
  2
CENTER5
 70
    64
  3
____ _ ____ _ ____ _ ____ _ ____ _ ____ _ ____
 72
    65
 73
     4
 40
100.000000
 49
92.000000
 49
-2.000000
 49
4.000000
 49
-2.000000
  0
LTYPE
  2
SBK1
 70
    64
  3
______ _ _ _ ______ _ _ _ ______ _ _ _ _____  
 72
    65
 73
     8
 40
60.500000
 49
45.000000
 49
-2.000000
 49
2.500000
 49
-2.000000
 49
2.500000
 49
-2.000000
 49
2.500000
 49
-2.000000
  0
LTYPE
  2
SBK2
 70
    64
  3
______ _ _ _ ______ _ _ _ ______ _ _ _ _____  
 72
    65
 73
     8
 40
84.000000
 49
64.000000
 49
-2.000000
 49
4.000000
 49
-2.000000
 49
4.000000
 49
-2.000000
 49
4.000000
 49
-2.000000
  0
LTYPE
  2
STCH
 70
    64
  3
__ __ __ __ __ __ __ __ __ __ __ __ __ __ __
 72
    65
 73
     2
 40
3.000000
 49
1.000000
 49
-2.000000
  0
LTYPE
  2
MTCH
 70
    64
  3
_____ _ _ _____ _ _ _____ _ _ _____ _ _ ____  
 72
    65
 73
     6
 40
80.000000
 49
66.000000
 49
-2.000000
 49
4.000000
 49
-2.000000
 49
4.000000
 49
-2.000000
  0
ENDTAB
  0
TABLE
  2
LAYER
 70
     1
  0
LAYER
  2
0
 70
     0
 62
     7
  6
CONTINUOUS
  0
ENDTAB
  0
TABLE
  2
STYLE
 70
     1
  0
STYLE
  2
STANDARD
 70
     0
 40
0.000000
 41
1.000000
 50
0.000000
 71
     0
 42
0.200000
  3
txt
  4
BIGFONT
  0
ENDTAB
  0
TABLE
  2
VIEW
 70
     0
  0
ENDTAB
  0
ENDSEC
  0
SECTION
  2
BLOCKS
  0
ENDSEC
  0
SECTION
  2
ENTITIES
  0
LINE
  8
0
 62
     1
 10
-185.436783
 20
-127.279236
 11
-185.436783
 21
127.279236
  0
LINE
  8
0
 62
     1
 10
185.436783
 20
127.279236
 11
185.436783
 21
-127.279236
  0
LINE
  8
0
 62
     1
 10
-185.436783
 20
-127.279236
 11
185.436783
 21
-127.279236
  0
LINE
  8
0
 62
     1
 10
-185.436783
 20
127.279236
 11
185.436783
 21
127.279236
  0
LINE
  8
0
 62
     1
 10
-185.436783
 20
112.978195
 11
-109.164589
 21
112.978195
  0
LINE
  8
0
 62
     1
 10
-109.164589
 20
112.978195
 11
-109.164589
 21
127.279236
  0
LINE
  8
0
 62
     1
 10
109.164581
 20
-112.978210
 11
185.436783
 21
-112.978210
  0
LINE
  8
0
 62
     1
 10
109.164581
 20
112.978195
 11
185.436783
 21
112.978195
  0
LINE
  8
0
 62
     1
 10
109.164581
 20
127.279236
 11
109.164581
 21
112.978195
  0
LINE
  8
0
 62
     1
 10
109.164581
 20
-112.978210
 11
109.164581
 21
-127.279236
  0
TEXT
  8
0
 62
     1
 10
113.360985
 20
117.310349
 40
4.242641
  1
DATE : JUN ,1992
 50
0.000000
 41
1.052631
 51
0.000000
  7
STANDARD
  0
TEXT
  8
0
 62
     1
 10
-172.764969
 20
116.628723
 40
5.000000
  1
SLIM BRAKE
 50
0.000000
 41
1.052632
 51
0.000000
  7
STANDARD
  0
TEXT
  8
0
 62
     1
 10
114.336403
 20
-123.628723
 40
5.000000
  1
KOGANEI CORP.
 50
0.000000
 41
1.052632
 51
0.000000
  7
STANDARD
  0
TEXT
  8
0
 10
-165.232101
 20
90.326408
 40
5.000000
  1
MODEL : DAR 25*ST(25)
 50
0.000000
 41
1.052632
 51
0.000000
  7
STANDARD
  0
POINT
  8
0
 10
-58.000000
 20
-56.000000
  0
POINT
  8
0
 10
111.000000
 20
-56.000000
  0
LINE
  8
0
 10
5.000000
 20
-65.750000
 11
10.000000
 21
-65.750000
  0
LINE
  8
0
 10
-97.000000
 20
-61.000000
 11
-72.000000
 21
-61.000000
  0
LINE
  8
0
 10
-80.000000
 20
-51.000000
 11
-80.000000
 21
-61.000000
  0
LINE
  8
0
 10
-78.000000
 20
-53.000000
 11
-73.000000
 21
-53.000000
  0
LINE
  8
0
 10
-78.000000
 20
-59.000000
 11
-73.000000
 21
-59.000000
  0
LINE
  8
0
 10
-78.000000
 20
-53.000000
 11
-78.000000
 21
-59.000000
  0
LINE
  8
0
 10
-78.000015
 20
-58.999985
 11
-73.000008
 21
-52.999981
  0
LINE
  8
0
 10
-73.000008
 20
-59.000000
 11
-78.000023
 21
-52.999989
  0
LINE
  8
0
 10
-78.000000
 20
-53.000000
 11
-78.000000
 21
-59.000000
  0
LINE
  8
0
 10
-97.000000
 20
-51.000000
 11
-72.000000
 21
-51.000000
  0
LINE
  8
0
 10
-68.660248
 20
-38.679489
 11
-61.000000
 21
-38.679489
  0
LINE
  8
0
 10
-68.660248
 20
-73.320511
 11
-61.000000
 21
-73.320511
  0
LINE
  8
0
 10
-68.660248
 20
-47.339745
 11
-61.000000
 21
-47.339745
  0
LINE
  8
0
 10
-68.660248
 20
-64.660255
 11
-61.000000
 21
-64.660255
  0
LINE
  8
0
 10
-70.000084
 20
-71.000031
 11
-68.660332
 21
-73.320541
  0
LINE
  8
0
 10
-61.000000
 20
-71.000000
 11
-60.500000
 21
-71.000000
  0
LINE
  8
0
 10
-61.000000
 20
-41.000000
 11
-60.500000
 21
-41.000000
  0
LINE
  8
0
 10
-69.999985
 20
-41.000000
 11
-68.660255
 21
-38.679504
  0
LINE
  8
0
 10
-69.999985
 20
-41.000000
 11
-68.660255
 21
-38.679504
  0
LINE
  8
0
 10
-72.000000
 20
-46.000000
 11
-72.000000
 21
-66.000000
  0
LINE
  8
0
 10
-70.808243
 20
-45.000000
 11
-70.000000
 21
-45.000000
  0
LINE
  8
0
 10
-58.000000
 20
-36.000000
 11
-58.000000
 21
-76.000000
  0
LINE
  8
0
 10
-60.500000
 20
-71.000000
 11
-60.500000
 21
-41.000000
  0
LINE
  8
0
 10
-61.000000
 20
-73.320511
 11
-61.000000
 21
-38.679489
  0
LINE
  8
0
 10
-70.000000
 20
-71.000000
 11
-70.000000
 21
-41.000000
  0
LINE
  8
0
 10
-70.000000
 20
-66.000000
 11
-72.000000
 21
-66.000000
  0
LINE
  8
0
 10
-72.000000
 20
-46.000000
 11
-70.000000
 21
-46.000000
  0
LINE
  8
0
 10
74.000000
 20
-41.500000
 11
74.000000
 21
-70.500000
  0
LINE
  8
0
 10
90.000000
 20
-41.500000
 11
74.000000
 21
-41.500000
  0
LINE
  8
0
 10
90.000000
 20
-70.500000
 11
74.000000
 21
-70.500000
  0
LINE
  8
0
 10
90.000000
 20
-41.500000
 11
90.000000
 21
-70.500000
  0
LINE
  8
0
 10
109.808228
 20
-66.999954
 11
110.999954
 21
-65.999969
  0
LINE
  8
0
 10
90.000000
 20
-67.000000
 11
109.808258
 21
-67.000000
  0
LINE
  8
0
 10
90.000000
 20
-45.000000
 11
110.000000
 21
-45.000000
  0
LINE
  8
0
 10
109.999939
 20
-45.000038
 11
110.999924
 21
-46.000046
  0
LINE
  8
0
 10
110.000000
 20
-45.811996
 11
110.000000
 21
-45.000000
  0
LINE
  8
0
 10
109.808258
 20
-66.188004
 11
109.808258
 21
-67.000000
  0
LINE
  8
0
 10
92.000000
 20
-45.811996
 11
110.812012
 21
-45.811996
  0
LINE
  8
0
 10
90.593613
 20
-44.999897
 11
92.000061
 21
-45.811905
  0
LINE
  8
0
 10
90.593536
 20
-66.999908
 11
91.999954
 21
-66.187920
  0
LINE
  8
0
 10
111.000000
 20
-66.000000
 11
111.000000
 21
-46.000000
  0
LINE
  8
0
 10
92.000000
 20
-45.000000
 11
92.000000
 21
-45.811996
  0
LINE
  8
0
 10
92.000000
 20
-66.188004
 11
92.000000
 21
-67.000000
  0
LINE
  8
0
 10
92.000000
 20
-66.188004
 11
110.775955
 21
-66.188004
  0
LINE
  8
0
 10
-99.500000
 20
-56.000000
 11
116.237213
 21
-56.000000
  0
LINE
  8
0
 10
102.000000
 20
-49.266663
 11
102.000000
 21
-63.000000
  0
LINE
  8
0
 10
-71.999916
 20
-65.999931
 11
-71.160820
 21
-66.999924
  0
LINE
  8
0
 10
-71.160904
 20
-67.000000
 11
-70.000000
 21
-67.000000
  0
LINE
  8
0
 10
-71.999977
 20
-46.000011
 11
-71.160889
 21
-45.000023
  0
LINE
  8
0
 10
-71.160904
 20
-45.000000
 11
-70.000000
 21
-45.000000
  0
LINE
  8
0
 10
-71.160904
 20
-67.000000
 11
-71.160904
 21
-45.000000
  0
LINE
  8
0
 10
-40.000000
 20
-44.424995
 11
-40.000000
 21
-34.199997
  0
LINE
  8
0
 10
-98.000000
 20
-52.000000
 11
-80.000000
 21
-52.000000
  0
LINE
  8
0
 10
-98.000000
 20
-60.000000
 11
-80.000000
 21
-60.000000
  0
LINE
  8
0
 10
-97.000000
 20
-51.000000
 11
-97.000000
 21
-61.000000
  0
LINE
  8
0
 10
-97.999969
 20
-59.999977
 11
-96.999969
 21
-60.999981
  0
LINE
  8
0
 10
-96.999977
 20
-51.000015
 11
-97.999985
 21
-52.000015
  0
LINE
  8
0
 10
-98.000000
 20
-52.000000
 11
-98.000000
 21
-60.000000
  0
LINE
  8
0
 10
-30.500000
 20
-29.500000
 11
-14.500000
 21
-29.500000
  0
LINE
  8
0
 10
-21.000000
 20
-24.000000
 11
-19.599998
 21
-24.000000
  0
LINE
  8
0
 10
-21.500000
 20
-25.500000
 11
-16.500000
 21
-25.500000
  0
LINE
  8
0
 10
-17.000000
 20
-25.500000
 11
-17.000000
 21
-24.000000
  0
LINE
  8
0
 10
-21.000000
 20
-25.500000
 11
-21.000000
 21
-24.000000
  0
LINE
  8
0
 10
-19.599998
 20
-25.000000
 11
-19.599998
 21
-24.000000
  0
LINE
  8
0
 10
-18.400002
 20
-25.000000
 11
-18.400002
 21
-24.000000
  0
LINE
  8
0
 10
-19.599998
 20
-25.000000
 11
-18.400002
 21
-25.000000
  0
LINE
  8
0
 10
-18.400002
 20
-24.000000
 11
-17.000000
 21
-24.000000
  0
LINE
  8
0
 10
-21.500000
 20
-29.500000
 11
-21.500000
 21
-25.500000
  0
LINE
  8
0
 10
-16.500000
 20
-29.500000
 11
-16.500000
 21
-25.500000
  0
LINE
  8
0
 10
-14.500000
 20
-36.000000
 11
-14.500000
 21
-29.500000
  0
LINE
  8
0
 10
-30.500000
 20
-36.000000
 11
-30.500000
 21
-29.500000
  0
LINE
  8
0
 10
-30.500015
 20
-33.541443
 11
-23.500015
 21
-29.499992
  0
LINE
  8
0
 10
-58.000000
 20
-36.000000
 11
5.000000
 21
-36.000000
  0
LINE
  8
0
 10
-58.000000
 20
-76.000000
 11
5.000000
 21
-76.000000
  0
LINE
  8
0
 10
-11.000000
 20
-36.000000
 11
-11.000000
 21
-76.000000
  0
LINE
  8
0
 10
5.000000
 20
-36.000000
 11
5.000000
 21
-76.000000
  0
LINE
  8
0
 10
-60.500000
 20
-46.000000
 11
-60.000000
 21
-46.000000
  0
LINE
  8
0
 10
-60.500000
 20
-67.000000
 11
-58.000000
 21
-67.000000
  0
LINE
  8
0
 10
-60.500000
 20
-45.000000
 11
-58.000000
 21
-45.000000
  0
LINE
  8
0
 10
-60.500000
 20
-66.000000
 11
-60.000000
 21
-66.000000
  0
LINE
  8
0
 10
-60.000046
 20
-67.000000
 11
-60.000046
 21
-45.000000
  0
LINE
  8
0
 10
9.500008
 20
-37.750004
 11
10.000015
 21
-38.616043
  0
LINE
  8
0
 10
10.500000
 20
-69.199997
 11
74.000000
 21
-69.199997
  0
LINE
  8
0
 10
5.000000
 20
-42.800003
 11
74.000000
 21
-42.800003
  0
LINE
  8
0
 10
82.000000
 20
-49.924995
 11
82.000000
 21
-39.699997
  0
LINE
  8
0
 10
-3.000000
 20
-44.424995
 11
-3.000000
 21
-34.199997
  0
LINE
  8
0
 10
5.000000
 20
-37.750000
 11
9.500000
 21
-37.750000
  0
LINE
  8
0
 10
10.000000
 20
-38.616035
 11
10.000000
 21
-42.800003
  0
LINE
  8
0
 10
9.500000
 20
-37.750000
 11
9.500000
 21
-42.800003
  0
LINE
  8
0
 10
9.999947
 20
-74.249985
 11
10.499954
 21
-73.383957
  0
LINE
  8
0
 10
10.000000
 20
-74.250000
 11
10.000000
 21
-65.750000
  0
LINE
  8
0
 10
10.000000
 20
-65.750008
 11
10.500000
 21
-66.616035
  0
LINE
  8
0
 10
10.500000
 20
-73.383972
 11
10.500000
 21
-66.616028
  0
LINE
  8
0
 10
5.000000
 20
-74.250000
 11
10.000000
 21
-74.250000
  0
CIRCLE
  8
0
 10
102.000000
 20
-56.000000
 40
4.000000
  0
POLYLINE
  8
0
 66
     1
  0
VERTEX
  8
0
 10
-68.660248
 20
-47.339745
  0
VERTEX
  8
0
 10
-69.104874
 20
-46.542229
  0
VERTEX
  8
0
 10
-69.475296
 20
-45.699039
  0
VERTEX
  8
0
 10
-69.757378
 20
-44.821594
  0
VERTEX
  8
0
 10
-69.936989
 20
-43.921318
  0
VERTEX
  8
0
 10
-70.000000
 20
-43.009621
  0
VERTEX
  8
0
 10
-69.936989
 20
-42.097923
  0
VERTEX
  8
0
 10
-69.757378
 20
-41.197643
  0
VERTEX
  8
0
 10
-69.475296
 20
-40.320198
  0
VERTEX
  8
0
 10
-69.104874
 20
-39.477005
  0
VERTEX
  8
0
 10
-68.660248
 20
-38.679489
  0
SEQEND
  0
POLYLINE
  8
0
 66
     1
  0
VERTEX
  8
0
 10
-68.660248
 20
-47.339745
  0
VERTEX
  8
0
 10
-68.933594
 20
-48.275082
  0
VERTEX
  8
0
 10
-69.177528
 20
-49.219917
  0
VERTEX
  8
0
 10
-69.391327
 20
-50.173065
  0
VERTEX
  8
0
 10
-69.574249
 20
-51.133335
  0
VERTEX
  8
0
 10
-69.725563
 20
-52.099545
  0
VERTEX
  8
0
 10
-69.844528
 20
-53.070503
  0
VERTEX
  8
0
 10
-69.930412
 20
-54.045021
  0
VERTEX
  8
0
 10
-69.982483
 20
-55.021919
  0
VERTEX
  8
0
 10
-70.000000
 20
-56.000000
  0
VERTEX
  8
0
 10
-69.982483
 20
-56.978081
  0
VERTEX
  8
0
 10
-69.930412
 20
-57.954979
  0
VERTEX
  8
0
 10
-69.844528
 20
-58.929497
  0
VERTEX
  8
0
 10
-69.725563
 20
-59.900455
  0
VERTEX
  8
0
 10
-69.574249
 20
-60.866665
  0
VERTEX
  8
0
 10
-69.391327
 20
-61.826935
  0
VERTEX
  8
0
 10
-69.177528
 20
-62.780083
  0
VERTEX
  8
0
 10
-68.933594
 20
-63.724918
  0
VERTEX
  8
0
 10
-68.660248
 20
-64.660255
  0
SEQEND
  0
POLYLINE
  8
0
 66
     1
  0
VERTEX
  8
0
 10
-73.000000
 20
-53.000000
  0
VERTEX
  8
0
 10
-72.597076
 20
-53.689491
  0
VERTEX
  8
0
 10
-72.280739
 20
-54.430843
  0
VERTEX
  8
0
 10
-72.074028
 20
-55.206779
  0
VERTEX
  8
0
 10
-72.000000
 20
-56.000000
  0
VERTEX
  8
0
 10
-72.074028
 20
-56.793221
  0
VERTEX
  8
0
 10
-72.280739
 20
-57.569157
  0
VERTEX
  8
0
 10
-72.597076
 20
-58.310509
  0
VERTEX
  8
0
 10
-73.000000
 20
-59.000000
  0
SEQEND
  0
POLYLINE
  8
0
 66
     1
  0
VERTEX
  8
0
 10
-68.660248
 20
-64.660255
  0
VERTEX
  8
0
 10
-69.104874
 20
-65.457771
  0
VERTEX
  8
0
 10
-69.475296
 20
-66.300964
  0
VERTEX
  8
0
 10
-69.757378
 20
-67.178406
  0
VERTEX
  8
0
 10
-69.936989
 20
-68.078682
  0
VERTEX
  8
0
 10
-70.000000
 20
-68.990379
  0
VERTEX
  8
0
 10
-69.936989
 20
-69.902077
  0
VERTEX
  8
0
 10
-69.757378
 20
-70.802361
  0
VERTEX
  8
0
 10
-69.475296
 20
-71.679802
  0
VERTEX
  8
0
 10
-69.104874
 20
-72.522995
  0
VERTEX
  8
0
 10
-68.660248
 20
-73.320511
  0
SEQEND
  0
POINT
  8
0
 10
-58.000011
 20
40.000000
  0
POINT
  8
0
 10
110.999985
 20
40.000000
  0
POINT
  8
0
 10
-58.000011
 20
40.000000
  0
POINT
  8
0
 10
81.999985
 20
40.000000
  0
POINT
  8
0
 10
-40.000011
 20
28.000000
  0
LINE
  8
0
 10
4.999989
 20
26.800003
 11
73.999985
 21
26.800003
  0
LINE
  8
0
 10
89.999985
 20
25.500004
 11
73.999985
 21
25.500004
  0
LINE
  8
0
 10
89.999985
 20
25.500004
 11
89.999985
 21
54.500000
  0
LINE
  8
0
 10
89.999985
 20
54.500000
 11
73.999985
 21
54.500000
  0
LINE
  8
0
 10
73.999985
 20
25.500004
 11
73.999985
 21
54.500000
  0
LINE
  8
0
 10
-11.000011
 20
60.000000
 11
-11.000011
 21
20.000000
  0
LINE
  8
0
 10
-58.000011
 20
60.000000
 11
4.999989
 21
60.000000
  0
LINE
  8
0
 10
-58.000011
 20
20.000000
 11
4.999989
 21
20.000000
  0
LINE
  8
0
 10
4.999989
 20
60.000000
 11
4.999989
 21
20.000000
  0
LINE
  8
0
 10
10.499989
 20
22.616043
 11
10.499989
 21
26.800003
  0
LINE
  8
0
 10
-58.000011
 20
20.000000
 11
-58.000011
 21
60.000000
  0
LINE
  8
0
 10
-102.963669
 20
40.000000
 11
120.609024
 21
40.000000
  0
LINE
  8
0
 10
-14.500011
 20
42.100006
 11
-14.500011
 21
54.899994
  0
LINE
  8
0
 10
-19.000011
 20
41.462936
 11
-19.000011
 21
48.527496
  0
LINE
  8
0
 10
-22.804363
 20
45.000000
 11
-15.088455
 21
45.000000
  0
LINE
  8
0
 10
-28.900011
 20
56.500000
 11
-16.100010
 21
56.500000
  0
LINE
  8
0
 10
-28.900015
 20
40.500000
 11
-16.100010
 21
40.500000
  0
LINE
  8
0
 10
-30.500011
 20
42.100006
 11
-30.500011
 21
54.899994
  0
LINE
  8
0
 10
-28.900040
 20
56.500023
 11
-30.500040
 21
54.900024
  0
LINE
  8
0
 10
-30.500000
 20
42.099991
 11
-28.900002
 21
40.499989
  0
LINE
  8
0
 10
-16.100037
 20
40.500031
 11
-14.500038
 21
42.100029
  0
LINE
  8
0
 10
-14.500042
 20
54.899979
 11
-16.100037
 21
56.499977
  0
LINE
  8
0
 10
-19.750011
 20
43.145950
 11
-19.750011
 21
46.854050
  0
LINE
  8
0
 10
-18.250011
 20
43.145950
 11
-18.250011
 21
46.854050
  0
LINE
  8
0
 10
-29.969133
 20
51.500000
 11
-20.599819
 21
51.500000
  0
LINE
  8
0
 10
-25.500011
 20
56.343613
 11
-25.500011
 21
46.481705
  0
LINE
  8
0
 10
-27.000011
 20
52.366028
 11
-27.000011
 21
50.633972
  0
LINE
  8
0
 10
-24.000011
 20
52.366028
 11
-24.000011
 21
50.633972
  0
LINE
  8
0
 10
-27.000013
 20
52.366047
 11
-25.500015
 21
53.232071
  0
LINE
  8
0
 10
-25.500004
 20
53.232109
 11
-24.000000
 21
52.366081
  0
LINE
  8
0
 10
-25.499973
 20
49.767883
 11
-23.999969
 21
50.633911
  0
LINE
  8
0
 10
-26.999989
 20
50.634014
 11
-25.499989
 21
49.767990
  0
LINE
  8
0
 10
-3.000011
 20
34.674774
 11
-3.000011
 21
21.219116
  0
LINE
  8
0
 10
-10.153015
 20
28.000000
 11
3.179195
 21
28.000000
  0
LINE
  8
0
 10
81.999985
 20
46.674774
 11
81.999985
 21
33.219116
  0
LINE
  8
0
 10
-10.153015
 20
44.000000
 11
3.179195
 21
44.000000
  0
LINE
  8
0
 10
-3.000011
 20
50.674774
 11
-3.000011
 21
37.219116
  0
LINE
  8
0
 10
-30.500006
 20
47.500038
 11
-23.500008
 21
40.500042
  0
LINE
  8
0
 10
-21.499981
 20
56.500031
 11
-14.499981
 21
49.500031
  0
LINE
  8
0
 10
9.999950
 20
58.249954
 11
10.499958
 21
57.383930
  0
LINE
  8
0
 10
10.499989
 20
50.616028
 11
10.499989
 21
57.383972
  0
LINE
  8
0
 10
10.499989
 20
53.199997
 11
73.999985
 21
53.199997
  0
LINE
  8
0
 10
4.999989
 20
21.750000
 11
9.999989
 21
21.750000
  0
LINE
  8
0
 10
4.999989
 20
58.250000
 11
9.999989
 21
58.250000
  0
LINE
  8
0
 10
9.999989
 20
49.750000
 11
9.999989
 21
58.250000
  0
LINE
  8
0
 10
9.999989
 20
21.750025
 11
10.499989
 21
22.616049
  0
LINE
  8
0
 10
4.999989
 20
49.750000
 11
9.999989
 21
49.750000
  0
LINE
  8
0
 10
9.999981
 20
49.749992
 11
10.499981
 21
50.616016
  0
LINE
  8
0
 10
9.999989
 20
21.750000
 11
9.999989
 21
26.800003
  0
LINE
  8
0
 10
101.999985
 20
48.500000
 11
101.999985
 21
31.500000
  0
LINE
  8
0
  6
DASHED
 10
97.999985
 20
46.000000
 11
97.999985
 21
34.000000
  0
LINE
  8
0
  6
DASHED
 10
105.999985
 20
46.000000
 11
105.999985
 21
34.000000
  0
LINE
  8
0
 10
-72.000008
 20
29.999908
 11
-71.000008
 21
28.999908
  0
LINE
  8
0
 10
-72.000015
 20
49.999969
 11
-71.000023
 21
50.999958
  0
LINE
  8
0
 10
-72.000015
 20
30.000015
 11
-72.000015
 21
50.000015
  0
LINE
  8
0
 10
-71.000015
 20
29.000015
 11
-70.000015
 21
29.000015
  0
LINE
  8
0
 10
-72.000015
 20
30.000015
 11
-70.000015
 21
30.000015
  0
LINE
  8
0
 10
-58.000011
 20
51.000015
 11
-60.500011
 21
51.000015
  0
LINE
  8
0
 10
-72.000015
 20
50.000015
 11
-70.000015
 21
50.000015
  0
LINE
  8
0
 10
-80.000015
 20
35.000015
 11
-80.000015
 21
45.000015
  0
LINE
  8
0
 10
-71.000061
 20
50.999962
 11
-71.000061
 21
28.999969
  0
LINE
  8
0
 10
-60.000011
 20
51.000015
 11
-60.000011
 21
29.000015
  0
LINE
  8
0
 10
-98.000015
 20
44.000015
 11
-98.000015
 21
36.000015
  0
LINE
  8
0
 10
-97.999924
 20
43.999901
 11
-96.999924
 21
44.999908
  0
LINE
  8
0
 10
-98.000000
 20
35.999943
 11
-97.000031
 21
34.999954
  0
LINE
  8
0
 10
-97.000015
 20
45.000015
 11
-97.000015
 21
35.000015
  0
LINE
  8
0
 10
-98.000015
 20
36.000015
 11
-80.000000
 21
36.000015
  0
LINE
  8
0
 10
-98.000015
 20
44.000015
 11
-80.000015
 21
44.000015
  0
LINE
  8
0
 10
-97.000015
 20
35.000015
 11
-79.000000
 21
35.000015
  0
LINE
  8
0
 10
-78.000015
 20
44.000000
 11
-73.000015
 21
44.000000
  0
LINE
  8
0
 10
-78.000015
 20
36.000000
 11
-73.000015
 21
36.000000
  0
LINE
  8
0
 10
-72.999969
 20
43.999889
 11
-71.999939
 21
44.999901
  0
LINE
  8
0
 10
-78.999939
 20
34.999916
 11
-77.999954
 21
35.999893
  0
LINE
  8
0
 10
-73.000015
 20
35.999989
 11
-72.000023
 21
34.999996
  0
LINE
  8
0
 10
-79.000053
 20
44.999954
 11
-78.000015
 21
43.999947
  0
LINE
  8
0
 10
-79.000031
 20
45.000031
 11
-97.000015
 21
45.000031
  0
LINE
  8
0
 10
110.999985
 20
34.000000
 11
110.999985
 21
46.000000
  0
LINE
  8
0
 10
90.999985
 20
29.000000
 11
90.999985
 21
34.000000
  0
LINE
  8
0
 10
89.999985
 20
51.000000
 11
90.999985
 21
51.000000
  0
LINE
  8
0
 10
90.999985
 20
29.000000
 11
89.999985
 21
29.000000
  0
LINE
  8
0
 10
90.999985
 20
46.000000
 11
110.999985
 21
46.000000
  0
LINE
  8
0
 10
90.999985
 20
34.000000
 11
110.999985
 21
34.000000
  0
LINE
  8
0
 10
90.999985
 20
46.000000
 11
90.999985
 21
51.000000
  0
LINE
  8
0
 10
-68.660263
 20
57.320511
 11
-60.500011
 21
57.320511
  0
LINE
  8
0
 10
-70.000031
 20
54.999977
 11
-68.660294
 21
57.320473
  0
LINE
  8
0
 10
-70.000015
 20
25.000000
 11
-70.000015
 21
55.000000
  0
LINE
  8
0
 10
-70.000053
 20
25.000006
 11
-68.660301
 21
22.679489
  0
LINE
  8
0
 10
-68.660263
 20
22.679489
 11
-60.500011
 21
22.679489
  0
LINE
  8
0
 10
-61.000011
 20
22.679489
 11
-61.000011
 21
57.320511
  0
LINE
  8
0
 10
-60.500011
 20
22.679489
 11
-60.500011
 21
57.320511
  0
LINE
  8
0
 10
-70.000015
 20
51.000015
 11
-71.000031
 21
51.000015
  0
LINE
  8
0
 10
-60.500011
 20
50.000015
 11
-60.000011
 21
50.000015
  0
LINE
  8
0
 10
-60.500011
 20
30.000015
 11
-60.000011
 21
30.000015
  0
LINE
  8
0
 10
-60.500011
 20
29.000015
 11
-58.000011
 21
29.000015
  0
LINE
  8
0
 10
-47.153015
 20
28.000000
 11
-33.820805
 21
28.000000
  0
LINE
  8
0
 10
-40.000011
 20
34.674774
 11
-40.000011
 21
21.219116
  0
CIRCLE
  8
0
 10
-19.000011
 20
45.000000
 40
2.000000
  0
CIRCLE
  8
0
 10
-3.000011
 20
28.000000
 40
4.250000
  0
CIRCLE
  8
0
 10
-3.000011
 20
28.000000
 40
5.000000
  0
CIRCLE
  8
0
 10
81.999985
 20
40.000000
 40
4.250000
  0
CIRCLE
  8
0
 10
-25.500011
 20
51.500000
 40
3.500000
  0
CIRCLE
  8
0
 10
-19.000011
 20
45.000000
 40
2.500000
  0
CIRCLE
  8
0
 10
-25.500011
 20
51.500000
 40
4.000000
  0
CIRCLE
  8
0
 10
81.999985
 20
40.000000
 40
5.000000
  0
CIRCLE
  8
0
 10
-3.000011
 20
44.000000
 40
4.250000
  0
CIRCLE
  8
0
 10
-3.000011
 20
44.000000
 40
5.000000
  0
ARC
  8
0
 10
-41.339870
 20
48.660248
 40
28.660137
 50
162.411972
 51
197.587982
  0
ARC
  8
0
 10
-41.339870
 20
31.339752
 40
28.660139
 50
162.411957
 51
197.587967
  0
CIRCLE
  8
0
 10
-40.000011
 20
28.000000
 40
5.000000
  0
CIRCLE
  8
0
 10
-40.000011
 20
28.000000
 40
4.250000
  0
POINT
  8
0
 10
-148.000031
 20
-56.000000
  0
POINT
  8
0
 10
-128.000031
 20
-56.000000
  0
LINE
  8
0
 10
-170.317444
 20
-56.000000
 11
-125.852165
 21
-56.000000
  0
LINE
  8
0
 10
-148.000031
 20
-33.688667
 11
-148.000031
 21
-79.270233
  0
LINE
  8
0
 10
-163.000031
 20
-47.339745
 11
-163.000031
 21
-64.660255
  0
LINE
  8
0
 10
-133.000031
 20
-47.339745
 11
-133.000031
 21
-64.660255
  0
LINE
  8
0
 10
-148.000000
 20
-38.679497
 11
-133.000015
 21
-47.339748
  0
LINE
  8
0
 10
-163.000061
 20
-64.660255
 11
-148.000015
 21
-73.320534
  0
LINE
  8
0
 10
-163.000046
 20
-47.339722
 11
-148.000061
 21
-38.679482
  0
LINE
  8
0
 10
-148.000092
 20
-73.320404
 11
-133.000107
 21
-64.660164
  0
LINE
  8
0
 10
-128.000031
 20
-37.861641
 11
-128.000031
 21
-74.138359
  0
LINE
  8
0
 10
-168.000031
 20
-37.861641
 11
-168.000031
 21
-74.138359
  0
LINE
  8
0
 10
-166.138382
 20
-76.000000
 11
-129.861664
 21
-76.000000
  0
LINE
  8
0
 10
-166.138382
 20
-36.000000
 11
-129.861664
 21
-36.000000
  0
LINE
  8
0
 10
-162.000031
 20
-65.499451
 11
-162.000031
 21
-74.227203
  0
LINE
  8
0
 10
-166.129745
 20
-70.000000
 11
-158.058914
 21
-70.000000
  0
LINE
  8
0
 10
-162.000031
 20
-46.500549
 11
-162.000031
 21
-37.772797
  0
LINE
  8
0
 10
-166.129745
 20
-42.000000
 11
-158.058914
 21
-42.000000
  0
LINE
  8
0
 10
-134.000031
 20
-65.499451
 11
-134.000031
 21
-74.227203
  0
LINE
  8
0
 10
-129.870316
 20
-70.000000
 11
-137.941147
 21
-70.000000
  0
LINE
  8
0
 10
-134.000031
 20
-46.500549
 11
-134.000031
 21
-37.772797
  0
LINE
  8
0
 10
-129.870316
 20
-42.000000
 11
-137.941147
 21
-42.000000
  0
LINE
  8
0
 10
-155.500061
 20
-29.500010
 11
-148.500076
 21
-33.541458
  0
LINE
  8
0
 10
-164.500031
 20
-29.500000
 11
-148.500031
 21
-29.500000
  0
LINE
  8
0
 10
-150.100037
 20
-36.000000
 11
-150.100037
 21
-32.617683
  0
LINE
  8
0
 10
-164.500031
 20
-36.000000
 11
-164.500031
 21
-29.500000
  0
LINE
  8
0
 10
-162.900024
 20
-36.000000
 11
-162.900024
 21
-29.500000
  0
LINE
  8
0
 10
-156.000031
 20
-25.500000
 11
-151.000031
 21
-25.500000
  0
LINE
  8
0
 10
-151.500031
 20
-25.500000
 11
-151.500031
 21
-24.000000
  0
LINE
  8
0
 10
-155.500031
 20
-25.500000
 11
-155.500031
 21
-24.000000
  0
LINE
  8
0
 10
-155.500031
 20
-24.000000
 11
-151.500031
 21
-24.000000
  0
LINE
  8
0
 10
-156.000031
 20
-29.500000
 11
-156.000031
 21
-25.500000
  0
LINE
  8
0
 10
-151.000031
 20
-29.500000
 11
-151.000031
 21
-25.500000
  0
LINE
  8
0
 10
-148.500031
 20
-36.000000
 11
-148.500031
 21
-29.500000
  0
CIRCLE
  8
0
 10
-134.000031
 20
-70.000000
 40
2.500000
  0
CIRCLE
  8
0
 10
-162.000031
 20
-42.000000
 40
1.750000
  0
CIRCLE
  8
0
 10
-134.000031
 20
-42.000000
 40
1.750000
  0
CIRCLE
  8
0
 10
-162.000031
 20
-70.000000
 40
1.750000
  0
CIRCLE
  8
0
 10
-134.000031
 20
-70.000000
 40
1.750000
  0
CIRCLE
  8
0
 10
-162.000031
 20
-42.000000
 40
2.500000
  0
CIRCLE
  8
0
 10
-134.000031
 20
-42.000000
 40
2.500000
  0
CIRCLE
  8
0
 10
-148.000031
 20
-56.000000
 40
15.000000
  0
CIRCLE
  8
0
 10
-148.000031
 20
-56.000000
 40
11.000000
  0
CIRCLE
  8
0
 10
-148.000031
 20
-56.000000
 40
10.000000
  0
CIRCLE
  8
0
 10
-148.000031
 20
-56.000000
 40
5.000000
  0
CIRCLE
  8
0
 10
-148.000031
 20
-56.000000
 40
4.000000
  0
ARC
  8
0
 10
-148.000031
 20
-56.000000
 40
27.000002
 50
42.205448
 51
47.794563
  0
ARC
  8
0
 10
-148.000031
 20
-56.000000
 40
27.000006
 50
132.205460
 51
137.794556
  0
ARC
  8
0
 10
-148.000031
 20
-56.000000
 40
26.999996
 50
222.205444
 51
227.794540
  0
ARC
  8
0
 10
-148.000031
 20
-56.000000
 40
26.999996
 50
312.205444
 51
317.794556
  0
CIRCLE
  8
0
 10
-162.000031
 20
-70.000000
 40
2.500000
  0
POINT
  8
0
 10
149.031189
 20
-56.000000
  0
POINT
  8
0
 10
169.031189
 20
-56.000000
  0
LINE
  8
0
 10
129.031189
 20
-37.861641
 11
129.031189
 21
-74.138359
  0
LINE
  8
0
 10
169.031189
 20
-37.861641
 11
169.031189
 21
-74.138359
  0
LINE
  8
0
 10
167.169540
 20
-76.000000
 11
130.892838
 21
-76.000000
  0
LINE
  8
0
 10
167.169540
 20
-36.000000
 11
130.892838
 21
-36.000000
  0
LINE
  8
0
 10
156.531235
 20
-29.500046
 11
149.531250
 21
-33.541492
  0
LINE
  8
0
 10
165.531189
 20
-29.500000
 11
149.531189
 21
-29.500000
  0
LINE
  8
0
 10
165.531189
 20
-36.000000
 11
165.531189
 21
-29.500000
  0
LINE
  8
0
 10
157.031189
 20
-25.500000
 11
152.031189
 21
-25.500000
  0
LINE
  8
0
 10
152.531189
 20
-25.500000
 11
152.531189
 21
-24.000000
  0
LINE
  8
0
 10
156.531189
 20
-25.500000
 11
156.531189
 21
-24.000000
  0
LINE
  8
0
 10
156.531189
 20
-24.000000
 11
152.531189
 21
-24.000000
  0
LINE
  8
0
 10
157.031189
 20
-29.500000
 11
157.031189
 21
-25.500000
  0
LINE
  8
0
 10
152.031189
 20
-29.500000
 11
152.031189
 21
-25.500000
  0
LINE
  8
0
 10
149.531189
 20
-36.000000
 11
149.531189
 21
-29.500000
  0
LINE
  8
0
 10
126.031189
 20
-56.000000
 11
172.031189
 21
-56.000000
  0
LINE
  8
0
 10
143.031189
 20
-46.780449
 11
143.031189
 21
-65.219536
  0
LINE
  8
0
 10
155.031189
 20
-46.780464
 11
155.031189
 21
-65.219551
  0
LINE
  8
0
  6
DASHED
 10
143.031189
 20
-52.000000
 11
155.031189
 21
-52.000000
  0
LINE
  8
0
  6
DASHED
 10
143.031189
 20
-60.000000
 11
155.031189
 21
-60.000000
  0
LINE
  8
0
 10
149.031189
 20
-33.000000
 11
149.031189
 21
-79.000000
  0
LINE
  8
0
 10
135.031189
 20
-64.750000
 11
135.031189
 21
-75.250000
  0
LINE
  8
0
 10
129.781189
 20
-70.000000
 11
140.281189
 21
-70.000000
  0
LINE
  8
0
 10
163.031189
 20
-36.750000
 11
163.031189
 21
-47.250000
  0
LINE
  8
0
 10
157.781189
 20
-42.000000
 11
168.281189
 21
-42.000000
  0
CIRCLE
  8
0
 10
163.031189
 20
-42.000000
 40
4.250000
  0
CIRCLE
  8
0
 10
135.031189
 20
-70.000000
 40
4.250000
  0
CIRCLE
  8
0
 10
163.031189
 20
-42.000000
 40
3.383972
  0
CIRCLE
  8
0
 10
135.031189
 20
-70.000000
 40
3.383972
  0
ARC
  8
0
 10
149.031189
 20
-56.000000
 40
27.000004
 50
132.205414
 51
137.794510
  0
ARC
  8
0
 10
149.031189
 20
-56.000000
 40
26.999998
 50
42.205391
 51
47.794518
  0
ARC
  8
0
 10
149.031189
 20
-56.000000
 40
27.000006
 50
312.205475
 51
317.794556
  0
ARC
  8
0
 10
149.031189
 20
-56.000000
 40
26.999996
 50
222.205444
 51
227.794525
  0
CIRCLE
  8
0
 10
149.031189
 20
-56.000000
 40
14.500000
  0
CIRCLE
  8
0
 10
149.031189
 20
-56.000000
 40
11.000000
  0
ARC
  8
0
 10
149.031189
 20
-56.000000
 40
10.199999
 50
53.968113
 51
126.031876
  0
ARC
  8
0
 10
149.031189
 20
-56.000000
 40
10.200005
 50
233.968140
 51
306.031891
  0
ENDSEC
  0
EOF
