  0
SECTION
  2
HEADER
  0
ENDSEC
  0
SECTION
  2
TABLES
  0
TABLE
  2
LTYPE
 70
     4
  0
LTYPE
  2
CONTINUOUS
 70
    64
  3
Solid line
 72
    65
 73
     0
 40
0.000000
  0
LTYPE
  2
DASHED
 70
    64
  3
__ __ __ __ __ __ __ __ __ __ __ __ __ __ __
 72
    65
 73
     2
 40
3.500000
 49
2.000000
 49
-1.500000
  0
LTYPE
  2
CENTER
 70
    64
  3
____ _ ____ _ ____ _ ____ _ ____ _ ____ _ ____
 72
    65
 73
     4
 40
17.500000
 49
13.000000
 49
-1.500000
 49
1.500000
 49
-1.500000
  0
LTYPE
  2
PHANTOM
 70
    64
  3
_____ _ _ _____ _ _ _____ _ _ _____ _ _ ____  
 72
    65
 73
     6
 40
15.500000
 49
8.000000
 49
-1.500000
 49
1.500000
 49
-1.500000
 49
1.500000
 49
-1.500000
  0
LTYPE
  2
DASHED1
 70
    64
  3
__ __ __ __ __ __ __ __ __ __ __ __ __ __ __
 72
    65
 73
     2
 40
1.500000
 49
1.000000
 49
-0.500000
  0
LTYPE
  2
DASHED2
 70
    64
  3
__ __ __ __ __ __ __ __ __ __ __ __ __ __ __
 72
    65
 73
     2
 40
3.500000
 49
2.500000
 49
-1.000000
  0
LTYPE
  2
DASHED3
 70
    64
  3
__ __ __ __ __ __ __ __ __ __ __ __ __ __ __
 72
    65
 73
     2
 40
6.000000
 49
4.000000
 49
-2.000000
  0
LTYPE
  2
DASHED4
 70
    64
  3
__ __ __ __ __ __ __ __ __ __ __ __ __ __ __
 72
    65
 73
     2
 40
12.000000
 49
10.000000
 49
-2.000000
  0
LTYPE
  2
DASHED5
 70
    64
  3
__ __ __ __ __ __ __ __ __ __ __ __ __ __ __
 72
    65
 73
     2
 40
17.000000
 49
15.000000
 49
-2.000000
  0
LTYPE
  2
DASHED6
 70
    64
  3
__ __ __ __ __ __ __ __ __ __ __ __ __ __ __
 72
    65
 73
     2
 40
29.000000
 49
27.000000
 49
-2.000000
  0
LTYPE
  2
PHANTOM1
 70
    64
  3
_____ _ _ _____ _ _ _____ _ _ _____ _ _ ____  
 72
    65
 73
     6
 40
31.000000
 49
25.000000
 49
-1.500000
 49
1.000000
 49
-1.000000
 49
1.000000
 49
-1.500000
  0
LTYPE
  2
PHANTOM2
 70
    64
  3
_____ _ _ _____ _ _ _____ _ _ _____ _ _ ____  
 72
    65
 73
     6
 40
36.000000
 49
27.000000
 49
-1.500000
 49
2.500000
 49
-1.000000
 49
2.500000
 49
-1.500000
  0
LTYPE
  2
PHANTOM3
 70
    64
  3
_____ _ _ _____ _ _ _____ _ _ _____ _ _ ____  
 72
    65
 73
     6
 40
78.000000
 49
64.000000
 49
-2.000000
 49
4.000000
 49
-2.000000
 49
4.000000
 49
-2.000000
  0
LTYPE
  2
CENTER1
 70
    64
  3
____ _ ____ _ ____ _ ____ _ ____ _ ____ _ ____
 72
    65
 73
     4
 40
19.000000
 49
14.000000
 49
-1.000000
 49
3.000000
 49
-1.000000
  0
LTYPE
  2
CENTER2
 70
    64
  3
____ _ ____ _ ____ _ ____ _ ____ _ ____ _ ____
 72
    65
 73
     4
 40
28.500000
 49
25.000000
 49
-1.000000
 49
1.500000
 49
-1.000000
  0
LTYPE
  2
CENTER3
 70
    64
  3
____ _ ____ _ ____ _ ____ _ ____ _ ____ _ ____
 72
    65
 73
     4
 40
31.500000
 49
27.000000
 49
-1.000000
 49
2.500000
 49
-1.000000
  0
LTYPE
  2
CENTER4
 70
    64
  3
____ _ ____ _ ____ _ ____ _ ____ _ ____ _ ____
 72
    65
 73
     4
 40
50.000000
 49
45.000000
 49
-1.000000
 49
3.000000
 49
-1.000000
  0
LTYPE
  2
CENTER5
 70
    64
  3
____ _ ____ _ ____ _ ____ _ ____ _ ____ _ ____
 72
    65
 73
     4
 40
100.000000
 49
92.000000
 49
-2.000000
 49
4.000000
 49
-2.000000
  0
LTYPE
  2
SBK1
 70
    64
  3
______ _ _ _ ______ _ _ _ ______ _ _ _ _____  
 72
    65
 73
     8
 40
60.500000
 49
45.000000
 49
-2.000000
 49
2.500000
 49
-2.000000
 49
2.500000
 49
-2.000000
 49
2.500000
 49
-2.000000
  0
LTYPE
  2
SBK2
 70
    64
  3
______ _ _ _ ______ _ _ _ ______ _ _ _ _____  
 72
    65
 73
     8
 40
84.000000
 49
64.000000
 49
-2.000000
 49
4.000000
 49
-2.000000
 49
4.000000
 49
-2.000000
 49
4.000000
 49
-2.000000
  0
LTYPE
  2
STCH
 70
    64
  3
__ __ __ __ __ __ __ __ __ __ __ __ __ __ __
 72
    65
 73
     2
 40
3.000000
 49
1.000000
 49
-2.000000
  0
LTYPE
  2
MTCH
 70
    64
  3
_____ _ _ _____ _ _ _____ _ _ _____ _ _ ____  
 72
    65
 73
     6
 40
80.000000
 49
66.000000
 49
-2.000000
 49
4.000000
 49
-2.000000
 49
4.000000
 49
-2.000000
  0
ENDTAB
  0
TABLE
  2
LAYER
 70
     1
  0
LAYER
  2
0
 70
     0
 62
     7
  6
CONTINUOUS
  0
ENDTAB
  0
TABLE
  2
STYLE
 70
     1
  0
STYLE
  2
STANDARD
 70
     0
 40
0.000000
 41
1.000000
 50
0.000000
 71
     0
 42
0.200000
  3
txt
  4
BIGFONT
  0
ENDTAB
  0
TABLE
  2
VIEW
 70
     0
  0
ENDTAB
  0
ENDSEC
  0
SECTION
  2
BLOCKS
  0
ENDSEC
  0
SECTION
  2
ENTITIES
  0
LINE
  8
0
 62
     1
 10
-185.436783
 20
-127.279236
 11
-185.436783
 21
127.279236
  0
LINE
  8
0
 62
     1
 10
185.436783
 20
127.279236
 11
185.436783
 21
-127.279236
  0
LINE
  8
0
 62
     1
 10
-185.436783
 20
-127.279236
 11
185.436783
 21
-127.279236
  0
LINE
  8
0
 62
     1
 10
-185.436783
 20
127.279236
 11
185.436783
 21
127.279236
  0
LINE
  8
0
 62
     1
 10
-185.436783
 20
112.978195
 11
-109.164589
 21
112.978195
  0
LINE
  8
0
 62
     1
 10
-109.164589
 20
112.978195
 11
-109.164589
 21
127.279236
  0
LINE
  8
0
 62
     1
 10
109.164581
 20
-112.978210
 11
185.436783
 21
-112.978210
  0
LINE
  8
0
 62
     1
 10
109.164581
 20
112.978195
 11
185.436783
 21
112.978195
  0
LINE
  8
0
 62
     1
 10
109.164581
 20
127.279236
 11
109.164581
 21
112.978195
  0
LINE
  8
0
 62
     1
 10
109.164581
 20
-112.978210
 11
109.164581
 21
-127.279236
  0
TEXT
  8
0
 62
     1
 10
113.360985
 20
117.310349
 40
4.242641
  1
DATE : JUN ,1992
 50
0.000000
 41
1.052631
 51
0.000000
  7
STANDARD
  0
TEXT
  8
0
 62
     1
 10
-172.764969
 20
116.628723
 40
5.000000
  1
SLIM BRAKE
 50
0.000000
 41
1.052632
 51
0.000000
  7
STANDARD
  0
TEXT
  8
0
 62
     1
 10
114.336403
 20
-123.628723
 40
5.000000
  1
KOGANEI CORP.
 50
0.000000
 41
1.052632
 51
0.000000
  7
STANDARD
  0
TEXT
  8
0
 10
-153.533279
 20
94.381302
 40
5.000000
  1
MODEL : DAR 20*ST(25)
 50
0.000000
 41
1.052632
 51
0.000000
  7
STANDARD
  0
POINT
  8
0
 10
-55.000000
 20
-55.000000
  0
POINT
  8
0
 10
110.000000
 20
-55.000000
  0
LINE
  8
0
 10
-92.751663
 20
-55.000000
 11
114.266586
 21
-55.000000
  0
LINE
  8
0
 10
-58.730835
 20
-39.411530
 11
-64.294220
 21
-39.411530
  0
LINE
  8
0
 10
-58.500000
 20
-70.588455
 11
-64.294235
 21
-70.588455
  0
LINE
  8
0
 10
-58.000000
 20
-68.500137
 11
-58.500000
 21
-68.500137
  0
LINE
  8
0
 10
-65.500031
 20
-41.499939
 11
-64.294266
 21
-39.411491
  0
LINE
  8
0
 10
-64.294235
 20
-70.588455
 11
-65.500015
 21
-68.499985
  0
LINE
  8
0
 10
-58.500000
 20
-62.794212
 11
-64.294235
 21
-62.794212
  0
LINE
  8
0
 10
-58.500000
 20
-47.205753
 11
-64.294220
 21
-47.205753
  0
LINE
  8
0
 10
-66.999908
 20
-63.999935
 11
-65.999893
 21
-64.999931
  0
LINE
  8
0
 10
-66.999985
 20
-46.000000
 11
-65.999985
 21
-45.000000
  0
LINE
  8
0
 10
-66.000000
 20
-44.999989
 11
-65.500000
 21
-44.999989
  0
LINE
  8
0
 10
-66.000000
 20
-64.999985
 11
-65.500000
 21
-64.999985
  0
LINE
  8
0
 10
-66.000000
 20
-44.999989
 11
-65.500000
 21
-44.999989
  0
LINE
  8
0
 10
-58.500000
 20
-68.500137
 11
-58.000000
 21
-68.500137
  0
LINE
  8
0
 10
-58.500000
 20
-41.499989
 11
-58.000000
 21
-41.499989
  0
LINE
  8
0
 10
-64.294235
 20
-70.588455
 11
-58.500000
 21
-70.588455
  0
LINE
  8
0
 10
-64.294220
 20
-39.411530
 11
-58.500000
 21
-39.411530
  0
LINE
  8
0
 10
-73.000000
 20
-57.645737
 11
-73.000000
 21
-52.354233
  0
LINE
  8
0
 10
-68.000000
 20
-57.645737
 11
-68.000000
 21
-52.354233
  0
LINE
  8
0
 10
-73.000000
 20
-52.354233
 11
-68.000000
 21
-52.354233
  0
LINE
  8
0
 10
-73.000000
 20
-57.645760
 11
-68.000000
 21
-57.645760
  0
LINE
  8
0
 10
-73.000015
 20
-57.645706
 11
-68.000015
 21
-52.354206
  0
LINE
  8
0
 10
-73.000008
 20
-52.354225
 11
-68.000008
 21
-57.645733
  0
LINE
  8
0
 10
-58.000000
 20
-68.499985
 11
-58.000000
 21
-41.499989
  0
LINE
  8
0
 10
-58.500000
 20
-70.588440
 11
-58.500000
 21
-39.411530
  0
LINE
  8
0
 10
-67.000000
 20
-63.999985
 11
-67.000000
 21
-45.999989
  0
LINE
  8
0
 10
-65.500000
 20
-41.499989
 11
-65.500000
 21
-68.499985
  0
LINE
  8
0
 10
-75.000000
 20
-58.999985
 11
-75.000000
 21
-50.999985
  0
LINE
  8
0
 10
-66.000061
 20
-44.999989
 11
-66.000061
 21
-64.999985
  0
LINE
  8
0
 10
-90.000000
 20
-51.999985
 11
-90.000000
 21
-57.999985
  0
LINE
  8
0
 10
-89.999954
 20
-52.000015
 11
-88.999947
 21
-51.000015
  0
LINE
  8
0
 10
-89.999939
 20
-57.999992
 11
-88.999947
 21
-58.999992
  0
LINE
  8
0
 10
-89.000000
 20
-50.999985
 11
-89.000000
 21
-58.999985
  0
LINE
  8
0
 10
-90.000000
 20
-57.999985
 11
-75.000000
 21
-57.999985
  0
LINE
  8
0
 10
-90.000000
 20
-51.999985
 11
-75.000000
 21
-51.999985
  0
LINE
  8
0
 10
73.000000
 20
-41.499996
 11
73.000000
 21
-68.500000
  0
LINE
  8
0
 10
89.000000
 20
-41.499996
 11
73.000000
 21
-41.499996
  0
LINE
  8
0
 10
89.000000
 20
-68.500000
 11
73.000000
 21
-68.500000
  0
LINE
  8
0
 10
110.000000
 20
-63.999985
 11
110.000000
 21
-45.999989
  0
LINE
  8
0
 10
91.000000
 20
-65.000000
 11
91.000000
 21
-64.000046
  0
LINE
  8
0
 10
89.000000
 20
-68.500000
 11
89.000000
 21
-41.499996
  0
LINE
  8
0
 10
89.000000
 20
-45.000042
 11
109.160934
 21
-45.000042
  0
LINE
  8
0
 10
110.000000
 20
-45.999989
 11
91.000000
 21
-45.999989
  0
LINE
  8
0
 10
91.000000
 20
-64.000046
 11
110.000000
 21
-64.000046
  0
LINE
  8
0
 10
109.160919
 20
-65.000046
 11
89.000000
 21
-65.000046
  0
LINE
  8
0
 10
91.000000
 20
-45.999989
 11
91.000000
 21
-44.999996
  0
LINE
  8
0
 10
110.000336
 20
-45.999809
 11
109.161224
 21
-44.999821
  0
LINE
  8
0
 10
109.999954
 20
-63.999954
 11
109.160873
 21
-64.999939
  0
LINE
  8
0
 10
91.000031
 20
-45.999962
 11
89.267990
 21
-44.999981
  0
LINE
  8
0
 10
91.000092
 20
-64.000015
 11
89.268005
 21
-65.000031
  0
LINE
  8
0
 10
101.000000
 20
-48.639103
 11
101.000000
 21
-61.000008
  0
LINE
  8
0
 10
-89.000000
 20
-58.999985
 11
-67.000000
 21
-58.999985
  0
LINE
  8
0
 10
109.160919
 20
-65.000046
 11
109.160919
 21
-64.000046
  0
LINE
  8
0
 10
-38.500000
 20
-35.450424
 11
-38.500000
 21
-45.259266
  0
LINE
  8
0
 10
-31.000000
 20
-31.000000
 11
-15.000000
 21
-31.000000
  0
LINE
  8
0
 10
-21.500000
 20
-26.000000
 11
-20.099998
 21
-26.000000
  0
LINE
  8
0
 10
-22.000000
 20
-27.500000
 11
-17.000000
 21
-27.500000
  0
LINE
  8
0
 10
-17.500000
 20
-27.500000
 11
-17.500000
 21
-26.000000
  0
LINE
  8
0
 10
-21.500000
 20
-27.500000
 11
-21.500000
 21
-26.000000
  0
LINE
  8
0
 10
-20.099998
 20
-27.000000
 11
-20.099998
 21
-26.000000
  0
LINE
  8
0
 10
-18.900002
 20
-27.000000
 11
-18.900002
 21
-26.000000
  0
LINE
  8
0
 10
-20.099998
 20
-27.000000
 11
-18.900002
 21
-27.000000
  0
LINE
  8
0
 10
-18.900002
 20
-26.000000
 11
-17.500000
 21
-26.000000
  0
LINE
  8
0
 10
-22.000000
 20
-31.000000
 11
-22.000000
 21
-27.500000
  0
LINE
  8
0
 10
-17.000000
 20
-31.000000
 11
-17.000000
 21
-27.500000
  0
LINE
  8
0
 10
-55.000000
 20
-72.500000
 11
-55.000000
 21
-37.500000
  0
LINE
  8
0
 10
8.000000
 20
-44.299999
 11
73.000000
 21
-44.299999
  0
LINE
  8
0
 10
-12.000000
 20
-72.500000
 11
-12.000000
 21
-37.500000
  0
LINE
  8
0
 10
-55.000000
 20
-37.500000
 11
4.000000
 21
-37.500000
  0
LINE
  8
0
 10
-55.000000
 20
-72.500000
 11
4.000000
 21
-72.500000
  0
LINE
  8
0
 10
4.000000
 20
-72.500000
 11
4.000000
 21
-37.500000
  0
LINE
  8
0
 10
-15.000000
 20
-37.500000
 11
-15.000000
 21
-31.000000
  0
LINE
  8
0
 10
-31.000000
 20
-37.500000
 11
-31.000000
 21
-31.000000
  0
LINE
  8
0
 10
-57.000000
 20
-44.999989
 11
-57.000000
 21
-64.999985
  0
LINE
  8
0
 10
-66.999985
 20
-45.999989
 11
-65.500000
 21
-45.999989
  0
LINE
  8
0
 10
-55.000000
 20
-44.999989
 11
-58.000000
 21
-44.999989
  0
LINE
  8
0
 10
-57.000023
 20
-45.999939
 11
-55.267986
 21
-44.999947
  0
LINE
  8
0
 10
-57.000019
 20
-64.000053
 11
-55.267975
 21
-65.000046
  0
LINE
  8
0
 10
-66.000031
 20
-64.999985
 11
-65.500000
 21
-64.999985
  0
LINE
  8
0
 10
-67.000015
 20
-63.999985
 11
-65.500000
 21
-63.999985
  0
LINE
  8
0
 10
-30.999992
 20
-35.041443
 11
-23.999990
 21
-30.999992
  0
LINE
  8
0
 10
-16.599998
 20
-37.500000
 11
-16.599998
 21
-31.000000
  0
LINE
  8
0
 10
-58.000000
 20
-64.999985
 11
-55.000000
 21
-64.999985
  0
LINE
  8
0
 10
-65.500000
 20
-44.999989
 11
-66.000015
 21
-44.999989
  0
LINE
  8
0
 10
-67.000000
 20
-51.000000
 11
-89.000000
 21
-51.000000
  0
LINE
  8
0
 10
-58.000000
 20
-45.999989
 11
-57.000000
 21
-45.999989
  0
LINE
  8
0
 10
-58.000000
 20
-63.999985
 11
-57.000000
 21
-63.999985
  0
LINE
  8
0
 10
4.000000
 20
-65.699997
 11
73.000000
 21
-65.699997
  0
LINE
  8
0
 10
81.000000
 20
-37.174995
 11
81.000000
 21
-49.259262
  0
LINE
  8
0
 10
-4.000000
 20
-35.321548
 11
-4.000000
 21
-45.259266
  0
LINE
  8
0
 10
8.000000
 20
-65.699997
 11
8.000000
 21
-44.299999
  0
LINE
  8
0
 10
8.000000
 20
-65.699997
 11
8.000000
 21
-70.633980
  0
LINE
  8
0
 10
4.000000
 20
-38.500000
 11
7.500000
 21
-38.500000
  0
LINE
  8
0
 10
4.000000
 20
-45.500000
 11
7.500004
 21
-45.500000
  0
LINE
  8
0
 10
7.500000
 20
-65.699997
 11
7.500000
 21
-71.500000
  0
LINE
  8
0
 10
7.500019
 20
-38.499992
 11
8.000015
 21
-39.366009
  0
LINE
  8
0
 10
4.000000
 20
-71.500000
 11
7.500000
 21
-71.500000
  0
LINE
  8
0
 10
7.500057
 20
-71.500031
 11
8.000057
 21
-70.634018
  0
LINE
  8
0
 10
7.500000
 20
-45.500000
 11
7.500000
 21
-38.500000
  0
LINE
  8
0
 10
8.000000
 20
-44.633999
 11
8.000000
 21
-39.366020
  0
LINE
  8
0
 10
7.500019
 20
-45.500000
 11
8.000011
 21
-44.633987
  0
LINE
  8
0
 10
109.160919
 20
-45.999989
 11
109.160919
 21
-45.000042
  0
CIRCLE
  8
0
 10
101.000000
 20
-55.000008
 40
4.000000
  0
POLYLINE
  8
0
 66
     1
  0
VERTEX
  8
0
 10
-64.294220
 20
-39.411530
  0
VERTEX
  8
0
 10
-64.694382
 20
-40.129295
  0
VERTEX
  8
0
 10
-65.027763
 20
-40.888165
  0
VERTEX
  8
0
 10
-65.281639
 20
-41.677864
  0
VERTEX
  8
0
 10
-65.443291
 20
-42.488117
  0
VERTEX
  8
0
 10
-65.500000
 20
-43.308643
  0
VERTEX
  8
0
 10
-65.443291
 20
-44.129169
  0
VERTEX
  8
0
 10
-65.281639
 20
-44.939419
  0
VERTEX
  8
0
 10
-65.027763
 20
-45.729118
  0
VERTEX
  8
0
 10
-64.694382
 20
-46.487988
  0
VERTEX
  8
0
 10
-64.294220
 20
-47.205753
  0
SEQEND
  0
POLYLINE
  8
0
 66
     1
  0
VERTEX
  8
0
 10
-64.294235
 20
-62.794212
  0
VERTEX
  8
0
 10
-64.694397
 20
-63.511978
  0
VERTEX
  8
0
 10
-65.027771
 20
-64.270851
  0
VERTEX
  8
0
 10
-65.281639
 20
-65.060547
  0
VERTEX
  8
0
 10
-65.443291
 20
-65.870804
  0
VERTEX
  8
0
 10
-65.500000
 20
-66.691330
  0
VERTEX
  8
0
 10
-65.443291
 20
-67.511856
  0
VERTEX
  8
0
 10
-65.281639
 20
-68.322105
  0
VERTEX
  8
0
 10
-65.027771
 20
-69.111801
  0
VERTEX
  8
0
 10
-64.694397
 20
-69.870674
  0
VERTEX
  8
0
 10
-64.294235
 20
-70.588440
  0
SEQEND
  0
POLYLINE
  8
0
 66
     1
  0
VERTEX
  8
0
 10
-64.294235
 20
-62.794212
  0
VERTEX
  8
0
 10
-64.569145
 20
-61.846561
  0
VERTEX
  8
0
 10
-64.810463
 20
-60.888260
  0
VERTEX
  8
0
 10
-65.017227
 20
-59.920826
  0
VERTEX
  8
0
 10
-65.188515
 20
-58.945789
  0
VERTEX
  8
0
 10
-65.323380
 20
-57.964664
  0
VERTEX
  8
0
 10
-65.420876
 20
-56.978973
  0
VERTEX
  8
0
 10
-65.480064
 20
-55.990238
  0
VERTEX
  8
0
 10
-65.500000
 20
-54.999985
  0
VERTEX
  8
0
 10
-65.480064
 20
-54.009731
  0
VERTEX
  8
0
 10
-65.420868
 20
-53.020996
  0
VERTEX
  8
0
 10
-65.323372
 20
-52.035305
  0
VERTEX
  8
0
 10
-65.188507
 20
-51.054180
  0
VERTEX
  8
0
 10
-65.017220
 20
-50.079140
  0
VERTEX
  8
0
 10
-64.810448
 20
-49.111706
  0
VERTEX
  8
0
 10
-64.569130
 20
-48.153404
  0
VERTEX
  8
0
 10
-64.294220
 20
-47.205753
  0
SEQEND
  0
POINT
  8
0
 10
-54.999996
 20
39.999996
  0
POINT
  8
0
 10
110.000000
 20
39.999996
  0
LINE
  8
0
 10
110.000000
 20
33.999996
 11
110.000000
 21
45.999996
  0
LINE
  8
0
 10
-54.999996
 20
22.499996
 11
-54.999996
 21
57.499996
  0
LINE
  8
0
 10
73.000000
 20
53.500011
 11
73.000000
 21
26.500011
  0
LINE
  8
0
 10
89.000000
 20
53.500011
 11
73.000000
 21
53.500011
  0
LINE
  8
0
 10
89.000000
 20
26.500011
 11
73.000000
 21
26.500011
  0
LINE
  8
0
 10
89.000000
 20
26.500011
 11
89.000000
 21
53.500011
  0
LINE
  8
0
 10
89.000000
 20
30.000011
 11
89.000000
 21
50.000011
  0
LINE
  8
0
 10
81.000000
 20
48.666664
 11
81.000000
 21
30.666664
  0
LINE
  8
0
 10
-14.999996
 20
41.100002
 11
-14.999996
 21
53.899990
  0
LINE
  8
0
 10
-54.999996
 20
57.499996
 11
4.000004
 21
57.499996
  0
LINE
  8
0
 10
-54.999996
 20
22.499996
 11
4.000004
 21
22.499996
  0
LINE
  8
0
 10
4.000004
 20
22.499996
 11
4.000004
 21
57.499996
  0
LINE
  8
0
 10
-29.399996
 20
55.499996
 11
-16.599995
 21
55.499996
  0
LINE
  8
0
 10
-29.400000
 20
39.499996
 11
-16.599995
 21
39.499996
  0
LINE
  8
0
 10
-30.999996
 20
41.099995
 11
-30.999996
 21
53.899990
  0
LINE
  8
0
 10
-29.400017
 20
55.500031
 11
-31.000023
 21
53.900024
  0
LINE
  8
0
 10
-30.999996
 20
41.099995
 11
-29.399998
 21
39.499996
  0
LINE
  8
0
 10
-16.599995
 20
39.500019
 11
-14.999996
 21
41.100018
  0
LINE
  8
0
 10
-15.000011
 20
53.899982
 11
-16.600010
 21
55.499981
  0
LINE
  8
0
 10
-11.999996
 20
57.499996
 11
-11.999996
 21
22.499996
  0
LINE
  8
0
 10
-20.249996
 20
42.145947
 11
-20.249996
 21
45.854046
  0
LINE
  8
0
 10
-18.749996
 20
42.145947
 11
-18.749996
 21
45.854046
  0
LINE
  8
0
 10
-27.499996
 20
51.366024
 11
-27.499996
 21
49.633968
  0
LINE
  8
0
 10
-24.499996
 20
51.366024
 11
-24.499996
 21
49.633968
  0
LINE
  8
0
 10
-27.500008
 20
51.366058
 11
-26.000004
 21
52.232086
  0
LINE
  8
0
 10
-25.999992
 20
52.232071
 11
-24.499994
 21
51.366051
  0
LINE
  8
0
 10
-25.999968
 20
48.767914
 11
-24.499969
 21
49.633938
  0
LINE
  8
0
 10
-27.499977
 20
49.634003
 11
-25.999979
 21
48.767979
  0
LINE
  8
0
 10
-3.999996
 20
36.174763
 11
-3.999996
 21
22.719105
  0
LINE
  8
0
 10
-11.153000
 20
29.499996
 11
2.179211
 21
29.499996
  0
LINE
  8
0
 10
-45.653000
 20
29.499996
 11
-32.320786
 21
29.499996
  0
LINE
  8
0
 10
-38.499996
 20
36.174763
 11
-38.499996
 21
22.719105
  0
LINE
  8
0
 10
-11.153000
 20
43.999996
 11
2.179211
 21
43.999996
  0
LINE
  8
0
 10
-3.999996
 20
50.674770
 11
-3.999996
 21
37.219105
  0
LINE
  8
0
 10
4.000004
 20
29.299999
 11
73.000000
 21
29.299999
  0
LINE
  8
0
 10
-30.999998
 20
46.500019
 11
-23.999990
 21
39.500011
  0
LINE
  8
0
 10
-21.999977
 20
55.500019
 11
-14.999981
 21
48.500023
  0
LINE
  8
0
 10
8.000004
 20
50.699993
 11
73.000000
 21
50.699993
  0
LINE
  8
0
 10
-66.999924
 20
30.999962
 11
-65.999908
 21
29.999954
  0
LINE
  8
0
 10
-66.999969
 20
48.999989
 11
-65.999992
 21
49.999969
  0
LINE
  8
0
 10
-66.999985
 20
31.000011
 11
-66.999985
 21
49.000011
  0
LINE
  8
0
 10
-65.999985
 20
30.000011
 11
-65.500000
 21
30.000011
  0
LINE
  8
0
 10
-66.999985
 20
31.000011
 11
-65.500000
 21
31.000011
  0
LINE
  8
0
 10
-54.999989
 20
50.000011
 11
-57.999996
 21
50.000011
  0
LINE
  8
0
 10
-66.999985
 20
49.000011
 11
-65.500000
 21
49.000011
  0
LINE
  8
0
 10
-74.999985
 20
36.000011
 11
-74.999985
 21
44.000011
  0
LINE
  8
0
 10
-66.000015
 20
50.000011
 11
-66.000015
 21
30.000011
  0
LINE
  8
0
 10
-56.999989
 20
50.000011
 11
-56.999989
 21
30.000011
  0
LINE
  8
0
 10
-89.999985
 20
43.000011
 11
-89.999985
 21
37.000011
  0
LINE
  8
0
 10
-89.999908
 20
42.999924
 11
-88.999908
 21
43.999931
  0
LINE
  8
0
 10
-90.000008
 20
36.999939
 11
-89.000038
 21
35.999950
  0
LINE
  8
0
 10
-88.999985
 20
44.000011
 11
-88.999985
 21
36.000011
  0
LINE
  8
0
 10
-89.999985
 20
37.000011
 11
-74.999969
 21
37.000011
  0
LINE
  8
0
 10
-89.999985
 20
43.000011
 11
-74.999985
 21
43.000011
  0
LINE
  8
0
 10
-88.999985
 20
36.000011
 11
-73.999969
 21
36.000011
  0
LINE
  8
0
 10
-72.999985
 20
42.999996
 11
-67.999985
 21
42.999996
  0
LINE
  8
0
 10
-72.999985
 20
36.999996
 11
-67.999985
 21
36.999996
  0
LINE
  8
0
 10
-67.999977
 20
42.999928
 11
-66.999947
 21
43.999939
  0
LINE
  8
0
 10
-73.999893
 20
35.999958
 11
-72.999908
 21
36.999939
  0
LINE
  8
0
 10
-68.000031
 20
36.999935
 11
-67.000038
 21
35.999947
  0
LINE
  8
0
 10
-73.999931
 20
44.000092
 11
-72.999886
 21
43.000065
  0
LINE
  8
0
 10
-74.000000
 20
44.000027
 11
-88.999985
 21
44.000027
  0
LINE
  8
0
 10
90.000000
 20
29.999996
 11
90.000000
 21
33.999996
  0
LINE
  8
0
 10
89.000000
 20
49.999996
 11
90.000000
 21
49.999996
  0
LINE
  8
0
 10
90.000000
 20
29.999996
 11
89.000000
 21
29.999996
  0
LINE
  8
0
 10
101.000000
 20
48.999996
 11
101.000000
 21
30.999996
  0
LINE
  8
0
  6
DASHED
 10
97.000000
 20
45.999996
 11
97.000000
 21
33.999996
  0
LINE
  8
0
  6
DASHED
 10
105.000000
 20
45.999996
 11
105.000000
 21
33.999996
  0
LINE
  8
0
 10
90.000000
 20
45.999996
 11
110.000000
 21
45.999996
  0
LINE
  8
0
 10
90.000000
 20
33.999996
 11
110.000000
 21
33.999996
  0
LINE
  8
0
 10
90.000000
 20
45.999996
 11
90.000000
 21
49.999996
  0
LINE
  8
0
 10
8.000004
 20
29.299995
 11
8.000004
 21
24.366016
  0
LINE
  8
0
 10
4.000004
 20
56.499996
 11
7.500004
 21
56.499996
  0
LINE
  8
0
 10
4.000004
 20
49.499996
 11
7.500008
 21
49.499996
  0
LINE
  8
0
 10
7.500004
 20
29.299999
 11
7.500004
 21
23.499996
  0
LINE
  8
0
 10
7.500008
 20
56.500015
 11
8.000008
 21
55.633987
  0
LINE
  8
0
 10
4.000004
 20
23.499996
 11
7.500004
 21
23.499996
  0
LINE
  8
0
 10
7.500050
 20
23.499975
 11
8.000050
 21
24.365997
  0
LINE
  8
0
 10
7.500004
 20
49.499996
 11
7.500004
 21
56.499996
  0
LINE
  8
0
 10
8.000004
 20
50.365993
 11
8.000004
 21
55.633976
  0
LINE
  8
0
 10
7.500019
 20
49.500000
 11
8.000011
 21
50.366013
  0
LINE
  8
0
 10
-92.751663
 20
39.999996
 11
114.266586
 21
39.999996
  0
LINE
  8
0
 10
-64.294220
 20
55.588467
 11
-57.999996
 21
55.588467
  0
LINE
  8
0
 10
-58.499996
 20
24.411556
 11
-58.499996
 21
55.588467
  0
LINE
  8
0
 10
-57.999996
 20
24.411541
 11
-57.999996
 21
55.588467
  0
LINE
  8
0
 10
-65.500023
 20
53.500031
 11
-64.294266
 21
55.588478
  0
LINE
  8
0
 10
-65.500000
 20
53.500011
 11
-65.500000
 21
26.500011
  0
LINE
  8
0
 10
-64.294220
 20
24.411570
 11
-65.500000
 21
26.500042
  0
LINE
  8
0
 10
-64.294235
 20
24.411541
 11
-57.999996
 21
24.411541
  0
LINE
  8
0
 10
-65.500000
 20
50.000011
 11
-66.000000
 21
50.000011
  0
LINE
  8
0
 10
-57.999996
 20
49.000011
 11
-56.999989
 21
49.000011
  0
LINE
  8
0
 10
-57.999996
 20
31.000011
 11
-56.999989
 21
31.000011
  0
LINE
  8
0
 10
-57.999996
 20
30.000011
 11
-54.999989
 21
30.000011
  0
CIRCLE
  8
0
 10
-19.499996
 20
43.999996
 40
2.500000
  0
CIRCLE
  8
0
 10
-3.999996
 20
29.499996
 40
4.250000
  0
CIRCLE
  8
0
 10
-3.999996
 20
43.999996
 40
4.250000
  0
CIRCLE
  8
0
 10
-3.999996
 20
29.499996
 40
5.000000
  0
CIRCLE
  8
0
 10
-3.999996
 20
43.999996
 40
5.000000
  0
CIRCLE
  8
0
 10
-25.999996
 20
50.499996
 40
3.500000
  0
CIRCLE
  8
0
 10
81.000000
 20
39.999996
 40
5.000000
  0
CIRCLE
  8
0
 10
81.000000
 20
39.999996
 40
4.250000
  0
CIRCLE
  8
0
 10
-25.999996
 20
50.499996
 40
4.000000
  0
CIRCLE
  8
0
 10
-19.499996
 20
43.999996
 40
2.000000
  0
ARC
  8
0
 10
-39.706051
 20
47.794262
 40
25.793943
 50
162.411926
 51
197.588089
  0
ARC
  8
0
 10
-39.706051
 20
32.205822
 40
25.793949
 50
162.411880
 51
197.588058
  0
CIRCLE
  8
0
 10
-38.499996
 20
29.499996
 40
5.000000
  0
CIRCLE
  8
0
 10
-38.499996
 20
29.499996
 40
4.250000
  0
POINT
  8
0
 10
-114.500000
 20
-55.000000
  0
POINT
  8
0
 10
-128.000000
 20
-55.000000
  0
POINT
  8
0
 10
-110.500000
 20
-55.000000
  0
LINE
  8
0
 10
-141.500000
 20
-47.205769
 11
-141.500000
 21
-62.794228
  0
LINE
  8
0
 10
-114.500000
 20
-47.205769
 11
-114.500000
 21
-62.794228
  0
LINE
  8
0
 10
-127.999947
 20
-39.411579
 11
-114.499954
 21
-47.205795
  0
LINE
  8
0
 10
-141.499847
 20
-62.794182
 11
-127.999878
 21
-70.588409
  0
LINE
  8
0
 10
-127.999954
 20
-70.588470
 11
-114.499962
 21
-62.794254
  0
LINE
  8
0
 10
-128.000000
 20
-75.509758
 11
-128.000000
 21
-28.895248
  0
LINE
  8
0
 10
-148.138138
 20
-55.000000
 11
-107.563980
 21
-55.000000
  0
LINE
  8
0
 10
-141.499985
 20
-47.205750
 11
-127.999954
 21
-39.411556
  0
LINE
  8
0
 10
-110.500000
 20
-71.424072
 11
-110.500000
 21
-38.575928
  0
LINE
  8
0
 10
-145.500000
 20
-71.424072
 11
-145.500000
 21
-38.575928
  0
LINE
  8
0
 10
-144.424072
 20
-72.500000
 11
-111.575928
 21
-72.500000
  0
LINE
  8
0
 10
-144.424072
 20
-37.500000
 11
-111.575928
 21
-37.500000
  0
LINE
  8
0
 10
-135.000000
 20
-27.500000
 11
-130.000000
 21
-27.500000
  0
LINE
  8
0
 10
-130.500000
 20
-27.500000
 11
-130.500000
 21
-26.000000
  0
LINE
  8
0
 10
-134.500000
 20
-27.500000
 11
-134.500000
 21
-26.000000
  0
LINE
  8
0
 10
-134.500000
 20
-26.000000
 11
-130.500000
 21
-26.000000
  0
LINE
  8
0
 10
-135.000000
 20
-31.000000
 11
-135.000000
 21
-27.500000
  0
LINE
  8
0
 10
-130.000000
 20
-31.000000
 11
-130.000000
 21
-27.500000
  0
LINE
  8
0
 10
-127.500000
 20
-37.500000
 11
-127.500000
 21
-31.000000
  0
LINE
  8
0
 10
-143.500000
 20
-37.500000
 11
-143.500000
 21
-31.000000
  0
LINE
  8
0
 10
-143.500000
 20
-31.000000
 11
-127.500000
 21
-31.000000
  0
LINE
  8
0
 10
-129.100006
 20
-37.500000
 11
-129.100006
 21
-34.117683
  0
LINE
  8
0
 10
-134.500031
 20
-31.000042
 11
-127.500038
 21
-35.041492
  0
LINE
  8
0
 10
-141.000000
 20
-38.081551
 11
-141.000000
 21
-45.951866
  0
LINE
  8
0
 10
-144.928879
 20
-42.000000
 11
-136.676514
 21
-42.000000
  0
LINE
  8
0
 10
-115.000000
 20
-38.081551
 11
-115.000000
 21
-45.951866
  0
LINE
  8
0
 10
-111.071121
 20
-42.000000
 11
-119.323486
 21
-42.000000
  0
LINE
  8
0
 10
-115.000000
 20
-71.918449
 11
-115.000000
 21
-64.048134
  0
LINE
  8
0
 10
-111.071121
 20
-68.000000
 11
-119.323486
 21
-68.000000
  0
LINE
  8
0
 10
-141.000000
 20
-71.918449
 11
-141.000000
 21
-64.048134
  0
LINE
  8
0
 10
-144.928879
 20
-68.000000
 11
-136.676514
 21
-68.000000
  0
CIRCLE
  8
0
 10
-141.000000
 20
-42.000000
 40
1.900000
  0
CIRCLE
  8
0
 10
-115.000000
 20
-68.000000
 40
1.900000
  0
CIRCLE
  8
0
 10
-115.000000
 20
-42.000000
 40
1.900000
  0
CIRCLE
  8
0
 10
-115.000000
 20
-68.000000
 40
2.500000
  0
CIRCLE
  8
0
 10
-115.000000
 20
-42.000000
 40
2.500000
  0
CIRCLE
  8
0
 10
-128.000000
 20
-55.000000
 40
4.000000
  0
CIRCLE
  8
0
 10
-128.000000
 20
-55.000000
 40
9.000000
  0
CIRCLE
  8
0
 10
-128.000000
 20
-55.000000
 40
10.000000
  0
CIRCLE
  8
0
 10
-128.000000
 20
-55.000000
 40
13.500000
  0
CIRCLE
  8
0
 10
-128.000000
 20
-55.000000
 40
3.000000
  0
ARC
  8
0
 10
-128.000000
 20
-55.000000
 40
24.000004
 50
43.183430
 51
46.816570
  0
ARC
  8
0
 10
-128.000000
 20
-55.000000
 40
23.999998
 50
133.183441
 51
136.816589
  0
ARC
  8
0
 10
-128.000000
 20
-55.000000
 40
23.999992
 50
223.183411
 51
226.816559
  0
ARC
  8
0
 10
-128.000000
 20
-55.000000
 40
24.000004
 50
313.183441
 51
316.816559
  0
CIRCLE
  8
0
 10
-141.000000
 20
-68.000000
 40
2.500000
  0
CIRCLE
  8
0
 10
-141.000000
 20
-68.000000
 40
1.900000
  0
CIRCLE
  8
0
 10
-141.000000
 20
-42.000000
 40
2.500000
  0
POINT
  8
0
 10
152.482208
 20
-55.000000
  0
POINT
  8
0
 10
169.982208
 20
-55.000000
  0
LINE
  8
0
 10
139.482208
 20
-71.918449
 11
139.482208
 21
-64.048134
  0
LINE
  8
0
 10
135.553329
 20
-68.000000
 11
143.805695
 21
-68.000000
  0
LINE
  8
0
 10
165.482208
 20
-38.081551
 11
165.482208
 21
-45.951866
  0
LINE
  8
0
 10
169.411087
 20
-42.000000
 11
161.158722
 21
-42.000000
  0
LINE
  8
0
 10
152.482208
 20
-34.500000
 11
152.482208
 21
-75.500000
  0
LINE
  8
0
 10
146.482208
 20
-47.000000
 11
146.482208
 21
-63.000000
  0
LINE
  8
0
 10
158.482208
 20
-47.000000
 11
158.482208
 21
-63.000000
  0
LINE
  8
0
  6
DASHED
 10
146.482208
 20
-51.000000
 11
158.482208
 21
-51.000000
  0
LINE
  8
0
  6
DASHED
 10
146.482208
 20
-59.000000
 11
158.482208
 21
-59.000000
  0
LINE
  8
0
 10
134.982208
 20
-71.424072
 11
134.982208
 21
-38.575928
  0
LINE
  8
0
 10
168.906281
 20
-72.500000
 11
136.058136
 21
-72.500000
  0
LINE
  8
0
 10
168.906281
 20
-37.500000
 11
136.058136
 21
-37.500000
  0
LINE
  8
0
 10
159.482208
 20
-27.500000
 11
154.482208
 21
-27.500000
  0
LINE
  8
0
 10
154.982208
 20
-27.500000
 11
154.982208
 21
-26.000000
  0
LINE
  8
0
 10
158.982208
 20
-27.500000
 11
158.982208
 21
-26.000000
  0
LINE
  8
0
 10
158.982208
 20
-26.000000
 11
154.982208
 21
-26.000000
  0
LINE
  8
0
 10
159.482208
 20
-31.000000
 11
159.482208
 21
-27.500000
  0
LINE
  8
0
 10
154.482208
 20
-31.000000
 11
154.482208
 21
-27.500000
  0
LINE
  8
0
 10
151.982208
 20
-37.500000
 11
151.982208
 21
-31.000000
  0
LINE
  8
0
 10
167.982208
 20
-37.500000
 11
167.982208
 21
-31.000000
  0
LINE
  8
0
 10
167.982208
 20
-31.000000
 11
151.982208
 21
-31.000000
  0
LINE
  8
0
 10
153.582214
 20
-37.500000
 11
153.582214
 21
-34.117683
  0
LINE
  8
0
 10
158.982224
 20
-31.000000
 11
151.982254
 21
-35.041451
  0
LINE
  8
0
 10
169.982208
 20
-71.424072
 11
169.982208
 21
-38.575928
  0
LINE
  8
0
 10
131.982208
 20
-55.000000
 11
172.982208
 21
-55.000000
  0
CIRCLE
  8
0
 10
165.482208
 20
-42.000000
 40
3.500000
  0
ARC
  8
0
 10
152.482208
 20
-55.000000
 40
24.000004
 50
313.183441
 51
316.816589
  0
ARC
  8
0
 10
152.482208
 20
-55.000000
 40
23.999992
 50
223.183411
 51
226.816559
  0
CIRCLE
  8
0
 10
139.482208
 20
-68.000000
 40
3.500000
  0
CIRCLE
  8
0
 10
139.482208
 20
-68.000000
 40
2.633980
  0
CIRCLE
  8
0
 10
165.482208
 20
-42.000000
 40
2.633980
  0
CIRCLE
  8
0
 10
152.482208
 20
-55.000000
 40
10.000000
  0
ARC
  8
0
 10
152.482208
 20
-55.000000
 40
9.000002
 50
228.189697
 51
311.810333
  0
CIRCLE
  8
0
 10
152.482208
 20
-55.000000
 40
13.500000
  0
ARC
  8
0
 10
152.482208
 20
-55.000000
 40
8.999999
 50
48.189678
 51
131.810303
  0
ARC
  8
0
 10
152.482208
 20
-55.000000
 40
23.999998
 50
133.183395
 51
136.816528
  0
ARC
  8
0
 10
152.482208
 20
-55.000000
 40
24.000002
 50
43.183372
 51
46.816517
  0
ENDSEC
  0
EOF
