  0
SECTION
  2
HEADER
  0
ENDSEC
  0
SECTION
  2
TABLES
  0
TABLE
  2
LTYPE
 70
     4
  0
LTYPE
  2
CONTINUOUS
 70
    64
  3
Solid line
 72
    65
 73
     0
 40
0.000000
  0
LTYPE
  2
DASHED
 70
    64
  3
__ __ __ __ __ __ __ __ __ __ __ __ __ __ __
 72
    65
 73
     2
 40
3.500000
 49
2.000000
 49
-1.500000
  0
LTYPE
  2
CENTER
 70
    64
  3
____ _ ____ _ ____ _ ____ _ ____ _ ____ _ ____
 72
    65
 73
     4
 40
17.500000
 49
13.000000
 49
-1.500000
 49
1.500000
 49
-1.500000
  0
LTYPE
  2
PHANTOM
 70
    64
  3
_____ _ _ _____ _ _ _____ _ _ _____ _ _ ____  
 72
    65
 73
     6
 40
15.500000
 49
8.000000
 49
-1.500000
 49
1.500000
 49
-1.500000
 49
1.500000
 49
-1.500000
  0
LTYPE
  2
DASHED1
 70
    64
  3
__ __ __ __ __ __ __ __ __ __ __ __ __ __ __
 72
    65
 73
     2
 40
1.500000
 49
1.000000
 49
-0.500000
  0
LTYPE
  2
DASHED2
 70
    64
  3
__ __ __ __ __ __ __ __ __ __ __ __ __ __ __
 72
    65
 73
     2
 40
3.500000
 49
2.500000
 49
-1.000000
  0
LTYPE
  2
DASHED3
 70
    64
  3
__ __ __ __ __ __ __ __ __ __ __ __ __ __ __
 72
    65
 73
     2
 40
6.000000
 49
4.000000
 49
-2.000000
  0
LTYPE
  2
DASHED4
 70
    64
  3
__ __ __ __ __ __ __ __ __ __ __ __ __ __ __
 72
    65
 73
     2
 40
12.000000
 49
10.000000
 49
-2.000000
  0
LTYPE
  2
DASHED5
 70
    64
  3
__ __ __ __ __ __ __ __ __ __ __ __ __ __ __
 72
    65
 73
     2
 40
17.000000
 49
15.000000
 49
-2.000000
  0
LTYPE
  2
DASHED6
 70
    64
  3
__ __ __ __ __ __ __ __ __ __ __ __ __ __ __
 72
    65
 73
     2
 40
29.000000
 49
27.000000
 49
-2.000000
  0
LTYPE
  2
PHANTOM1
 70
    64
  3
_____ _ _ _____ _ _ _____ _ _ _____ _ _ ____  
 72
    65
 73
     6
 40
31.000000
 49
25.000000
 49
-1.500000
 49
1.000000
 49
-1.000000
 49
1.000000
 49
-1.500000
  0
LTYPE
  2
PHANTOM2
 70
    64
  3
_____ _ _ _____ _ _ _____ _ _ _____ _ _ ____  
 72
    65
 73
     6
 40
36.000000
 49
27.000000
 49
-1.500000
 49
2.500000
 49
-1.000000
 49
2.500000
 49
-1.500000
  0
LTYPE
  2
PHANTOM3
 70
    64
  3
_____ _ _ _____ _ _ _____ _ _ _____ _ _ ____  
 72
    65
 73
     6
 40
78.000000
 49
64.000000
 49
-2.000000
 49
4.000000
 49
-2.000000
 49
4.000000
 49
-2.000000
  0
LTYPE
  2
CENTER1
 70
    64
  3
____ _ ____ _ ____ _ ____ _ ____ _ ____ _ ____
 72
    65
 73
     4
 40
19.000000
 49
14.000000
 49
-1.000000
 49
3.000000
 49
-1.000000
  0
LTYPE
  2
CENTER2
 70
    64
  3
____ _ ____ _ ____ _ ____ _ ____ _ ____ _ ____
 72
    65
 73
     4
 40
28.500000
 49
25.000000
 49
-1.000000
 49
1.500000
 49
-1.000000
  0
LTYPE
  2
CENTER3
 70
    64
  3
____ _ ____ _ ____ _ ____ _ ____ _ ____ _ ____
 72
    65
 73
     4
 40
31.500000
 49
27.000000
 49
-1.000000
 49
2.500000
 49
-1.000000
  0
LTYPE
  2
CENTER4
 70
    64
  3
____ _ ____ _ ____ _ ____ _ ____ _ ____ _ ____
 72
    65
 73
     4
 40
50.000000
 49
45.000000
 49
-1.000000
 49
3.000000
 49
-1.000000
  0
LTYPE
  2
CENTER5
 70
    64
  3
____ _ ____ _ ____ _ ____ _ ____ _ ____ _ ____
 72
    65
 73
     4
 40
100.000000
 49
92.000000
 49
-2.000000
 49
4.000000
 49
-2.000000
  0
LTYPE
  2
SBK1
 70
    64
  3
______ _ _ _ ______ _ _ _ ______ _ _ _ _____  
 72
    65
 73
     8
 40
60.500000
 49
45.000000
 49
-2.000000
 49
2.500000
 49
-2.000000
 49
2.500000
 49
-2.000000
 49
2.500000
 49
-2.000000
  0
LTYPE
  2
SBK2
 70
    64
  3
______ _ _ _ ______ _ _ _ ______ _ _ _ _____  
 72
    65
 73
     8
 40
84.000000
 49
64.000000
 49
-2.000000
 49
4.000000
 49
-2.000000
 49
4.000000
 49
-2.000000
 49
4.000000
 49
-2.000000
  0
LTYPE
  2
STCH
 70
    64
  3
__ __ __ __ __ __ __ __ __ __ __ __ __ __ __
 72
    65
 73
     2
 40
3.000000
 49
1.000000
 49
-2.000000
  0
LTYPE
  2
MTCH
 70
    64
  3
_____ _ _ _____ _ _ _____ _ _ _____ _ _ ____  
 72
    65
 73
     6
 40
80.000000
 49
66.000000
 49
-2.000000
 49
4.000000
 49
-2.000000
 49
4.000000
 49
-2.000000
  0
ENDTAB
  0
TABLE
  2
LAYER
 70
     1
  0
LAYER
  2
0
 70
     0
 62
     7
  6
CONTINUOUS
  0
ENDTAB
  0
TABLE
  2
STYLE
 70
     1
  0
STYLE
  2
STANDARD
 70
     0
 40
0.000000
 41
1.000000
 50
0.000000
 71
     0
 42
0.200000
  3
txt
  4
BIGFONT
  0
ENDTAB
  0
TABLE
  2
VIEW
 70
     0
  0
ENDTAB
  0
ENDSEC
  0
SECTION
  2
BLOCKS
  0
ENDSEC
  0
SECTION
  2
ENTITIES
  0
LINE
  8
0
 10
-185.436783
 20
-127.279236
 11
-185.436783
 21
127.279236
  0
LINE
  8
0
 10
185.436783
 20
127.279236
 11
185.436783
 21
-127.279236
  0
LINE
  8
0
 10
-185.436783
 20
-127.279236
 11
185.436783
 21
-127.279236
  0
LINE
  8
0
 10
-185.436783
 20
127.279236
 11
185.436783
 21
127.279236
  0
LINE
  8
0
 10
-185.436783
 20
112.978195
 11
-109.164589
 21
112.978195
  0
LINE
  8
0
 10
-109.164589
 20
112.978195
 11
-109.164589
 21
127.279236
  0
LINE
  8
0
 10
109.164581
 20
-112.978210
 11
185.436783
 21
-112.978210
  0
LINE
  8
0
 10
109.164581
 20
112.978195
 11
185.436783
 21
112.978195
  0
LINE
  8
0
 10
109.164581
 20
127.279236
 11
109.164581
 21
112.978195
  0
LINE
  8
0
 10
109.164581
 20
-112.978210
 11
109.164581
 21
-127.279236
  0
TEXT
  8
0
 10
113.360985
 20
117.310349
 40
4.242641
  1
DATE : AUG ,1992
 50
0.000000
 41
1.052631
 51
0.000000
  7
STANDARD
  0
TEXT
  8
0
 10
-180.264954
 20
116.628723
 40
5.000000
  1
SLIM CYLINDER
 50
0.000000
 41
1.052632
 51
0.000000
  7
STANDARD
  0
TEXT
  8
0
 10
114.336403
 20
-123.628723
 40
5.000000
  1
KOGANEI CORP.
 50
0.000000
 41
1.052632
 51
0.000000
  7
STANDARD
  0
TEXT
  8
0
 10
-153.518448
 20
91.436203
 40
5.000000
  1
MODEL : DAK63X25-RL
 50
0.000000
 41
1.052632
 51
0.000000
  7
STANDARD
  0
POINT
  8
0
 10
-21.999996
 20
44.999992
  0
POINT
  8
0
 10
128.999969
 20
44.999992
  0
LINE
  8
0
 10
-42.000000
 20
61.500000
 11
-42.000000
 21
28.500004
  0
LINE
  8
0
 10
-40.212364
 20
63.000000
 11
-39.000000
 21
63.000000
  0
LINE
  8
0
 10
-42.000000
 20
61.500000
 11
-39.000000
 21
61.500000
  0
LINE
  8
0
 10
-42.000000
 20
28.500000
 11
-39.000000
 21
28.500000
  0
LINE
  8
0
 10
-42.000057
 20
61.500061
 11
-40.212421
 21
63.000069
  0
LINE
  8
0
 10
-41.999996
 20
28.500000
 11
-40.212349
 21
26.999996
  0
LINE
  8
0
 10
-40.212364
 20
63.000000
 11
-40.212364
 21
27.000000
  0
LINE
  8
0
 10
-27.000000
 20
63.000000
 11
-27.000000
 21
27.000000
  0
LINE
  8
0
 10
-28.000000
 20
63.000000
 11
-22.000000
 21
63.000000
  0
LINE
  8
0
 10
-28.000000
 20
27.000000
 11
-22.000000
 21
27.000000
  0
LINE
  8
0
 10
-27.000000
 20
61.917496
 11
-28.000000
 21
61.917496
  0
LINE
  8
0
 10
-27.000000
 20
28.082500
 11
-28.000000
 21
28.082500
  0
LINE
  8
0
 10
6.000000
 20
77.699997
 11
109.000000
 21
77.699997
  0
LINE
  8
0
 10
-22.000000
 20
12.299999
 11
109.000000
 21
12.299999
  0
LINE
  8
0
 10
86.000000
 20
77.699997
 11
86.000000
 21
12.299999
  0
LINE
  8
0
 10
109.000000
 20
77.699997
 11
109.000000
 21
12.299999
  0
LINE
  8
0
 10
-77.060013
 20
45.000000
 11
135.828629
 21
45.000000
  0
LINE
  8
0
 10
-74.000000
 20
51.188000
 11
-74.000000
 21
38.812000
  0
LINE
  8
0
 10
-73.000000
 20
52.000000
 11
-49.000000
 21
52.000000
  0
LINE
  8
0
 10
-73.000000
 20
38.000000
 11
-49.000000
 21
38.000000
  0
LINE
  8
0
 10
-74.000000
 20
51.000008
 11
-72.999992
 21
52.000000
  0
LINE
  8
0
 10
-74.000000
 20
38.999989
 11
-73.000015
 21
38.000000
  0
LINE
  8
0
 10
-51.000000
 20
52.000000
 11
-51.000000
 21
38.000000
  0
LINE
  8
0
 10
-73.812004
 20
51.188000
 11
-51.000000
 21
51.188000
  0
LINE
  8
0
 10
-73.811996
 20
38.812000
 11
-51.000000
 21
38.812000
  0
LINE
  8
0
 10
-73.000000
 20
52.000000
 11
-73.000000
 21
38.000000
  0
LINE
  8
0
 10
-48.000000
 20
53.000000
 11
-42.000000
 21
53.000000
  0
LINE
  8
0
 10
-48.000000
 20
37.000000
 11
-42.000000
 21
37.000000
  0
LINE
  8
0
 10
-48.999985
 20
51.999985
 11
-47.999985
 21
52.999992
  0
LINE
  8
0
 10
-49.000000
 20
37.999992
 11
-48.000008
 21
37.000004
  0
LINE
  8
0
 10
-48.000000
 20
48.872986
 11
-44.000000
 21
48.872986
  0
LINE
  8
0
 10
-47.999992
 20
48.872971
 11
-44.000008
 21
41.127014
  0
LINE
  8
0
 10
-44.000046
 20
48.873013
 11
-48.000053
 21
41.127041
  0
LINE
  8
0
 10
-44.000000
 20
48.872986
 11
-44.000000
 21
41.127014
  0
LINE
  8
0
 10
-48.000000
 20
41.127014
 11
-44.000000
 21
41.127014
  0
LINE
  8
0
 10
-48.000000
 20
53.000000
 11
-48.000000
 21
37.000000
  0
LINE
  8
0
 10
-49.000000
 20
52.000000
 11
-49.000000
 21
38.000000
  0
LINE
  8
0
 10
129.000000
 20
61.500000
 11
129.000000
 21
28.500000
  0
LINE
  8
0
 10
109.000000
 20
63.000000
 11
127.741348
 21
63.000000
  0
LINE
  8
0
 10
109.000000
 20
27.000000
 11
127.741348
 21
27.000000
  0
LINE
  8
0
 10
114.000000
 20
63.000000
 11
114.000000
 21
27.000000
  0
LINE
  8
0
 10
127.741302
 20
62.999966
 11
128.999969
 21
61.499962
  0
LINE
  8
0
 10
127.741394
 20
26.999989
 11
129.000015
 21
28.499968
  0
LINE
  8
0
 10
127.741348
 20
63.000000
 11
127.741348
 21
27.000000
  0
LINE
  8
0
 10
114.000000
 20
61.917496
 11
128.649673
 21
61.917496
  0
LINE
  8
0
 10
114.000000
 20
28.082500
 11
128.649689
 21
28.082500
  0
LINE
  8
0
 10
-40.212364
 20
27.000000
 11
-39.000000
 21
27.000000
  0
LINE
  8
0
 10
12.000000
 20
77.699997
 11
12.000000
 21
12.299999
  0
LINE
  8
0
 10
-8.000000
 20
81.580818
 11
-8.000000
 21
1.164688
  0
LINE
  8
0
 10
-22.000000
 20
66.000000
 11
-22.000000
 21
12.299999
  0
LINE
  8
0
 10
6.000000
 20
77.699997
 11
6.000000
 21
66.000000
  0
LINE
  8
0
 10
-22.000000
 20
66.000000
 11
6.000000
 21
66.000000
  0
LINE
  8
0
 10
-14.250000
 20
12.199997
 11
-1.750000
 21
12.199997
  0
LINE
  8
0
 10
-1.750000
 20
12.299999
 11
-1.750000
 21
12.199997
  0
LINE
  8
0
 10
-14.250000
 20
12.299999
 11
-14.250000
 21
12.199997
  0
LINE
  8
0
 10
-13.000000
 20
8.599998
 11
-3.000000
 21
8.599998
  0
LINE
  8
0
 10
-3.000000
 20
12.199997
 11
-3.000000
 21
8.599998
  0
LINE
  8
0
 10
-13.000000
 20
12.199997
 11
-13.000000
 21
8.599998
  0
LINE
  8
0
 10
-10.000000
 20
6.399994
 11
-6.000000
 21
6.399994
  0
LINE
  8
0
 10
-5.500000
 20
8.599998
 11
-5.500000
 21
8.399994
  0
LINE
  8
0
 10
-10.500000
 20
8.599998
 11
-10.500000
 21
8.399994
  0
LINE
  8
0
 10
-5.932999
 20
8.599998
 11
-5.932999
 21
7.966995
  0
LINE
  8
0
 10
-10.067001
 20
8.599998
 11
-10.067001
 21
7.966995
  0
LINE
  8
0
 10
-8.000000
 20
11.766983
 11
-8.000000
 21
9.033005
  0
LINE
  8
0
 10
90.750000
 20
12.099998
 11
103.250000
 21
12.099998
  0
LINE
  8
0
 10
103.250000
 20
12.199997
 11
103.250000
 21
12.099998
  0
LINE
  8
0
 10
90.750000
 20
12.199997
 11
90.750000
 21
12.099998
  0
LINE
  8
0
 10
92.000000
 20
8.500000
 11
102.000000
 21
8.500000
  0
LINE
  8
0
 10
102.000000
 20
12.099998
 11
102.000000
 21
8.500000
  0
LINE
  8
0
 10
92.000000
 20
12.099998
 11
92.000000
 21
8.500000
  0
LINE
  8
0
 10
95.000000
 20
6.299995
 11
99.000000
 21
6.299995
  0
LINE
  8
0
 10
99.500000
 20
8.500000
 11
99.500000
 21
8.299999
  0
LINE
  8
0
 10
94.500000
 20
8.500000
 11
94.500000
 21
8.299992
  0
LINE
  8
0
 10
99.067001
 20
8.500000
 11
99.067001
 21
7.867001
  0
LINE
  8
0
 10
94.932999
 20
8.500000
 11
94.932999
 21
7.866997
  0
LINE
  8
0
 10
97.000000
 20
11.666985
 11
97.000000
 21
8.933006
  0
LINE
  8
0
 10
97.000000
 20
82.467743
 11
97.000000
 21
1.164688
  0
LINE
  8
0
 10
-19.500000
 20
80.500000
 11
3.500000
 21
80.500000
  0
LINE
  8
0
 10
-21.750000
 20
73.000000
 11
-15.645899
 21
73.000000
  0
LINE
  8
0
 10
-21.500000
 20
78.500000
 11
-21.500000
 21
76.000000
  0
LINE
  8
0
 10
-15.645899
 20
80.500000
 11
-15.645899
 21
73.000000
  0
LINE
  8
0
 10
-21.750000
 20
73.000000
 11
-21.750000
 21
76.000000
  0
LINE
  8
0
 10
-21.750000
 20
76.000000
 11
-15.645899
 21
76.000000
  0
LINE
  8
0
 10
-21.500000
 20
73.000000
 11
-21.500000
 21
66.000000
  0
LINE
  8
0
 10
6.000000
 20
73.000000
 11
-0.354101
 21
73.000000
  0
LINE
  8
0
 10
0.250000
 20
73.000000
 11
0.250000
 21
76.000000
  0
LINE
  8
0
 10
6.000000
 20
76.000000
 11
0.250000
 21
76.000000
  0
LINE
  8
0
 10
-0.354101
 20
80.500000
 11
-0.354101
 21
73.000000
  0
LINE
  8
0
 10
-15.645899
 20
78.500000
 11
-0.354101
 21
78.500000
  0
LINE
  8
0
 10
-19.499989
 20
80.499985
 11
-21.499989
 21
78.499985
  0
LINE
  8
0
 10
3.499990
 20
80.500000
 11
6.299995
 21
77.699997
  0
LINE
  8
0
 10
-6.000000
 20
7.899994
 11
-6.000000
 21
6.399994
  0
LINE
  8
0
 10
-10.000000
 20
7.899994
 11
-10.000000
 21
6.399994
  0
LINE
  8
0
 10
-10.000000
 20
7.899994
 11
-6.000000
 21
7.899994
  0
LINE
  8
0
 10
-10.500000
 20
8.399994
 11
-5.500000
 21
8.399994
  0
LINE
  8
0
 10
-10.000001
 20
7.899998
 11
-10.500002
 21
8.399998
  0
LINE
  8
0
 10
-5.999998
 20
7.899994
 11
-5.499998
 21
8.399994
  0
LINE
  8
0
 10
95.000000
 20
7.799995
 11
99.000000
 21
7.799995
  0
LINE
  8
0
 10
94.500000
 20
8.299995
 11
99.500000
 21
8.299995
  0
LINE
  8
0
 10
99.000000
 20
7.799995
 11
99.000000
 21
6.299995
  0
LINE
  8
0
 10
95.000000
 20
7.799995
 11
95.000000
 21
6.299995
  0
LINE
  8
0
 10
94.999939
 20
7.799950
 11
94.499939
 21
8.299946
  0
LINE
  8
0
 10
98.999985
 20
7.800022
 11
99.499985
 21
8.300022
  0
LINE
  8
0
 10
-28.500000
 20
71.433113
 11
-28.500000
 21
18.316889
  0
LINE
  8
0
 10
-28.500000
 20
67.875000
 11
-28.000000
 21
67.875000
  0
LINE
  8
0
 10
-28.000000
 20
67.875000
 11
-28.000000
 21
21.875000
  0
LINE
  8
0
 10
-36.945724
 20
71.433113
 11
-28.500000
 21
71.433113
  0
LINE
  8
0
 10
-36.945724
 20
58.154057
 11
-28.500000
 21
58.154057
  0
LINE
  8
0
 10
-38.999981
 20
67.875000
 11
-36.945709
 21
71.433128
  0
LINE
  8
0
 10
-39.000000
 20
67.875000
 11
-39.000000
 21
21.875000
  0
LINE
  8
0
 10
-36.945724
 20
31.595943
 11
-28.500000
 21
31.595943
  0
LINE
  8
0
 10
-38.999977
 20
21.875023
 11
-36.945698
 21
18.316906
  0
LINE
  8
0
 10
-36.945724
 20
18.316889
 11
-28.500000
 21
18.316889
  0
LINE
  8
0
 10
-28.500000
 20
21.875000
 11
-28.000000
 21
21.875000
  0
CIRCLE
  8
0
 10
-8.000000
 20
45.000000
 40
5.499996
  0
CIRCLE
  8
0
 10
-8.000000
 20
45.000000
 40
6.499996
  0
CIRCLE
  8
0
 10
97.000000
 20
45.000000
 40
6.500000
  0
CIRCLE
  8
0
 10
97.000000
 20
45.000000
 40
5.500000
  0
POLYLINE
  8
0
 66
     1
  0
VERTEX
  8
0
 10
-36.945724
 20
71.433113
  0
VERTEX
  8
0
 10
-37.443359
 20
70.567551
  0
VERTEX
  8
0
 10
-37.886097
 20
69.663712
  0
VERTEX
  8
0
 10
-38.266048
 20
68.727966
  0
VERTEX
  8
0
 10
-38.575306
 20
67.766701
  0
VERTEX
  8
0
 10
-38.805984
 20
66.786293
  0
VERTEX
  8
0
 10
-38.950180
 20
65.793129
  0
VERTEX
  8
0
 10
-39.000000
 20
64.793579
  0
VERTEX
  8
0
 10
-38.950180
 20
63.794033
  0
VERTEX
  8
0
 10
-38.805984
 20
62.800869
  0
VERTEX
  8
0
 10
-38.575306
 20
61.820461
  0
VERTEX
  8
0
 10
-38.266048
 20
60.859200
  0
VERTEX
  8
0
 10
-37.886097
 20
59.923458
  0
VERTEX
  8
0
 10
-37.443359
 20
59.019615
  0
VERTEX
  8
0
 10
-36.945724
 20
58.154057
  0
SEQEND
  0
POLYLINE
  8
0
 66
     1
  0
VERTEX
  8
0
 10
-36.945724
 20
31.595943
  0
VERTEX
  8
0
 10
-37.443359
 20
30.730383
  0
VERTEX
  8
0
 10
-37.886097
 20
29.826542
  0
VERTEX
  8
0
 10
-38.266048
 20
28.890799
  0
VERTEX
  8
0
 10
-38.575306
 20
27.929535
  0
VERTEX
  8
0
 10
-38.805984
 20
26.949129
  0
VERTEX
  8
0
 10
-38.950180
 20
25.955963
  0
VERTEX
  8
0
 10
-39.000000
 20
24.956417
  0
VERTEX
  8
0
 10
-38.950180
 20
23.956871
  0
VERTEX
  8
0
 10
-38.805984
 20
22.963705
  0
VERTEX
  8
0
 10
-38.575306
 20
21.983299
  0
VERTEX
  8
0
 10
-38.266048
 20
21.022034
  0
VERTEX
  8
0
 10
-37.886097
 20
20.086290
  0
VERTEX
  8
0
 10
-37.443359
 20
19.182449
  0
VERTEX
  8
0
 10
-36.945724
 20
18.316889
  0
SEQEND
  0
POLYLINE
  8
0
 66
     1
  0
VERTEX
  8
0
 10
97.000000
 20
11.666985
  0
VERTEX
  8
0
 10
97.814346
 20
11.902285
  0
VERTEX
  8
0
 10
98.651474
 20
12.049254
  0
VERTEX
  8
0
 10
99.500000
 20
12.099998
  0
VERTEX
  8
0
 10
100.348526
 20
12.049254
  0
VERTEX
  8
0
 10
101.185654
 20
11.902285
  0
VERTEX
  8
0
 10
102.000000
 20
11.666985
  0
SEQEND
  0
POLYLINE
  8
0
 66
     1
  0
VERTEX
  8
0
 10
97.000000
 20
8.933006
  0
VERTEX
  8
0
 10
97.814346
 20
8.697709
  0
VERTEX
  8
0
 10
98.651474
 20
8.550743
  0
VERTEX
  8
0
 10
99.500000
 20
8.500000
  0
VERTEX
  8
0
 10
100.348526
 20
8.550743
  0
VERTEX
  8
0
 10
101.185654
 20
8.697709
  0
VERTEX
  8
0
 10
102.000000
 20
8.933006
  0
SEQEND
  0
POLYLINE
  8
0
 66
     1
  0
VERTEX
  8
0
 10
-36.945724
 20
58.154057
  0
VERTEX
  8
0
 10
-37.220280
 20
57.233849
  0
VERTEX
  8
0
 10
-37.476372
 20
56.307354
  0
VERTEX
  8
0
 10
-37.713692
 20
55.375053
  0
VERTEX
  8
0
 10
-37.931946
 20
54.437431
  0
VERTEX
  8
0
 10
-38.130836
 20
53.494972
  0
VERTEX
  8
0
 10
-38.310062
 20
52.548164
  0
VERTEX
  8
0
 10
-38.469322
 20
51.597481
  0
VERTEX
  8
0
 10
-38.608318
 20
50.643414
  0
VERTEX
  8
0
 10
-38.726753
 20
49.686447
  0
VERTEX
  8
0
 10
-38.824322
 20
48.727058
  0
VERTEX
  8
0
 10
-38.900734
 20
47.765739
  0
VERTEX
  8
0
 10
-38.955681
 20
46.802963
  0
VERTEX
  8
0
 10
-38.988869
 20
45.839226
  0
VERTEX
  8
0
 10
-39.000000
 20
44.875000
  0
VERTEX
  8
0
 10
-38.988869
 20
43.910774
  0
VERTEX
  8
0
 10
-38.955681
 20
42.947037
  0
VERTEX
  8
0
 10
-38.900734
 20
41.984261
  0
VERTEX
  8
0
 10
-38.824322
 20
41.022942
  0
VERTEX
  8
0
 10
-38.726753
 20
40.063553
  0
VERTEX
  8
0
 10
-38.608318
 20
39.106586
  0
VERTEX
  8
0
 10
-38.469322
 20
38.152519
  0
VERTEX
  8
0
 10
-38.310062
 20
37.201836
  0
VERTEX
  8
0
 10
-38.130836
 20
36.255028
  0
VERTEX
  8
0
 10
-37.931946
 20
35.312569
  0
VERTEX
  8
0
 10
-37.713692
 20
34.374947
  0
VERTEX
  8
0
 10
-37.476372
 20
33.442646
  0
VERTEX
  8
0
 10
-37.220280
 20
32.516151
  0
VERTEX
  8
0
 10
-36.945724
 20
31.595943
  0
SEQEND
  0
POLYLINE
  8
0
 66
     1
  0
VERTEX
  8
0
 10
92.000000
 20
11.666985
  0
VERTEX
  8
0
 10
92.814346
 20
11.902285
  0
VERTEX
  8
0
 10
93.651474
 20
12.049254
  0
VERTEX
  8
0
 10
94.500000
 20
12.099998
  0
VERTEX
  8
0
 10
95.348526
 20
12.049254
  0
VERTEX
  8
0
 10
96.185654
 20
11.902285
  0
VERTEX
  8
0
 10
97.000000
 20
11.666985
  0
SEQEND
  0
POLYLINE
  8
0
 66
     1
  0
VERTEX
  8
0
 10
-8.000000
 20
11.766983
  0
VERTEX
  8
0
 10
-7.185658
 20
12.002283
  0
VERTEX
  8
0
 10
-6.348526
 20
12.149253
  0
VERTEX
  8
0
 10
-5.500000
 20
12.199997
  0
VERTEX
  8
0
 10
-4.651474
 20
12.149253
  0
VERTEX
  8
0
 10
-3.814343
 20
12.002283
  0
VERTEX
  8
0
 10
-3.000000
 20
11.766983
  0
SEQEND
  0
POLYLINE
  8
0
 66
     1
  0
VERTEX
  8
0
 10
-8.000000
 20
9.033005
  0
VERTEX
  8
0
 10
-7.185657
 20
8.797708
  0
VERTEX
  8
0
 10
-6.348526
 20
8.650742
  0
VERTEX
  8
0
 10
-5.500000
 20
8.599998
  0
VERTEX
  8
0
 10
-4.651474
 20
8.650742
  0
VERTEX
  8
0
 10
-3.814343
 20
8.797708
  0
VERTEX
  8
0
 10
-3.000000
 20
9.033005
  0
SEQEND
  0
POLYLINE
  8
0
 66
     1
  0
VERTEX
  8
0
 10
-13.000000
 20
11.766983
  0
VERTEX
  8
0
 10
-12.185658
 20
12.002283
  0
VERTEX
  8
0
 10
-11.348526
 20
12.149253
  0
VERTEX
  8
0
 10
-10.500000
 20
12.199997
  0
VERTEX
  8
0
 10
-9.651474
 20
12.149253
  0
VERTEX
  8
0
 10
-8.814342
 20
12.002283
  0
VERTEX
  8
0
 10
-8.000000
 20
11.766983
  0
SEQEND
  0
POLYLINE
  8
0
 66
     1
  0
VERTEX
  8
0
 10
-13.000000
 20
9.033005
  0
VERTEX
  8
0
 10
-12.185657
 20
8.797708
  0
VERTEX
  8
0
 10
-11.348526
 20
8.650742
  0
VERTEX
  8
0
 10
-10.500000
 20
8.599998
  0
VERTEX
  8
0
 10
-9.651474
 20
8.650742
  0
VERTEX
  8
0
 10
-8.814343
 20
8.797708
  0
VERTEX
  8
0
 10
-8.000000
 20
9.033005
  0
SEQEND
  0
POLYLINE
  8
0
 66
     1
  0
VERTEX
  8
0
 10
92.000000
 20
8.933006
  0
VERTEX
  8
0
 10
92.814346
 20
8.697709
  0
VERTEX
  8
0
 10
93.651474
 20
8.550743
  0
VERTEX
  8
0
 10
94.500000
 20
8.500000
  0
VERTEX
  8
0
 10
95.348526
 20
8.550743
  0
VERTEX
  8
0
 10
96.185654
 20
8.697709
  0
VERTEX
  8
0
 10
97.000000
 20
8.933006
  0
SEQEND
  0
POINT
  8
0
 10
-130.000000
 20
45.000000
  0
POINT
  8
0
 10
-107.000023
 20
45.000000
  0
LINE
  8
0
 10
-153.000015
 20
58.279041
 11
-152.999985
 21
31.720928
  0
LINE
  8
0
 10
-107.000008
 20
58.279072
 11
-106.999992
 21
31.720955
  0
LINE
  8
0
 10
-153.000076
 20
58.279137
 11
-130.000046
 21
71.558235
  0
LINE
  8
0
 10
-129.999924
 20
18.441875
 11
-106.999908
 21
31.720943
  0
LINE
  8
0
 10
-129.999985
 20
71.558067
 11
-106.999992
 21
58.279053
  0
LINE
  8
0
 10
-153.000015
 20
31.720917
 11
-130.000061
 21
18.441879
  0
LINE
  8
0
 10
-168.729416
 20
44.999973
 11
-92.264839
 21
45.000027
  0
LINE
  8
0
 10
-130.000031
 20
84.143753
 11
-129.999969
 21
4.801277
  0
LINE
  8
0
 10
-139.500000
 20
50.484821
 11
-139.500000
 21
39.515163
  0
LINE
  8
0
 10
-120.500000
 20
50.484829
 11
-120.500000
 21
39.515182
  0
LINE
  8
0
 10
-139.499969
 20
50.484829
 11
-129.999969
 21
55.969673
  0
LINE
  8
0
 10
-129.999969
 20
34.030342
 11
-120.499969
 21
39.515167
  0
LINE
  8
0
 10
-129.999969
 20
55.969635
 11
-120.499962
 21
50.484825
  0
LINE
  8
0
 10
-139.499878
 20
39.515148
 11
-129.999878
 21
34.030334
  0
LINE
  8
0
 10
-155.065735
 20
65.999985
 11
-139.627060
 21
65.999992
  0
LINE
  8
0
 10
-120.373093
 20
66.000008
 11
-104.934303
 21
66.000015
  0
LINE
  8
0
 10
-127.899971
 20
8.580757
 11
-127.899971
 21
7.980766
  0
LINE
  8
0
 10
-123.749977
 20
12.902847
 11
-123.749977
 21
12.180771
  0
LINE
  8
0
 10
-132.099960
 20
8.580757
 11
-132.099960
 21
7.980751
  0
LINE
  8
0
 10
-130.499969
 20
6.380760
 11
-131.999969
 21
6.380760
  0
LINE
  8
0
 10
-130.499969
 20
7.880760
 11
-130.499969
 21
6.380760
  0
LINE
  8
0
 10
-129.499969
 20
7.880760
 11
-129.499969
 21
6.380760
  0
LINE
  8
0
 10
-136.249985
 20
12.902840
 11
-136.249985
 21
12.180759
  0
LINE
  8
0
 10
-127.999977
 20
7.880760
 11
-131.999969
 21
7.880760
  0
LINE
  8
0
 10
-124.249977
 20
11.747757
 11
-124.249977
 21
9.013779
  0
LINE
  8
0
 10
-127.499977
 20
8.580757
 11
-127.499977
 21
8.380760
  0
LINE
  8
0
 10
-132.499969
 20
8.580757
 11
-132.499969
 21
8.380764
  0
LINE
  8
0
 10
-135.749985
 20
11.747746
 11
-135.749969
 21
9.013767
  0
LINE
  8
0
 10
-123.749977
 20
12.180767
 11
-136.249985
 21
12.180759
  0
LINE
  8
0
 10
-127.999977
 20
6.380760
 11
-129.499969
 21
6.380760
  0
LINE
  8
0
 10
-135.000092
 20
12.180820
 11
-135.750092
 21
11.747810
  0
LINE
  8
0
 10
-124.250008
 20
9.013821
 11
-125.000008
 21
8.580814
  0
LINE
  8
0
 10
-135.749969
 20
9.013779
 11
-134.999954
 21
8.580761
  0
LINE
  8
0
 10
-124.999992
 20
12.180782
 11
-124.249977
 21
11.747761
  0
LINE
  8
0
 10
-124.999977
 20
8.580814
 11
-134.999969
 21
8.580807
  0
LINE
  8
0
 10
-127.124977
 20
11.747753
 11
-127.124977
 21
9.013775
  0
LINE
  8
0
 10
-132.874985
 20
11.747746
 11
-132.874969
 21
9.013767
  0
LINE
  8
0
 10
-117.000023
 20
80.500000
 11
-115.000015
 21
78.500000
  0
LINE
  8
0
 10
-145.000015
 20
78.499985
 11
-145.000015
 21
65.999992
  0
LINE
  8
0
 10
-115.000023
 20
78.500015
 11
-115.000015
 21
66.000008
  0
LINE
  8
0
 10
-143.000031
 20
80.499992
 11
-117.000023
 21
80.500008
  0
LINE
  8
0
 10
-145.000015
 20
72.999992
 11
-138.260010
 21
72.999992
  0
LINE
  8
0
 10
-121.740021
 20
73.000008
 11
-115.000015
 21
73.000008
  0
LINE
  8
0
 10
-138.260010
 20
78.500000
 11
-121.740028
 21
78.500000
  0
LINE
  8
0
 10
-121.740028
 20
80.500000
 11
-121.740021
 21
73.000008
  0
LINE
  8
0
 10
-138.260025
 20
80.500000
 11
-138.260010
 21
72.999992
  0
LINE
  8
0
 10
-121.740028
 20
76.000008
 11
-115.000023
 21
76.000008
  0
LINE
  8
0
 10
-138.260010
 20
75.999992
 11
-145.000015
 21
75.999992
  0
LINE
  8
0
 10
-142.999985
 20
80.499962
 11
-144.999985
 21
78.499954
  0
LINE
  8
0
 10
-131.999969
 20
7.880760
 11
-131.999969
 21
6.380760
  0
LINE
  8
0
 10
-127.999977
 20
7.880760
 11
-127.999977
 21
6.380760
  0
LINE
  8
0
 10
-127.499977
 20
8.380760
 11
-132.499969
 21
8.380760
  0
LINE
  8
0
 10
-131.999969
 20
7.880775
 11
-132.499969
 21
8.380779
  0
LINE
  8
0
 10
-127.999939
 20
7.880703
 11
-127.499939
 21
8.380695
  0
CIRCLE
  8
0
 10
-130.000000
 20
45.000000
 40
16.917500
  0
CIRCLE
  8
0
 10
-130.000000
 20
45.000000
 40
23.000000
  0
ARC
  8
0
 10
-130.000000
 20
45.000000
 40
32.699997
 50
0.000040
 51
62.695774
  0
CIRCLE
  8
0
 10
-130.000000
 20
45.000000
 40
18.000000
  0
CIRCLE
  8
0
 10
-130.000000
 20
45.000000
 40
6.000000
  0
CIRCLE
  8
0
 10
-130.000000
 20
45.000000
 40
7.000000
  0
CIRCLE
  8
0
 10
-130.000000
 20
45.000000
 40
9.500000
  0
ARC
  8
0
 10
-130.000000
 20
45.000000
 40
32.700001
 50
117.304314
 51
0.000020
  0
POLYLINE
  8
0
 66
     1
  0
VERTEX
  8
0
 10
-132.874969
 20
9.013767
  0
VERTEX
  8
0
 10
-133.565308
 20
8.700418
  0
VERTEX
  8
0
 10
-134.312469
 20
8.580753
  0
VERTEX
  8
0
 10
-135.059631
 20
8.700418
  0
VERTEX
  8
0
 10
-135.749969
 20
9.013767
  0
SEQEND
  0
POLYLINE
  8
0
 66
     1
  0
VERTEX
  8
0
 10
-124.249977
 20
9.013779
  0
VERTEX
  8
0
 10
-124.940315
 20
8.700428
  0
VERTEX
  8
0
 10
-125.687477
 20
8.580761
  0
VERTEX
  8
0
 10
-126.434639
 20
8.700426
  0
VERTEX
  8
0
 10
-127.124977
 20
9.013775
  0
SEQEND
  0
POLYLINE
  8
0
 66
     1
  0
VERTEX
  8
0
 10
-124.249977
 20
11.747757
  0
VERTEX
  8
0
 10
-124.940315
 20
12.061104
  0
VERTEX
  8
0
 10
-125.687477
 20
12.180767
  0
VERTEX
  8
0
 10
-126.434639
 20
12.061102
  0
VERTEX
  8
0
 10
-127.124977
 20
11.747753
  0
SEQEND
  0
POLYLINE
  8
0
 66
     1
  0
VERTEX
  8
0
 10
-127.124977
 20
11.747753
  0
VERTEX
  8
0
 10
-128.066437
 20
11.984249
  0
VERTEX
  8
0
 10
-129.028152
 20
12.130618
  0
VERTEX
  8
0
 10
-129.999985
 20
12.180763
  0
VERTEX
  8
0
 10
-130.971817
 20
12.130616
  0
VERTEX
  8
0
 10
-131.933533
 20
11.984243
  0
VERTEX
  8
0
 10
-132.874985
 20
11.747746
  0
SEQEND
  0
POLYLINE
  8
0
 66
     1
  0
VERTEX
  8
0
 10
-132.874985
 20
11.747746
  0
VERTEX
  8
0
 10
-133.565323
 20
12.061094
  0
VERTEX
  8
0
 10
-134.312485
 20
12.180759
  0
VERTEX
  8
0
 10
-135.059647
 20
12.061094
  0
VERTEX
  8
0
 10
-135.749985
 20
11.747746
  0
SEQEND
  0
POLYLINE
  8
0
 66
     1
  0
VERTEX
  8
0
 10
-127.124977
 20
9.013775
  0
VERTEX
  8
0
 10
-128.066437
 20
8.777278
  0
VERTEX
  8
0
 10
-129.028137
 20
8.630904
  0
VERTEX
  8
0
 10
-129.999969
 20
8.580757
  0
VERTEX
  8
0
 10
-130.971802
 20
8.630902
  0
VERTEX
  8
0
 10
-131.933517
 20
8.777272
  0
VERTEX
  8
0
 10
-132.874969
 20
9.013767
  0
SEQEND
  0
POINT
  8
0
 10
128.999969
 20
-57.071236
  0
POINT
  8
0
 10
-21.999992
 20
-57.071236
  0
LINE
  8
0
 10
-28.000000
 20
-34.196232
 11
-28.000000
 21
-80.196228
  0
LINE
  8
0
 10
-39.000000
 20
-34.196232
 11
-39.000000
 21
-80.196228
  0
LINE
  8
0
 10
-36.945724
 20
-30.638119
 11
-28.500000
 21
-30.638119
  0
LINE
  8
0
 10
-36.945724
 20
-83.754349
 11
-28.500000
 21
-83.754349
  0
LINE
  8
0
 10
-28.500000
 20
-34.196232
 11
-28.000000
 21
-34.196232
  0
LINE
  8
0
 10
-28.500000
 20
-80.196228
 11
-28.000000
 21
-80.196228
  0
LINE
  8
0
 10
-28.500000
 20
-30.638119
 11
-28.500000
 21
-83.754349
  0
LINE
  8
0
 10
-38.999977
 20
-34.196228
 11
-36.945709
 21
-30.638096
  0
LINE
  8
0
 10
-38.999916
 20
-80.196182
 11
-36.945637
 21
-83.754295
  0
LINE
  8
0
 10
-77.000000
 20
-57.071232
 11
135.328613
 21
-57.071232
  0
LINE
  8
0
 10
-42.000000
 20
-57.071232
 11
-42.000000
 21
-40.071278
  0
LINE
  8
0
 10
-22.000000
 20
-89.771233
 11
-22.000000
 21
-24.371235
  0
LINE
  8
0
 10
-74.000000
 20
-51.071236
 11
-74.000000
 21
-57.071236
  0
LINE
  8
0
 10
-73.999901
 20
-51.071442
 11
-72.999916
 21
-50.071442
  0
LINE
  8
0
 10
-73.000000
 20
-50.071220
 11
-73.000000
 21
-57.071236
  0
LINE
  8
0
 10
-74.000000
 20
-51.071232
 11
-51.000000
 21
-51.071232
  0
LINE
  8
0
 10
-44.999985
 20
-50.071217
 11
-73.000000
 21
-50.071217
  0
LINE
  8
0
 10
-22.000000
 20
-24.371235
 11
109.000008
 21
-24.371235
  0
LINE
  8
0
 10
-42.000015
 20
-40.071278
 11
-39.000000
 21
-40.071278
  0
LINE
  8
0
 10
-22.000023
 20
-39.071278
 11
-28.000000
 21
-39.071278
  0
LINE
  8
0
 10
-41.999996
 20
-40.071358
 11
-41.000023
 21
-39.071358
  0
LINE
  8
0
 10
-41.000015
 20
-39.071278
 11
-41.000015
 21
-57.071232
  0
LINE
  8
0
 10
109.000008
 20
-39.071232
 11
127.500008
 21
-39.071232
  0
LINE
  8
0
 10
129.000000
 20
-57.071224
 11
129.000000
 21
-40.571239
  0
LINE
  8
0
 10
114.000008
 20
-40.071232
 11
128.500000
 21
-40.071232
  0
LINE
  8
0
 10
109.000008
 20
-24.371235
 11
109.000008
 21
-89.771233
  0
LINE
  8
0
 10
97.000000
 20
-47.491222
 11
97.000000
 21
-66.651222
  0
LINE
  8
0
 10
-27.000000
 20
-57.071232
 11
-27.000000
 21
-39.071278
  0
LINE
  8
0
 10
-51.000000
 20
-50.071217
 11
-51.000000
 21
-57.071232
  0
LINE
  8
0
 10
-44.000000
 20
-49.071232
 11
-42.000000
 21
-49.071232
  0
LINE
  8
0
 10
-44.000011
 20
-49.071243
 11
-44.999985
 21
-50.071228
  0
LINE
  8
0
 10
12.000000
 20
-89.771233
 11
12.000000
 21
-24.371235
  0
LINE
  8
0
 10
-42.000000
 20
-74.071190
 11
-42.000000
 21
-57.071232
  0
LINE
  8
0
 10
-74.000000
 20
-57.071236
 11
-74.000000
 21
-63.071236
  0
LINE
  8
0
 10
-72.999939
 20
-64.071114
 11
-73.999924
 21
-63.071140
  0
LINE
  8
0
 10
-73.000000
 20
-57.071236
 11
-73.000000
 21
-64.071251
  0
LINE
  8
0
 10
-51.000000
 20
-63.071232
 11
-74.000000
 21
-63.071232
  0
LINE
  8
0
 10
-73.000000
 20
-64.071243
 11
-44.999985
 21
-64.071243
  0
LINE
  8
0
 10
86.000000
 20
-89.771225
 11
86.000000
 21
-24.371231
  0
LINE
  8
0
 10
-27.000008
 20
-74.071190
 11
-28.000000
 21
-74.071190
  0
LINE
  8
0
 10
-41.000061
 20
-75.071190
 11
-39.000000
 21
-75.071190
  0
LINE
  8
0
 10
-41.000000
 20
-75.071106
 11
-41.999985
 21
-74.071106
  0
LINE
  8
0
 10
-41.000015
 20
-57.071232
 11
-41.000015
 21
-75.071190
  0
LINE
  8
0
 10
127.499977
 20
-75.071236
 11
109.000008
 21
-75.071236
  0
LINE
  8
0
 10
129.000000
 20
-73.571220
 11
129.000000
 21
-57.071224
  0
LINE
  8
0
 10
128.499969
 20
-74.071236
 11
114.000008
 21
-74.071236
  0
LINE
  8
0
 10
114.000008
 20
-75.071220
 11
114.000008
 21
-39.071232
  0
LINE
  8
0
 10
-27.000000
 20
-75.071190
 11
-27.000000
 21
-57.071232
  0
LINE
  8
0
 10
-51.000000
 20
-57.071232
 11
-51.000000
 21
-64.071243
  0
LINE
  8
0
 10
-42.000000
 20
-65.071228
 11
-44.000000
 21
-65.071228
  0
LINE
  8
0
 10
-44.999985
 20
-64.071228
 11
-43.999992
 21
-65.071228
  0
LINE
  8
0
 10
127.500160
 20
-39.071079
 11
129.000153
 21
-40.571083
  0
LINE
  8
0
 10
128.999939
 20
-73.571190
 11
127.499962
 21
-75.071167
  0
LINE
  8
0
 10
127.500008
 20
-39.071224
 11
127.500008
 21
-75.071220
  0
LINE
  8
0
 10
-8.000000
 20
-66.651237
 11
-8.000000
 21
-47.491230
  0
LINE
  8
0
 10
109.000008
 20
-89.771233
 11
-22.000000
 21
-89.771233
  0
LINE
  8
0
 10
-8.000012
 20
-51.321236
 11
-12.979683
 21
-54.196228
  0
LINE
  8
0
 10
-12.979664
 20
-54.196217
 11
-12.979664
 21
-59.946217
  0
LINE
  8
0
 10
-12.979653
 20
-59.946201
 11
-8.000002
 21
-62.821220
  0
LINE
  8
0
 10
-8.000040
 20
-62.821228
 11
-3.020372
 21
-59.946228
  0
LINE
  8
0
 10
-3.020359
 20
-59.946232
 11
-3.020359
 21
-54.196232
  0
LINE
  8
0
 10
-3.020376
 20
-54.196213
 11
-8.000020
 21
-51.321209
  0
LINE
  8
0
 10
-10.958057
 20
-56.571232
 11
-5.041965
 21
-56.571232
  0
LINE
  8
0
 10
-10.958057
 20
-57.571232
 11
-5.041965
 21
-57.571232
  0
LINE
  8
0
 10
101.979668
 20
-54.196220
 11
97.000015
 21
-51.321236
  0
LINE
  8
0
 10
101.979660
 20
-59.946217
 11
101.979660
 21
-54.196217
  0
LINE
  8
0
 10
97.000008
 20
-62.821220
 11
101.979652
 21
-59.946205
  0
LINE
  8
0
 10
92.020355
 20
-59.946236
 11
97.000015
 21
-62.821236
  0
LINE
  8
0
 10
92.020355
 20
-54.196232
 11
92.020355
 21
-59.946232
  0
LINE
  8
0
 10
97.000000
 20
-51.321213
 11
92.020355
 21
-54.196213
  0
LINE
  8
0
 10
94.041962
 20
-56.571232
 11
99.958054
 21
-56.571232
  0
LINE
  8
0
 10
94.041962
 20
-57.571232
 11
99.958054
 21
-57.571232
  0
LINE
  8
0
 10
-39.000000
 20
-39.071278
 11
-41.000053
 21
-39.071278
  0
LINE
  8
0
 10
-28.000000
 20
-40.071278
 11
-26.999985
 21
-40.071278
  0
LINE
  8
0
 10
-39.000000
 20
-74.071190
 11
-42.000031
 21
-74.071190
  0
LINE
  8
0
 10
-28.000000
 20
-75.071190
 11
-22.000031
 21
-75.071190
  0
ARC
  8
0
 10
4.945759
 20
-43.917175
 40
43.945759
 50
162.412079
 51
197.587906
  0
ARC
  8
0
 10
4.945759
 20
-70.475296
 40
43.945759
 50
162.412018
 51
197.587845
  0
CIRCLE
  8
0
 10
-8.000019
 20
-57.071232
 40
4.979652
  0
CIRCLE
  8
0
 10
97.000000
 20
-57.071232
 40
6.250000
  0
CIRCLE
  8
0
 10
-8.000004
 20
-57.071232
 40
2.500000
  0
CIRCLE
  8
0
 10
97.000000
 20
-57.071232
 40
2.500000
  0
CIRCLE
  8
0
 10
-8.000004
 20
-57.071232
 40
3.000000
  0
CIRCLE
  8
0
 10
97.000000
 20
-57.071232
 40
3.000000
  0
CIRCLE
  8
0
 10
97.000015
 20
-57.071232
 40
4.979652
  0
CIRCLE
  8
0
 10
97.000000
 20
-57.071232
 40
7.000000
  0
CIRCLE
  8
0
 10
-8.000004
 20
-57.071232
 40
7.000000
  0
CIRCLE
  8
0
 10
-8.000004
 20
-57.071232
 40
6.250000
  0
ENDSEC
  0
EOF
