  0
SECTION
  2
HEADER
  0
ENDSEC
  0
SECTION
  2
TABLES
  0
TABLE
  2
LTYPE
 70
     4
  0
LTYPE
  2
CONTINUOUS
 70
    64
  3
Solid line
 72
    65
 73
     0
 40
0.000000
  0
LTYPE
  2
DASHED
 70
    64
  3
__ __ __ __ __ __ __ __ __ __ __ __ __ __ __
 72
    65
 73
     2
 40
3.500000
 49
2.000000
 49
-1.500000
  0
LTYPE
  2
CENTER
 70
    64
  3
____ _ ____ _ ____ _ ____ _ ____ _ ____ _ ____
 72
    65
 73
     4
 40
17.500000
 49
13.000000
 49
-1.500000
 49
1.500000
 49
-1.500000
  0
LTYPE
  2
PHANTOM
 70
    64
  3
_____ _ _ _____ _ _ _____ _ _ _____ _ _ ____  
 72
    65
 73
     6
 40
15.500000
 49
8.000000
 49
-1.500000
 49
1.500000
 49
-1.500000
 49
1.500000
 49
-1.500000
  0
LTYPE
  2
DASHED1
 70
    64
  3
__ __ __ __ __ __ __ __ __ __ __ __ __ __ __
 72
    65
 73
     2
 40
1.500000
 49
1.000000
 49
-0.500000
  0
LTYPE
  2
DASHED2
 70
    64
  3
__ __ __ __ __ __ __ __ __ __ __ __ __ __ __
 72
    65
 73
     2
 40
3.500000
 49
2.500000
 49
-1.000000
  0
LTYPE
  2
DASHED3
 70
    64
  3
__ __ __ __ __ __ __ __ __ __ __ __ __ __ __
 72
    65
 73
     2
 40
6.000000
 49
4.000000
 49
-2.000000
  0
LTYPE
  2
DASHED4
 70
    64
  3
__ __ __ __ __ __ __ __ __ __ __ __ __ __ __
 72
    65
 73
     2
 40
12.000000
 49
10.000000
 49
-2.000000
  0
LTYPE
  2
DASHED5
 70
    64
  3
__ __ __ __ __ __ __ __ __ __ __ __ __ __ __
 72
    65
 73
     2
 40
17.000000
 49
15.000000
 49
-2.000000
  0
LTYPE
  2
DASHED6
 70
    64
  3
__ __ __ __ __ __ __ __ __ __ __ __ __ __ __
 72
    65
 73
     2
 40
29.000000
 49
27.000000
 49
-2.000000
  0
LTYPE
  2
PHANTOM1
 70
    64
  3
_____ _ _ _____ _ _ _____ _ _ _____ _ _ ____  
 72
    65
 73
     6
 40
31.000000
 49
25.000000
 49
-1.500000
 49
1.000000
 49
-1.000000
 49
1.000000
 49
-1.500000
  0
LTYPE
  2
PHANTOM2
 70
    64
  3
_____ _ _ _____ _ _ _____ _ _ _____ _ _ ____  
 72
    65
 73
     6
 40
36.000000
 49
27.000000
 49
-1.500000
 49
2.500000
 49
-1.000000
 49
2.500000
 49
-1.500000
  0
LTYPE
  2
PHANTOM3
 70
    64
  3
_____ _ _ _____ _ _ _____ _ _ _____ _ _ ____  
 72
    65
 73
     6
 40
78.000000
 49
64.000000
 49
-2.000000
 49
4.000000
 49
-2.000000
 49
4.000000
 49
-2.000000
  0
LTYPE
  2
CENTER1
 70
    64
  3
____ _ ____ _ ____ _ ____ _ ____ _ ____ _ ____
 72
    65
 73
     4
 40
19.000000
 49
14.000000
 49
-1.000000
 49
3.000000
 49
-1.000000
  0
LTYPE
  2
CENTER2
 70
    64
  3
____ _ ____ _ ____ _ ____ _ ____ _ ____ _ ____
 72
    65
 73
     4
 40
28.500000
 49
25.000000
 49
-1.000000
 49
1.500000
 49
-1.000000
  0
LTYPE
  2
CENTER3
 70
    64
  3
____ _ ____ _ ____ _ ____ _ ____ _ ____ _ ____
 72
    65
 73
     4
 40
31.500000
 49
27.000000
 49
-1.000000
 49
2.500000
 49
-1.000000
  0
LTYPE
  2
CENTER4
 70
    64
  3
____ _ ____ _ ____ _ ____ _ ____ _ ____ _ ____
 72
    65
 73
     4
 40
50.000000
 49
45.000000
 49
-1.000000
 49
3.000000
 49
-1.000000
  0
LTYPE
  2
CENTER5
 70
    64
  3
____ _ ____ _ ____ _ ____ _ ____ _ ____ _ ____
 72
    65
 73
     4
 40
100.000000
 49
92.000000
 49
-2.000000
 49
4.000000
 49
-2.000000
  0
LTYPE
  2
SBK1
 70
    64
  3
______ _ _ _ ______ _ _ _ ______ _ _ _ _____  
 72
    65
 73
     8
 40
60.500000
 49
45.000000
 49
-2.000000
 49
2.500000
 49
-2.000000
 49
2.500000
 49
-2.000000
 49
2.500000
 49
-2.000000
  0
LTYPE
  2
SBK2
 70
    64
  3
______ _ _ _ ______ _ _ _ ______ _ _ _ _____  
 72
    65
 73
     8
 40
84.000000
 49
64.000000
 49
-2.000000
 49
4.000000
 49
-2.000000
 49
4.000000
 49
-2.000000
 49
4.000000
 49
-2.000000
  0
LTYPE
  2
STCH
 70
    64
  3
__ __ __ __ __ __ __ __ __ __ __ __ __ __ __
 72
    65
 73
     2
 40
3.000000
 49
1.000000
 49
-2.000000
  0
LTYPE
  2
MTCH
 70
    64
  3
_____ _ _ _____ _ _ _____ _ _ _____ _ _ ____  
 72
    65
 73
     6
 40
80.000000
 49
66.000000
 49
-2.000000
 49
4.000000
 49
-2.000000
 49
4.000000
 49
-2.000000
  0
ENDTAB
  0
TABLE
  2
LAYER
 70
     1
  0
LAYER
  2
0
 70
     0
 62
     7
  6
CONTINUOUS
  0
ENDTAB
  0
TABLE
  2
STYLE
 70
     1
  0
STYLE
  2
STANDARD
 70
     0
 40
0.000000
 41
1.000000
 50
0.000000
 71
     0
 42
0.200000
  3
txt
  4
BIGFONT
  0
ENDTAB
  0
TABLE
  2
VIEW
 70
     0
  0
ENDTAB
  0
ENDSEC
  0
SECTION
  2
BLOCKS
  0
ENDSEC
  0
SECTION
  2
ENTITIES
  0
LINE
  8
0
 10
-185.436783
 20
-127.279236
 11
-185.436783
 21
127.279236
  0
LINE
  8
0
 10
185.436783
 20
127.279236
 11
185.436783
 21
-127.279236
  0
LINE
  8
0
 10
-185.436783
 20
-127.279236
 11
185.436783
 21
-127.279236
  0
LINE
  8
0
 10
-185.436783
 20
127.279236
 11
185.436783
 21
127.279236
  0
LINE
  8
0
 10
-185.436783
 20
112.978195
 11
-109.164589
 21
112.978195
  0
LINE
  8
0
 10
-109.164589
 20
112.978195
 11
-109.164589
 21
127.279236
  0
LINE
  8
0
 10
109.164581
 20
-112.978210
 11
185.436783
 21
-112.978210
  0
LINE
  8
0
 10
109.164581
 20
112.978195
 11
185.436783
 21
112.978195
  0
LINE
  8
0
 10
109.164581
 20
127.279236
 11
109.164581
 21
112.978195
  0
LINE
  8
0
 10
109.164581
 20
-112.978210
 11
109.164581
 21
-127.279236
  0
TEXT
  8
0
 10
113.360985
 20
117.310349
 40
4.242641
  1
DATE : AUG ,1992
 50
0.000000
 41
1.052631
 51
0.000000
  7
STANDARD
  0
TEXT
  8
0
 10
-180.264954
 20
116.628723
 40
5.000000
  1
SLIM CYLINDER
 50
0.000000
 41
1.052632
 51
0.000000
  7
STANDARD
  0
TEXT
  8
0
 10
114.336403
 20
-123.628723
 40
5.000000
  1
KOGANEI CORP.
 50
0.000000
 41
1.052632
 51
0.000000
  7
STANDARD
  0
TEXT
  8
0
 10
-154.065918
 20
88.148369
 40
5.000000
  1
MODEL : DAK50X25-HL
 50
0.000000
 41
1.052632
 51
0.000000
  7
STANDARD
  0
POINT
  8
0
 10
-23.499996
 20
38.999996
  0
POINT
  8
0
 10
127.500000
 20
38.999996
  0
LINE
  8
0
 10
-74.688004
 20
46.000000
 11
-50.499973
 21
46.000000
  0
LINE
  8
0
 10
-75.500000
 20
45.188004
 11
-52.500000
 21
45.188004
  0
LINE
  8
0
 10
-75.500000
 20
32.812000
 11
-52.500000
 21
32.812000
  0
LINE
  8
0
 10
-74.688004
 20
32.000000
 11
-50.499981
 21
32.000000
  0
LINE
  8
0
 10
-75.500000
 20
45.188004
 11
-75.500000
 21
32.812000
  0
LINE
  8
0
 10
-52.500000
 20
46.000000
 11
-52.500000
 21
32.000000
  0
LINE
  8
0
 10
-75.499985
 20
45.187988
 11
-74.687988
 21
45.999985
  0
LINE
  8
0
 10
-75.499969
 20
32.811989
 11
-74.687981
 21
31.999996
  0
LINE
  8
0
 10
-74.688004
 20
46.000000
 11
-74.688004
 21
32.000000
  0
LINE
  8
0
 10
-50.500000
 20
32.000000
 11
-50.500000
 21
46.000000
  0
LINE
  8
0
 10
-50.499977
 20
45.999989
 11
-49.499977
 21
46.999989
  0
LINE
  8
0
 10
-50.499977
 20
32.000004
 11
-49.499977
 21
31.000000
  0
LINE
  8
0
 10
-49.500000
 20
31.000000
 11
-49.500000
 21
47.000000
  0
LINE
  8
0
 10
-45.500000
 20
35.127018
 11
-45.500000
 21
42.872986
  0
LINE
  8
0
 10
-49.500000
 20
42.872986
 11
-45.500000
 21
42.872986
  0
LINE
  8
0
 10
-49.500000
 20
35.127018
 11
-45.500000
 21
35.127018
  0
LINE
  8
0
 10
-49.500015
 20
42.872993
 11
-45.500015
 21
35.127022
  0
LINE
  8
0
 10
-45.500000
 20
42.872997
 11
-49.500000
 21
35.127029
  0
LINE
  8
0
 10
-49.500000
 20
47.000000
 11
-43.500000
 21
47.000000
  0
LINE
  8
0
 10
-49.500000
 20
31.000000
 11
-43.500000
 21
31.000000
  0
LINE
  8
0
 10
-42.241348
 20
21.000000
 11
-40.500000
 21
21.000000
  0
LINE
  8
0
 10
-42.241348
 20
57.000000
 11
-40.500000
 21
57.000000
  0
LINE
  8
0
 10
-43.500000
 20
55.500000
 11
-43.500000
 21
22.500000
  0
LINE
  8
0
 10
-43.499966
 20
55.499969
 11
-42.241329
 21
56.999969
  0
LINE
  8
0
 10
-43.499996
 20
22.500006
 11
-42.241348
 21
21.000006
  0
LINE
  8
0
 10
-42.241348
 20
21.000000
 11
-42.241348
 21
57.000000
  0
LINE
  8
0
 10
-38.445724
 20
65.558105
 11
-30.000000
 21
65.558105
  0
LINE
  8
0
 10
-38.445724
 20
12.441891
 11
-30.000000
 21
12.441891
  0
LINE
  8
0
 10
-40.500015
 20
15.999983
 11
-38.445755
 21
12.441883
  0
LINE
  8
0
 10
-40.499939
 20
61.999950
 11
-38.445679
 21
65.558052
  0
LINE
  8
0
 10
-38.445724
 20
25.720947
 11
-30.000000
 21
25.720947
  0
LINE
  8
0
 10
-38.445724
 20
52.279053
 11
-30.000000
 21
52.279053
  0
LINE
  8
0
 10
-29.500000
 20
62.000000
 11
-29.500000
 21
16.000000
  0
LINE
  8
0
 10
-30.000000
 20
65.558105
 11
-30.000000
 21
12.441891
  0
LINE
  8
0
 10
-30.000000
 20
62.000000
 11
-29.500000
 21
62.000000
  0
LINE
  8
0
 10
-30.000000
 20
16.000000
 11
-29.500000
 21
16.000000
  0
LINE
  8
0
 10
-29.500000
 20
57.000000
 11
-23.500000
 21
57.000000
  0
LINE
  8
0
 10
-29.500000
 20
21.000000
 11
-23.500000
 21
21.000000
  0
LINE
  8
0
 10
-28.500000
 20
57.000000
 11
-28.500000
 21
21.000000
  0
LINE
  8
0
 10
73.500000
 20
65.000000
 11
73.500000
 21
12.999998
  0
LINE
  8
0
 10
-23.500000
 20
55.500000
 11
-23.500000
 21
22.500000
  0
LINE
  8
0
 10
-23.500000
 20
65.000000
 11
-23.500000
 21
13.000000
  0
LINE
  8
0
 10
-0.500000
 20
65.000000
 11
-0.500000
 21
13.000000
  0
LINE
  8
0
 10
-11.499999
 20
72.000000
 11
-11.500001
 21
5.272766
  0
LINE
  8
0
 10
-77.625000
 20
39.000000
 11
132.472549
 21
38.999996
  0
LINE
  8
0
 10
-43.080444
 20
56.000000
 11
-40.500000
 21
56.000000
  0
LINE
  8
0
 10
-43.080444
 20
22.000000
 11
-40.500000
 21
22.000000
  0
LINE
  8
0
 10
-29.500000
 20
22.000000
 11
-28.500000
 21
22.000000
  0
LINE
  8
0
 10
-29.500000
 20
56.000000
 11
-28.500000
 21
56.000000
  0
LINE
  8
0
 10
107.500000
 20
56.999996
 11
126.241364
 21
56.999996
  0
LINE
  8
0
 10
107.500000
 20
20.999996
 11
126.241333
 21
20.999996
  0
LINE
  8
0
 10
126.241394
 20
57.000038
 11
127.500061
 21
55.500038
  0
LINE
  8
0
 10
126.241333
 20
20.999985
 11
127.499985
 21
22.499989
  0
LINE
  8
0
 10
127.500000
 20
22.499996
 11
127.500000
 21
55.499996
  0
LINE
  8
0
 10
112.500000
 20
56.999996
 11
112.500000
 21
20.999996
  0
LINE
  8
0
 10
126.241318
 20
20.999996
 11
126.241318
 21
56.999996
  0
LINE
  8
0
 10
112.500000
 20
55.999996
 11
127.080444
 21
55.999996
  0
LINE
  8
0
 10
112.500000
 20
21.999996
 11
127.080444
 21
21.999996
  0
LINE
  8
0
 10
-40.500000
 20
16.000000
 11
-40.500000
 21
62.000000
  0
LINE
  8
0
 10
76.500000
 20
65.000000
 11
-23.500000
 21
65.000000
  0
LINE
  8
0
 10
107.500000
 20
12.999996
 11
-23.500000
 21
13.000000
  0
LINE
  8
0
 10
90.500000
 20
76.847061
 11
90.500000
 21
5.788231
  0
LINE
  8
0
 10
107.500000
 20
59.999996
 11
107.500000
 21
12.999996
  0
LINE
  8
0
 10
107.500000
 20
59.999996
 11
76.500000
 21
60.000000
  0
LINE
  8
0
 10
84.250000
 20
12.999998
 11
84.250000
 21
12.900000
  0
LINE
  8
0
 10
96.750000
 20
12.999996
 11
96.750000
 21
12.899998
  0
LINE
  8
0
 10
95.500000
 20
9.299995
 11
85.500000
 21
9.299997
  0
LINE
  8
0
 10
85.500000
 20
12.900000
 11
85.500000
 21
9.299997
  0
LINE
  8
0
 10
95.500000
 20
12.899998
 11
95.500000
 21
9.299995
  0
LINE
  8
0
 10
92.500000
 20
7.099995
 11
88.500000
 21
7.099997
  0
LINE
  8
0
 10
88.000000
 20
9.299997
 11
88.000000
 21
9.099997
  0
LINE
  8
0
 10
93.000000
 20
9.299995
 11
93.000000
 21
9.099997
  0
LINE
  8
0
 10
88.432983
 20
9.299997
 11
88.432983
 21
8.667009
  0
LINE
  8
0
 10
92.567017
 20
9.299995
 11
92.567017
 21
8.667011
  0
LINE
  8
0
 10
90.500000
 20
12.466984
 11
90.500000
 21
9.733006
  0
LINE
  8
0
 10
-5.250000
 20
12.900002
 11
-17.750000
 21
12.900002
  0
LINE
  8
0
 10
-17.750000
 20
13.000000
 11
-17.750000
 21
12.900002
  0
LINE
  8
0
 10
-5.250000
 20
13.000000
 11
-5.250000
 21
12.900002
  0
LINE
  8
0
 10
-6.500000
 20
9.299999
 11
-16.500000
 21
9.299999
  0
LINE
  8
0
 10
-16.500000
 20
12.900002
 11
-16.500000
 21
9.299999
  0
LINE
  8
0
 10
-6.500000
 20
12.900002
 11
-6.500000
 21
9.299999
  0
LINE
  8
0
 10
-9.500001
 20
7.099998
 11
-13.500001
 21
7.099998
  0
LINE
  8
0
 10
-14.000001
 20
9.299999
 11
-14.000001
 21
9.099998
  0
LINE
  8
0
 10
-9.000001
 20
9.299999
 11
-9.000001
 21
9.099998
  0
LINE
  8
0
 10
-13.567002
 20
9.299999
 11
-13.567002
 21
8.667000
  0
LINE
  8
0
 10
-9.433000
 20
9.299999
 11
-9.433000
 21
8.667000
  0
LINE
  8
0
 10
-11.500001
 20
12.466988
 11
-11.500001
 21
9.733009
  0
LINE
  8
0
 10
76.500000
 20
65.000000
 11
76.500000
 21
60.000000
  0
LINE
  8
0
 10
101.999969
 20
74.499969
 11
103.999969
 21
72.499969
  0
LINE
  8
0
 10
79.000000
 20
74.500000
 11
102.000000
 21
74.500000
  0
LINE
  8
0
 10
76.750000
 20
67.000000
 11
82.854095
 21
67.000000
  0
LINE
  8
0
 10
104.000000
 20
72.500000
 11
104.000000
 21
70.000000
  0
LINE
  8
0
 10
77.000000
 20
72.500000
 11
77.000000
 21
70.000000
  0
LINE
  8
0
 10
82.854095
 20
74.500000
 11
82.854095
 21
67.000000
  0
LINE
  8
0
 10
82.250000
 20
67.000000
 11
82.250000
 21
70.000000
  0
LINE
  8
0
 10
76.750000
 20
67.000000
 11
76.750000
 21
70.000000
  0
LINE
  8
0
 10
76.750000
 20
70.000000
 11
82.250000
 21
70.000000
  0
LINE
  8
0
 10
77.000000
 20
67.000000
 11
77.000000
 21
60.000000
  0
LINE
  8
0
 10
104.250000
 20
67.000000
 11
104.250000
 21
70.000000
  0
LINE
  8
0
 10
104.250000
 20
67.000000
 11
98.145905
 21
67.000000
  0
LINE
  8
0
 10
98.750000
 20
67.000000
 11
98.750000
 21
70.000000
  0
LINE
  8
0
 10
104.250000
 20
70.000000
 11
98.750000
 21
70.000000
  0
LINE
  8
0
 10
98.145905
 20
74.500000
 11
98.145905
 21
67.000000
  0
LINE
  8
0
 10
104.000000
 20
67.000000
 11
104.000000
 21
59.999996
  0
LINE
  8
0
 10
82.854095
 20
72.500000
 11
98.145905
 21
72.500000
  0
LINE
  8
0
 10
79.000000
 20
74.500000
 11
77.000000
 21
72.499992
  0
LINE
  8
0
 10
-13.500001
 20
8.599998
 11
-13.500001
 21
7.099998
  0
LINE
  8
0
 10
-9.500001
 20
8.599998
 11
-9.500001
 21
7.099998
  0
LINE
  8
0
 10
-9.500001
 20
8.599998
 11
-13.500001
 21
8.599998
  0
LINE
  8
0
 10
-13.500004
 20
8.600004
 11
-14.000004
 21
9.100004
  0
LINE
  8
0
 10
-9.500000
 20
8.599998
 11
-9.000001
 21
9.099998
  0
LINE
  8
0
 10
-8.999999
 20
9.099998
 11
-14.000000
 21
9.099998
  0
LINE
  8
0
 10
92.500000
 20
8.599995
 11
92.500000
 21
7.099995
  0
LINE
  8
0
 10
88.500000
 20
8.599997
 11
88.500000
 21
7.099997
  0
LINE
  8
0
 10
92.500000
 20
8.599995
 11
88.500000
 21
8.599997
  0
LINE
  8
0
 10
93.000000
 20
9.099995
 11
88.000000
 21
9.099997
  0
LINE
  8
0
 10
87.999985
 20
9.099995
 11
88.499985
 21
8.599995
  0
LINE
  8
0
 10
92.499969
 20
8.599995
 11
92.999985
 21
9.100006
  0
LINE
  8
0
 10
84.250000
 20
12.900000
 11
96.750000
 21
12.899998
  0
CIRCLE
  8
0
 10
-11.500000
 20
39.000000
 40
5.500000
  0
CIRCLE
  8
0
 10
-11.500000
 20
39.000000
 40
6.500000
  0
CIRCLE
  8
0
 10
90.500000
 20
38.999996
 40
5.499996
  0
CIRCLE
  8
0
 10
90.500000
 20
38.999996
 40
6.499996
  0
POLYLINE
  8
0
 66
     1
  0
VERTEX
  8
0
 10
90.500000
 20
9.733006
  0
VERTEX
  8
0
 10
89.685654
 20
9.497708
  0
VERTEX
  8
0
 10
88.848526
 20
9.350740
  0
VERTEX
  8
0
 10
88.000000
 20
9.299997
  0
VERTEX
  8
0
 10
87.151474
 20
9.350741
  0
VERTEX
  8
0
 10
86.314346
 20
9.497709
  0
VERTEX
  8
0
 10
85.500000
 20
9.733007
  0
SEQEND
  0
POLYLINE
  8
0
 66
     1
  0
VERTEX
  8
0
 10
95.500000
 20
12.466984
  0
VERTEX
  8
0
 10
94.685654
 20
12.702284
  0
VERTEX
  8
0
 10
93.848526
 20
12.849254
  0
VERTEX
  8
0
 10
93.000000
 20
12.899998
  0
VERTEX
  8
0
 10
92.151474
 20
12.849254
  0
VERTEX
  8
0
 10
91.314346
 20
12.702284
  0
VERTEX
  8
0
 10
90.500000
 20
12.466984
  0
SEQEND
  0
POLYLINE
  8
0
 66
     1
  0
VERTEX
  8
0
 10
-11.500001
 20
9.733009
  0
VERTEX
  8
0
 10
-12.314344
 20
9.497711
  0
VERTEX
  8
0
 10
-13.151475
 20
9.350743
  0
VERTEX
  8
0
 10
-14.000001
 20
9.299999
  0
VERTEX
  8
0
 10
-14.848526
 20
9.350743
  0
VERTEX
  8
0
 10
-15.685658
 20
9.497711
  0
VERTEX
  8
0
 10
-16.500000
 20
9.733009
  0
SEQEND
  0
POLYLINE
  8
0
 66
     1
  0
VERTEX
  8
0
 10
-6.500000
 20
9.733009
  0
VERTEX
  8
0
 10
-7.314343
 20
9.497711
  0
VERTEX
  8
0
 10
-8.151475
 20
9.350743
  0
VERTEX
  8
0
 10
-9.000001
 20
9.299999
  0
VERTEX
  8
0
 10
-9.848527
 20
9.350743
  0
VERTEX
  8
0
 10
-10.685658
 20
9.497711
  0
VERTEX
  8
0
 10
-11.500001
 20
9.733009
  0
SEQEND
  0
POLYLINE
  8
0
 66
     1
  0
VERTEX
  8
0
 10
90.500000
 20
12.466984
  0
VERTEX
  8
0
 10
89.685654
 20
12.702284
  0
VERTEX
  8
0
 10
88.848526
 20
12.849255
  0
VERTEX
  8
0
 10
88.000000
 20
12.900000
  0
VERTEX
  8
0
 10
87.151474
 20
12.849256
  0
VERTEX
  8
0
 10
86.314346
 20
12.702286
  0
VERTEX
  8
0
 10
85.500000
 20
12.466986
  0
SEQEND
  0
POLYLINE
  8
0
 66
     1
  0
VERTEX
  8
0
 10
95.500000
 20
9.733006
  0
VERTEX
  8
0
 10
94.685654
 20
9.497707
  0
VERTEX
  8
0
 10
93.848526
 20
9.350739
  0
VERTEX
  8
0
 10
93.000000
 20
9.299995
  0
VERTEX
  8
0
 10
92.151474
 20
9.350739
  0
VERTEX
  8
0
 10
91.314346
 20
9.497707
  0
VERTEX
  8
0
 10
90.500000
 20
9.733006
  0
SEQEND
  0
POLYLINE
  8
0
 66
     1
  0
VERTEX
  8
0
 10
-6.500000
 20
12.466988
  0
VERTEX
  8
0
 10
-7.314343
 20
12.702288
  0
VERTEX
  8
0
 10
-8.151475
 20
12.849257
  0
VERTEX
  8
0
 10
-9.000001
 20
12.900002
  0
VERTEX
  8
0
 10
-9.848527
 20
12.849257
  0
VERTEX
  8
0
 10
-10.685658
 20
12.702288
  0
VERTEX
  8
0
 10
-11.500001
 20
12.466988
  0
SEQEND
  0
POLYLINE
  8
0
 66
     1
  0
VERTEX
  8
0
 10
-11.500001
 20
12.466988
  0
VERTEX
  8
0
 10
-12.314343
 20
12.702288
  0
VERTEX
  8
0
 10
-13.151475
 20
12.849257
  0
VERTEX
  8
0
 10
-14.000001
 20
12.900002
  0
VERTEX
  8
0
 10
-14.848526
 20
12.849257
  0
VERTEX
  8
0
 10
-15.685658
 20
12.702288
  0
VERTEX
  8
0
 10
-16.500000
 20
12.466988
  0
SEQEND
  0
POLYLINE
  8
0
 66
     1
  0
VERTEX
  8
0
 10
-38.445724
 20
65.558105
  0
VERTEX
  8
0
 10
-38.943359
 20
64.692543
  0
VERTEX
  8
0
 10
-39.386097
 20
63.788704
  0
VERTEX
  8
0
 10
-39.766045
 20
62.852959
  0
VERTEX
  8
0
 10
-40.075306
 20
61.891697
  0
VERTEX
  8
0
 10
-40.305984
 20
60.911289
  0
VERTEX
  8
0
 10
-40.450180
 20
59.918125
  0
VERTEX
  8
0
 10
-40.500000
 20
58.918579
  0
VERTEX
  8
0
 10
-40.450180
 20
57.919033
  0
VERTEX
  8
0
 10
-40.305984
 20
56.925869
  0
VERTEX
  8
0
 10
-40.075306
 20
55.945461
  0
VERTEX
  8
0
 10
-39.766045
 20
54.984200
  0
VERTEX
  8
0
 10
-39.386097
 20
54.048454
  0
VERTEX
  8
0
 10
-38.943359
 20
53.144611
  0
VERTEX
  8
0
 10
-38.445724
 20
52.279053
  0
SEQEND
  0
POLYLINE
  8
0
 66
     1
  0
VERTEX
  8
0
 10
-38.445724
 20
52.279053
  0
VERTEX
  8
0
 10
-38.720280
 20
51.358845
  0
VERTEX
  8
0
 10
-38.976368
 20
50.432350
  0
VERTEX
  8
0
 10
-39.213692
 20
49.500050
  0
VERTEX
  8
0
 10
-39.431946
 20
48.562428
  0
VERTEX
  8
0
 10
-39.630836
 20
47.619968
  0
VERTEX
  8
0
 10
-39.810059
 20
46.673161
  0
VERTEX
  8
0
 10
-39.969318
 20
45.722481
  0
VERTEX
  8
0
 10
-40.108318
 20
44.768414
  0
VERTEX
  8
0
 10
-40.226749
 20
43.811443
  0
VERTEX
  8
0
 10
-40.324322
 20
42.852058
  0
VERTEX
  8
0
 10
-40.400734
 20
41.890736
  0
VERTEX
  8
0
 10
-40.455681
 20
40.927963
  0
VERTEX
  8
0
 10
-40.488869
 20
39.964222
  0
VERTEX
  8
0
 10
-40.500000
 20
39.000000
  0
VERTEX
  8
0
 10
-40.488869
 20
38.035778
  0
VERTEX
  8
0
 10
-40.455681
 20
37.072037
  0
VERTEX
  8
0
 10
-40.400734
 20
36.109264
  0
VERTEX
  8
0
 10
-40.324322
 20
35.147942
  0
VERTEX
  8
0
 10
-40.226749
 20
34.188557
  0
VERTEX
  8
0
 10
-40.108315
 20
33.231586
  0
VERTEX
  8
0
 10
-39.969318
 20
32.277519
  0
VERTEX
  8
0
 10
-39.810059
 20
31.326839
  0
VERTEX
  8
0
 10
-39.630833
 20
30.380030
  0
VERTEX
  8
0
 10
-39.431946
 20
29.437571
  0
VERTEX
  8
0
 10
-39.213692
 20
28.499950
  0
VERTEX
  8
0
 10
-38.976368
 20
27.567650
  0
VERTEX
  8
0
 10
-38.720280
 20
26.641155
  0
VERTEX
  8
0
 10
-38.445724
 20
25.720947
  0
SEQEND
  0
POLYLINE
  8
0
 66
     1
  0
VERTEX
  8
0
 10
-38.445724
 20
25.720947
  0
VERTEX
  8
0
 10
-38.943359
 20
24.855387
  0
VERTEX
  8
0
 10
-39.386097
 20
23.951546
  0
VERTEX
  8
0
 10
-39.766045
 20
23.015802
  0
VERTEX
  8
0
 10
-40.075306
 20
22.054537
  0
VERTEX
  8
0
 10
-40.305984
 20
21.074133
  0
VERTEX
  8
0
 10
-40.450180
 20
20.080967
  0
VERTEX
  8
0
 10
-40.500000
 20
19.081421
  0
VERTEX
  8
0
 10
-40.450180
 20
18.081875
  0
VERTEX
  8
0
 10
-40.305984
 20
17.088709
  0
VERTEX
  8
0
 10
-40.075306
 20
16.108303
  0
VERTEX
  8
0
 10
-39.766045
 20
15.147038
  0
VERTEX
  8
0
 10
-39.386097
 20
14.211293
  0
VERTEX
  8
0
 10
-38.943359
 20
13.307451
  0
VERTEX
  8
0
 10
-38.445724
 20
12.441891
  0
SEQEND
  0
POINT
  8
0
 10
-127.499992
 20
38.981747
  0
POINT
  8
0
 10
-104.500031
 20
38.981747
  0
LINE
  8
0
 10
-137.000000
 20
44.484833
 11
-137.000000
 21
33.515182
  0
LINE
  8
0
 10
-118.000000
 20
44.484825
 11
-118.000000
 21
33.515167
  0
LINE
  8
0
 10
-136.999954
 20
44.484768
 11
-127.499947
 21
49.969593
  0
LINE
  8
0
 10
-127.499969
 20
28.030266
 11
-117.999931
 21
33.515087
  0
LINE
  8
0
 10
-127.499985
 20
49.969650
 11
-118.000008
 21
44.484821
  0
LINE
  8
0
 10
-137.000000
 20
33.515198
 11
-127.500015
 21
28.030371
  0
LINE
  8
0
 10
-150.499985
 20
52.279068
 11
-150.500015
 21
25.720963
  0
LINE
  8
0
 10
-104.499992
 20
52.279037
 11
-104.500008
 21
25.720932
  0
LINE
  8
0
 10
-150.499954
 20
52.278980
 11
-127.499939
 21
65.558014
  0
LINE
  8
0
 10
-127.500008
 20
12.441919
 11
-104.500015
 21
25.720955
  0
LINE
  8
0
 10
-127.499985
 20
65.558113
 11
-104.500000
 21
52.279041
  0
LINE
  8
0
 10
-150.500000
 20
25.720997
 11
-127.500000
 21
12.441917
  0
LINE
  8
0
 10
-125.400017
 20
9.299994
 11
-125.400017
 21
8.700001
  0
LINE
  8
0
 10
-121.250015
 20
13.762371
 11
-121.250015
 21
12.899998
  0
LINE
  8
0
 10
-129.600006
 20
9.299997
 11
-129.600006
 21
8.699995
  0
LINE
  8
0
 10
-128.000015
 20
7.099998
 11
-129.500015
 21
7.100000
  0
LINE
  8
0
 10
-128.000015
 20
8.599998
 11
-128.000015
 21
7.099998
  0
LINE
  8
0
 10
-127.000023
 20
8.599998
 11
-127.000023
 21
7.099998
  0
LINE
  8
0
 10
-133.750015
 20
13.762379
 11
-133.750015
 21
12.900005
  0
LINE
  8
0
 10
-125.500023
 20
8.599997
 11
-129.500015
 21
8.600000
  0
LINE
  8
0
 10
-121.250015
 20
12.899998
 11
-126.706543
 21
12.900002
  0
LINE
  8
0
 10
-121.750015
 20
12.466984
 11
-121.750023
 21
9.733006
  0
LINE
  8
0
 10
-125.000023
 20
9.299994
 11
-125.000023
 21
9.099995
  0
LINE
  8
0
 10
-130.000015
 20
9.299997
 11
-130.000015
 21
9.100004
  0
LINE
  8
0
 10
-133.250015
 20
12.466991
 11
-133.250015
 21
9.733013
  0
LINE
  8
0
 10
-128.293488
 20
12.900002
 11
-133.750015
 21
12.900005
  0
LINE
  8
0
 10
-125.500023
 20
7.099997
 11
-127.000023
 21
7.099998
  0
LINE
  8
0
 10
-132.500015
 20
12.899975
 11
-133.250015
 21
12.466969
  0
LINE
  8
0
 10
-127.499977
 20
78.599991
 11
-127.500023
 21
5.184376
  0
LINE
  8
0
 10
-121.750000
 20
9.732981
 11
-122.499985
 21
9.299969
  0
LINE
  8
0
 10
-133.250031
 20
9.733009
 11
-132.500000
 21
9.299978
  0
LINE
  8
0
 10
-122.500046
 20
12.899971
 11
-121.750046
 21
12.466953
  0
LINE
  8
0
 10
-122.500023
 20
9.299992
 11
-132.500015
 21
9.299999
  0
LINE
  8
0
 10
-124.625015
 20
12.466986
 11
-124.625023
 21
9.733007
  0
LINE
  8
0
 10
-130.375015
 20
12.466990
 11
-130.375015
 21
9.733011
  0
LINE
  8
0
 10
-160.000000
 20
38.981777
 11
-97.195297
 21
38.981735
  0
LINE
  8
0
 10
-142.499985
 20
72.500000
 11
-142.499985
 21
60.236771
  0
LINE
  8
0
 10
-112.499977
 20
72.499985
 11
-112.499985
 21
60.236755
  0
LINE
  8
0
 10
-140.499969
 20
74.500008
 11
-114.499977
 21
74.499992
  0
LINE
  8
0
 10
-142.499985
 20
67.000008
 11
-135.759979
 21
67.000008
  0
LINE
  8
0
 10
-119.239990
 20
66.999992
 11
-112.499985
 21
66.999992
  0
LINE
  8
0
 10
-119.239983
 20
74.500000
 11
-119.239990
 21
66.999992
  0
LINE
  8
0
 10
-135.759964
 20
74.500000
 11
-135.759979
 21
67.000008
  0
LINE
  8
0
 10
-118.249977
 20
69.999992
 11
-112.499977
 21
69.999992
  0
LINE
  8
0
 10
-118.249985
 20
66.999992
 11
-118.249977
 21
69.999992
  0
LINE
  8
0
 10
-136.749985
 20
67.000008
 11
-136.749985
 21
70.000008
  0
LINE
  8
0
 10
-136.749985
 20
70.000008
 11
-142.499985
 21
70.000008
  0
LINE
  8
0
 10
-140.499939
 20
74.499962
 11
-142.499939
 21
72.499954
  0
LINE
  8
0
 10
-114.499977
 20
74.500000
 11
-112.499977
 21
72.500000
  0
LINE
  8
0
 10
-135.759979
 20
72.500000
 11
-119.239983
 21
72.500000
  0
LINE
  8
0
 10
-125.500023
 20
8.599997
 11
-125.500023
 21
7.099997
  0
LINE
  8
0
 10
-129.500015
 20
8.600000
 11
-129.500015
 21
7.100000
  0
LINE
  8
0
 10
-129.500046
 20
8.599972
 11
-130.000046
 21
9.099976
  0
LINE
  8
0
 10
-125.499954
 20
8.599939
 11
-124.999954
 21
9.099939
  0
LINE
  8
0
 10
-125.000023
 20
9.099997
 11
-130.000015
 21
9.100000
  0
CIRCLE
  8
0
 10
-127.500000
 20
39.000000
 40
9.500000
  0
CIRCLE
  8
0
 10
-127.500000
 20
39.000000
 40
7.000000
  0
CIRCLE
  8
0
 10
-127.500000
 20
39.000000
 40
6.188000
  0
CIRCLE
  8
0
 10
-127.500000
 20
39.000000
 40
23.000000
  0
CIRCLE
  8
0
 10
-127.500000
 20
39.000000
 40
16.500000
  0
CIRCLE
  8
0
 10
-127.500000
 20
39.000000
 40
18.000000
  0
ARC
  8
0
 10
-127.500000
 20
39.000000
 40
26.000000
 50
359.999969
 51
27.795734
  0
ARC
  8
0
 10
-127.500000
 20
39.000000
 40
26.000000
 50
332.204193
 51
359.999969
  0
ARC
  8
0
 10
-127.500000
 20
39.000000
 40
26.000004
 50
152.204208
 51
207.795700
  0
ARC
  8
0
 10
-127.500000
 20
39.000000
 40
26.000004
 50
212.204178
 51
267.795715
  0
ARC
  8
0
 10
-127.500000
 20
39.000000
 40
26.000000
 50
272.204163
 51
327.795776
  0
ARC
  8
0
 10
-127.500000
 20
39.000000
 40
25.999998
 50
32.204193
 51
87.795738
  0
ARC
  8
0
 10
-127.500000
 20
39.000000
 40
25.999996
 50
92.204163
 51
147.795776
  0
POLYLINE
  8
0
 66
     1
  0
VERTEX
  8
0
 10
-121.750023
 20
9.733006
  0
VERTEX
  8
0
 10
-122.440361
 20
9.419658
  0
VERTEX
  8
0
 10
-123.187523
 20
9.299994
  0
VERTEX
  8
0
 10
-123.934685
 20
9.419659
  0
VERTEX
  8
0
 10
-124.625023
 20
9.733007
  0
SEQEND
  0
POLYLINE
  8
0
 66
     1
  0
VERTEX
  8
0
 10
-128.241577
 20
12.870706
  0
VERTEX
  8
0
 10
-128.962830
 20
12.787096
  0
VERTEX
  8
0
 10
-129.674957
 20
12.651770
  0
VERTEX
  8
0
 10
-130.375015
 20
12.466990
  0
SEQEND
  0
POLYLINE
  8
0
 66
     1
  0
VERTEX
  8
0
 10
-121.750015
 20
12.466984
  0
VERTEX
  8
0
 10
-122.440353
 20
12.780334
  0
VERTEX
  8
0
 10
-123.187515
 20
12.900000
  0
VERTEX
  8
0
 10
-123.934677
 20
12.780334
  0
VERTEX
  8
0
 10
-124.625015
 20
12.466986
  0
SEQEND
  0
POLYLINE
  8
0
 66
     1
  0
VERTEX
  8
0
 10
-124.625015
 20
12.466986
  0
VERTEX
  8
0
 10
-125.325638
 20
12.651814
  0
VERTEX
  8
0
 10
-126.038353
 20
12.787211
  0
VERTEX
  8
0
 10
-126.757996
 20
12.870669
  0
SEQEND
  0
POLYLINE
  8
0
 66
     1
  0
VERTEX
  8
0
 10
-130.375015
 20
12.466990
  0
VERTEX
  8
0
 10
-131.065353
 20
12.780339
  0
VERTEX
  8
0
 10
-131.812515
 20
12.900005
  0
VERTEX
  8
0
 10
-132.559677
 20
12.780340
  0
VERTEX
  8
0
 10
-133.250015
 20
12.466991
  0
SEQEND
  0
POLYLINE
  8
0
 66
     1
  0
VERTEX
  8
0
 10
-124.625023
 20
9.733007
  0
VERTEX
  8
0
 10
-125.566483
 20
9.496511
  0
VERTEX
  8
0
 10
-126.528191
 20
9.350141
  0
VERTEX
  8
0
 10
-127.500023
 20
9.299995
  0
VERTEX
  8
0
 10
-128.471848
 20
9.350142
  0
VERTEX
  8
0
 10
-129.433563
 20
9.496514
  0
VERTEX
  8
0
 10
-130.375015
 20
9.733011
  0
SEQEND
  0
POLYLINE
  8
0
 66
     1
  0
VERTEX
  8
0
 10
-130.375015
 20
9.733011
  0
VERTEX
  8
0
 10
-131.065353
 20
9.419663
  0
VERTEX
  8
0
 10
-131.812515
 20
9.299999
  0
VERTEX
  8
0
 10
-132.559677
 20
9.419664
  0
VERTEX
  8
0
 10
-133.250015
 20
9.733013
  0
SEQEND
  0
POINT
  8
0
 10
-23.499994
 20
-56.728493
  0
POINT
  8
0
 10
127.500008
 20
-56.728493
  0
LINE
  8
0
 10
-38.445736
 20
-30.170380
 11
-30.000004
 21
-30.170380
  0
LINE
  8
0
 10
-38.445736
 20
-83.286591
 11
-30.000004
 21
-83.286591
  0
LINE
  8
0
 10
-40.500015
 20
-79.728485
 11
-38.445736
 21
-83.286591
  0
LINE
  8
0
 10
-40.500122
 20
-33.728409
 11
-38.445839
 21
-30.170301
  0
LINE
  8
0
 10
-29.500004
 20
-33.728485
 11
-29.500004
 21
-79.728485
  0
LINE
  8
0
 10
-30.000004
 20
-30.170380
 11
-30.000004
 21
-83.286591
  0
LINE
  8
0
 10
-30.000004
 20
-33.728485
 11
-29.500004
 21
-33.728485
  0
LINE
  8
0
 10
-30.000004
 20
-79.728485
 11
-29.500004
 21
-79.728485
  0
LINE
  8
0
 10
-40.499996
 20
-79.728485
 11
-40.499996
 21
-33.728485
  0
LINE
  8
0
 10
-78.500000
 20
-56.728485
 11
133.500000
 21
-56.728489
  0
LINE
  8
0
 10
-43.500000
 20
-56.728485
 11
-43.500000
 21
-39.728531
  0
LINE
  8
0
 10
-23.500000
 20
-82.728485
 11
-23.500000
 21
-30.728485
  0
LINE
  8
0
 10
-75.500000
 20
-50.728485
 11
-75.500000
 21
-56.728485
  0
LINE
  8
0
 10
-75.499863
 20
-50.728729
 11
-74.499878
 21
-49.728729
  0
LINE
  8
0
 10
-74.500000
 20
-49.728470
 11
-74.500000
 21
-56.728485
  0
LINE
  8
0
 10
-75.500000
 20
-50.728485
 11
-52.500000
 21
-50.728485
  0
LINE
  8
0
 10
-46.499985
 20
-49.728470
 11
-74.500000
 21
-49.728470
  0
LINE
  8
0
 10
-23.500000
 20
-30.728485
 11
107.500008
 21
-30.728489
  0
LINE
  8
0
 10
-43.500015
 20
-39.728531
 11
-40.499996
 21
-39.728531
  0
LINE
  8
0
 10
-23.500023
 20
-38.728531
 11
-29.500004
 21
-38.728531
  0
LINE
  8
0
 10
-43.500008
 20
-39.728600
 11
-42.500031
 21
-38.728607
  0
LINE
  8
0
 10
-42.500015
 20
-38.728531
 11
-42.500015
 21
-56.728485
  0
LINE
  8
0
 10
107.500008
 20
-38.728489
 11
126.000008
 21
-38.728489
  0
LINE
  8
0
 10
127.500008
 20
-56.728489
 11
127.500008
 21
-40.228504
  0
LINE
  8
0
 10
112.500008
 20
-39.728489
 11
127.000023
 21
-39.728489
  0
LINE
  8
0
 10
107.500008
 20
-30.728489
 11
107.500008
 21
-82.728485
  0
LINE
  8
0
 10
90.500000
 20
-47.148487
 11
90.500000
 21
-66.308487
  0
LINE
  8
0
 10
-28.500000
 20
-56.728485
 11
-28.500000
 21
-38.728531
  0
LINE
  8
0
 10
-52.500000
 20
-49.728470
 11
-52.500000
 21
-56.728485
  0
LINE
  8
0
 10
-45.500000
 20
-48.728485
 11
-43.500000
 21
-48.728485
  0
LINE
  8
0
 10
-45.500008
 20
-48.728539
 11
-46.499985
 21
-49.728539
  0
LINE
  8
0
 10
-43.500000
 20
-73.728439
 11
-43.500000
 21
-56.728485
  0
LINE
  8
0
 10
-75.500000
 20
-56.728485
 11
-75.500000
 21
-62.728481
  0
LINE
  8
0
 10
-74.500000
 20
-63.728405
 11
-75.499977
 21
-62.728439
  0
LINE
  8
0
 10
-74.500000
 20
-56.728485
 11
-74.500000
 21
-63.728497
  0
LINE
  8
0
 10
-52.500000
 20
-62.728481
 11
-75.500000
 21
-62.728481
  0
LINE
  8
0
 10
-74.500000
 20
-63.728497
 11
-46.499985
 21
-63.728497
  0
LINE
  8
0
 10
-28.500008
 20
-73.728439
 11
-29.500004
 21
-73.728439
  0
LINE
  8
0
 10
-42.500061
 20
-74.728439
 11
-40.499996
 21
-74.728439
  0
LINE
  8
0
 10
-42.500000
 20
-74.728378
 11
-43.499973
 21
-73.728386
  0
LINE
  8
0
 10
-42.500015
 20
-56.728485
 11
-42.500015
 21
-74.728439
  0
LINE
  8
0
 10
125.999992
 20
-74.728485
 11
107.500008
 21
-74.728485
  0
LINE
  8
0
 10
127.500008
 20
-73.228485
 11
127.500008
 21
-56.728489
  0
LINE
  8
0
 10
126.999992
 20
-73.728485
 11
112.500008
 21
-73.728485
  0
LINE
  8
0
 10
112.500008
 20
-74.728485
 11
112.500008
 21
-38.728489
  0
LINE
  8
0
 10
-28.500000
 20
-74.728439
 11
-28.500000
 21
-56.728485
  0
LINE
  8
0
 10
-52.500000
 20
-56.728485
 11
-52.500000
 21
-63.728497
  0
LINE
  8
0
 10
-43.500000
 20
-64.728485
 11
-45.500000
 21
-64.728485
  0
LINE
  8
0
 10
-46.499969
 20
-63.728504
 11
-45.500000
 21
-64.728500
  0
LINE
  8
0
 10
126.000206
 20
-38.728271
 11
127.500206
 21
-40.228264
  0
LINE
  8
0
 10
127.500008
 20
-73.228424
 11
126.000008
 21
-74.728409
  0
LINE
  8
0
 10
126.000008
 20
-38.728489
 11
126.000008
 21
-74.728485
  0
LINE
  8
0
 10
-11.500000
 20
-66.308487
 11
-11.500000
 21
-47.148483
  0
LINE
  8
0
 10
107.500008
 20
-82.728485
 11
-23.500000
 21
-82.728485
  0
LINE
  8
0
 10
-38.445736
 20
-56.728485
 11
-30.000004
 21
-56.728485
  0
LINE
  8
0
 10
-40.499996
 20
-38.728531
 11
-42.500053
 21
-38.728531
  0
LINE
  8
0
 10
-29.500004
 20
-39.728531
 11
-28.499985
 21
-39.728531
  0
LINE
  8
0
 10
-40.499996
 20
-73.728439
 11
-43.500031
 21
-73.728439
  0
LINE
  8
0
 10
-29.500004
 20
-74.728439
 11
-23.500031
 21
-74.728439
  0
LINE
  8
0
 10
-11.500034
 20
-50.978458
 11
-16.479700
 21
-53.853447
  0
LINE
  8
0
 10
-16.479664
 20
-53.853470
 11
-16.479664
 21
-59.603470
  0
LINE
  8
0
 10
-16.479679
 20
-59.603508
 11
-11.500027
 21
-62.478527
  0
LINE
  8
0
 10
-11.500034
 20
-62.478489
 11
-6.520367
 21
-59.603489
  0
LINE
  8
0
 10
-6.520359
 20
-59.603485
 11
-6.520359
 21
-53.853485
  0
LINE
  8
0
 10
-6.520361
 20
-53.853447
 11
-11.500006
 21
-50.978443
  0
LINE
  8
0
 10
95.479683
 20
-53.853485
 11
90.500023
 21
-50.978493
  0
LINE
  8
0
 10
95.479660
 20
-59.603474
 11
95.479660
 21
-53.853474
  0
LINE
  8
0
 10
90.500069
 20
-62.478519
 11
95.479713
 21
-59.603504
  0
LINE
  8
0
 10
85.520348
 20
-59.603493
 11
90.500008
 21
-62.478497
  0
LINE
  8
0
 10
85.520355
 20
-53.853489
 11
85.520355
 21
-59.603489
  0
LINE
  8
0
 10
90.500046
 20
-50.978508
 11
85.520393
 21
-53.853512
  0
LINE
  8
0
 10
-0.500000
 20
-30.728485
 11
-0.500000
 21
-82.728485
  0
LINE
  8
0
 10
73.500000
 20
-30.728487
 11
73.500000
 21
-82.728485
  0
CIRCLE
  8
0
 10
-11.500004
 20
-56.728485
 40
7.000000
  0
CIRCLE
  8
0
 10
-11.500019
 20
-56.728485
 40
4.979652
  0
ARC
  8
0
 10
3.446049
 20
-43.449432
 40
43.946045
 50
162.412201
 51
197.587784
  0
ARC
  8
0
 10
3.446049
 20
-70.007538
 40
43.946049
 50
162.412140
 51
197.587738
  0
CIRCLE
  8
0
 10
90.500015
 20
-56.728489
 40
4.979652
  0
CIRCLE
  8
0
 10
-11.500004
 20
-56.728485
 40
2.500000
  0
CIRCLE
  8
0
 10
90.500000
 20
-56.728489
 40
3.000000
  0
CIRCLE
  8
0
 10
-11.500004
 20
-56.728485
 40
3.000000
  0
CIRCLE
  8
0
 10
90.500000
 20
-56.728489
 40
2.500000
  0
CIRCLE
  8
0
 10
90.500000
 20
-56.728489
 40
7.000000
  0
ENDSEC
  0
EOF
