  0
SECTION
  2
HEADER
  0
ENDSEC
  0
SECTION
  2
TABLES
  0
TABLE
  2
LTYPE
 70
     4
  0
LTYPE
  2
CONTINUOUS
 70
    64
  3
Solid line
 72
    65
 73
     0
 40
0.000000
  0
LTYPE
  2
DASHED
 70
    64
  3
__ __ __ __ __ __ __ __ __ __ __ __ __ __ __
 72
    65
 73
     2
 40
3.500000
 49
2.000000
 49
-1.500000
  0
LTYPE
  2
CENTER
 70
    64
  3
____ _ ____ _ ____ _ ____ _ ____ _ ____ _ ____
 72
    65
 73
     4
 40
17.500000
 49
13.000000
 49
-1.500000
 49
1.500000
 49
-1.500000
  0
LTYPE
  2
PHANTOM
 70
    64
  3
_____ _ _ _____ _ _ _____ _ _ _____ _ _ ____  
 72
    65
 73
     6
 40
15.500000
 49
8.000000
 49
-1.500000
 49
1.500000
 49
-1.500000
 49
1.500000
 49
-1.500000
  0
LTYPE
  2
DASHED1
 70
    64
  3
__ __ __ __ __ __ __ __ __ __ __ __ __ __ __
 72
    65
 73
     2
 40
1.500000
 49
1.000000
 49
-0.500000
  0
LTYPE
  2
DASHED2
 70
    64
  3
__ __ __ __ __ __ __ __ __ __ __ __ __ __ __
 72
    65
 73
     2
 40
3.500000
 49
2.500000
 49
-1.000000
  0
LTYPE
  2
DASHED3
 70
    64
  3
__ __ __ __ __ __ __ __ __ __ __ __ __ __ __
 72
    65
 73
     2
 40
6.000000
 49
4.000000
 49
-2.000000
  0
LTYPE
  2
DASHED4
 70
    64
  3
__ __ __ __ __ __ __ __ __ __ __ __ __ __ __
 72
    65
 73
     2
 40
12.000000
 49
10.000000
 49
-2.000000
  0
LTYPE
  2
DASHED5
 70
    64
  3
__ __ __ __ __ __ __ __ __ __ __ __ __ __ __
 72
    65
 73
     2
 40
17.000000
 49
15.000000
 49
-2.000000
  0
LTYPE
  2
DASHED6
 70
    64
  3
__ __ __ __ __ __ __ __ __ __ __ __ __ __ __
 72
    65
 73
     2
 40
29.000000
 49
27.000000
 49
-2.000000
  0
LTYPE
  2
PHANTOM1
 70
    64
  3
_____ _ _ _____ _ _ _____ _ _ _____ _ _ ____  
 72
    65
 73
     6
 40
31.000000
 49
25.000000
 49
-1.500000
 49
1.000000
 49
-1.000000
 49
1.000000
 49
-1.500000
  0
LTYPE
  2
PHANTOM2
 70
    64
  3
_____ _ _ _____ _ _ _____ _ _ _____ _ _ ____  
 72
    65
 73
     6
 40
36.000000
 49
27.000000
 49
-1.500000
 49
2.500000
 49
-1.000000
 49
2.500000
 49
-1.500000
  0
LTYPE
  2
PHANTOM3
 70
    64
  3
_____ _ _ _____ _ _ _____ _ _ _____ _ _ ____  
 72
    65
 73
     6
 40
78.000000
 49
64.000000
 49
-2.000000
 49
4.000000
 49
-2.000000
 49
4.000000
 49
-2.000000
  0
LTYPE
  2
CENTER1
 70
    64
  3
____ _ ____ _ ____ _ ____ _ ____ _ ____ _ ____
 72
    65
 73
     4
 40
19.000000
 49
14.000000
 49
-1.000000
 49
3.000000
 49
-1.000000
  0
LTYPE
  2
CENTER2
 70
    64
  3
____ _ ____ _ ____ _ ____ _ ____ _ ____ _ ____
 72
    65
 73
     4
 40
28.500000
 49
25.000000
 49
-1.000000
 49
1.500000
 49
-1.000000
  0
LTYPE
  2
CENTER3
 70
    64
  3
____ _ ____ _ ____ _ ____ _ ____ _ ____ _ ____
 72
    65
 73
     4
 40
31.500000
 49
27.000000
 49
-1.000000
 49
2.500000
 49
-1.000000
  0
LTYPE
  2
CENTER4
 70
    64
  3
____ _ ____ _ ____ _ ____ _ ____ _ ____ _ ____
 72
    65
 73
     4
 40
50.000000
 49
45.000000
 49
-1.000000
 49
3.000000
 49
-1.000000
  0
LTYPE
  2
CENTER5
 70
    64
  3
____ _ ____ _ ____ _ ____ _ ____ _ ____ _ ____
 72
    65
 73
     4
 40
100.000000
 49
92.000000
 49
-2.000000
 49
4.000000
 49
-2.000000
  0
LTYPE
  2
SBK1
 70
    64
  3
______ _ _ _ ______ _ _ _ ______ _ _ _ _____  
 72
    65
 73
     8
 40
60.500000
 49
45.000000
 49
-2.000000
 49
2.500000
 49
-2.000000
 49
2.500000
 49
-2.000000
 49
2.500000
 49
-2.000000
  0
LTYPE
  2
SBK2
 70
    64
  3
______ _ _ _ ______ _ _ _ ______ _ _ _ _____  
 72
    65
 73
     8
 40
84.000000
 49
64.000000
 49
-2.000000
 49
4.000000
 49
-2.000000
 49
4.000000
 49
-2.000000
 49
4.000000
 49
-2.000000
  0
LTYPE
  2
STCH
 70
    64
  3
__ __ __ __ __ __ __ __ __ __ __ __ __ __ __
 72
    65
 73
     2
 40
3.000000
 49
1.000000
 49
-2.000000
  0
LTYPE
  2
MTCH
 70
    64
  3
_____ _ _ _____ _ _ _____ _ _ _____ _ _ ____  
 72
    65
 73
     6
 40
80.000000
 49
66.000000
 49
-2.000000
 49
4.000000
 49
-2.000000
 49
4.000000
 49
-2.000000
  0
ENDTAB
  0
TABLE
  2
LAYER
 70
     1
  0
LAYER
  2
0
 70
     0
 62
     7
  6
CONTINUOUS
  0
ENDTAB
  0
TABLE
  2
STYLE
 70
     1
  0
STYLE
  2
STANDARD
 70
     0
 40
0.000000
 41
1.000000
 50
0.000000
 71
     0
 42
0.200000
  3
txt
  4
BIGFONT
  0
ENDTAB
  0
TABLE
  2
VIEW
 70
     0
  0
ENDTAB
  0
ENDSEC
  0
SECTION
  2
BLOCKS
  0
ENDSEC
  0
SECTION
  2
ENTITIES
  0
LINE
  8
0
 10
-199.500000
 20
-138.500000
 11
199.500000
 21
-138.500000
  0
LINE
  8
0
 10
-185.436783
 20
-127.279236
 11
-185.436783
 21
127.279236
  0
LINE
  8
0
 10
185.436783
 20
127.279236
 11
185.436783
 21
-127.279236
  0
LINE
  8
0
 10
-185.436783
 20
-127.279236
 11
185.436783
 21
-127.279236
  0
LINE
  8
0
 10
-185.436783
 20
127.279236
 11
185.436783
 21
127.279236
  0
LINE
  8
0
 10
-185.436783
 20
112.978195
 11
-109.164589
 21
112.978195
  0
LINE
  8
0
 10
-109.164589
 20
112.978195
 11
-109.164589
 21
127.279236
  0
LINE
  8
0
 10
109.164581
 20
-112.978210
 11
185.436783
 21
-112.978210
  0
LINE
  8
0
 10
109.164581
 20
112.978195
 11
185.436783
 21
112.978195
  0
LINE
  8
0
 10
109.164581
 20
127.279236
 11
109.164581
 21
112.978195
  0
LINE
  8
0
 10
109.164581
 20
-112.978210
 11
109.164581
 21
-127.279236
  0
TEXT
  8
0
 10
113.360985
 20
117.310349
 40
4.242641
  1
DATE : AUG ,1992
 50
0.000000
 41
1.052631
 51
0.000000
  7
STANDARD
  0
TEXT
  8
0
 10
-180.264954
 20
116.628723
 40
5.000000
  1
SLIM CYLINDER
 50
0.000000
 41
1.052632
 51
0.000000
  7
STANDARD
  0
TEXT
  8
0
 10
114.336403
 20
-123.628723
 40
5.000000
  1
KOGANEI CORP.
 50
0.000000
 41
1.052632
 51
0.000000
  7
STANDARD
  0
TEXT
  8
0
 10
-156.340408
 20
86.504448
 40
5.000000
  1
MODEL : DAK40X25-HL
 50
0.000000
 41
1.052632
 51
0.000000
  7
STANDARD
  0
POINT
  8
0
 10
-11.800014
 20
41.499985
  0
POINT
  8
0
 10
133.199982
 20
41.499985
  0
LINE
  8
0
 10
-55.799988
 20
48.500000
 11
-31.799988
 21
48.500000
  0
LINE
  8
0
 10
-55.799988
 20
34.500000
 11
-31.799988
 21
34.500000
  0
LINE
  8
0
 10
-33.799988
 20
48.500000
 11
-33.799988
 21
34.500000
  0
LINE
  8
0
 10
-31.799988
 20
34.500000
 11
-31.799988
 21
48.500000
  0
LINE
  8
0
 10
-31.799946
 20
48.499969
 11
-30.799950
 21
49.499969
  0
LINE
  8
0
 10
-31.799988
 20
34.500000
 11
-30.799973
 21
33.499989
  0
LINE
  8
0
 10
-26.799988
 20
37.627014
 11
-26.799988
 21
45.372982
  0
LINE
  8
0
 10
-30.799988
 20
45.372982
 11
-26.799988
 21
45.372982
  0
LINE
  8
0
 10
-30.799988
 20
37.627014
 11
-26.799988
 21
37.627014
  0
LINE
  8
0
 10
-30.800030
 20
45.372982
 11
-26.800003
 21
37.627022
  0
LINE
  8
0
 10
-26.799999
 20
45.372986
 11
-30.799999
 21
37.627014
  0
LINE
  8
0
 10
-30.799988
 20
33.500000
 11
-30.799988
 21
49.500000
  0
LINE
  8
0
 10
-30.799988
 20
49.500000
 11
-25.799988
 21
49.500000
  0
LINE
  8
0
 10
-30.799988
 20
33.500000
 11
-25.799988
 21
33.500000
  0
LINE
  8
0
 10
106.199982
 20
20.699966
 11
106.199982
 21
62.299969
  0
LINE
  8
0
 10
-25.799988
 20
56.500000
 11
-25.799988
 21
26.500000
  0
LINE
  8
0
 10
-22.468994
 20
17.828644
 11
-15.300002
 21
17.828644
  0
LINE
  8
0
 10
-24.299988
 20
62.000000
 11
-24.299988
 21
21.000000
  0
LINE
  8
0
 10
-24.299957
 20
61.999966
 11
-22.468966
 21
65.171333
  0
LINE
  8
0
 10
-24.299988
 20
21.000000
 11
-22.468990
 21
17.828648
  0
LINE
  8
0
 10
-15.300003
 20
21.000000
 11
-14.800003
 21
21.000000
  0
LINE
  8
0
 10
-14.800003
 20
62.000000
 11
-14.800003
 21
21.000000
  0
LINE
  8
0
 10
-15.300004
 20
65.171356
 11
-15.300002
 21
17.828644
  0
LINE
  8
0
 10
-15.300003
 20
62.000000
 11
-14.800003
 21
62.000000
  0
LINE
  8
0
 10
-22.468994
 20
65.171356
 11
-15.300004
 21
65.171356
  0
LINE
  8
0
 10
-22.468994
 20
29.664318
 11
-15.300003
 21
29.664318
  0
LINE
  8
0
 10
-22.468994
 20
53.335678
 11
-15.300003
 21
53.335678
  0
LINE
  8
0
 10
-24.541351
 20
58.000000
 11
-24.299988
 21
58.000000
  0
LINE
  8
0
 10
-24.541351
 20
25.000000
 11
-24.299988
 21
25.000000
  0
LINE
  8
0
 10
-14.800003
 20
58.000000
 11
-11.800003
 21
58.000000
  0
LINE
  8
0
 10
-14.800003
 20
25.000000
 11
-11.800003
 21
25.000000
  0
LINE
  8
0
 10
-25.800007
 20
56.500023
 11
-24.541399
 21
58.000023
  0
LINE
  8
0
 10
-25.800007
 20
26.499996
 11
-24.541367
 21
24.999990
  0
LINE
  8
0
 10
-13.800003
 20
58.000000
 11
-13.800003
 21
25.000000
  0
LINE
  8
0
 10
-25.380432
 20
26.000000
 11
-24.299988
 21
26.000000
  0
LINE
  8
0
 10
-25.380463
 20
57.000000
 11
-24.299988
 21
57.000000
  0
LINE
  8
0
 10
-14.800003
 20
26.000000
 11
-13.800003
 21
26.000000
  0
LINE
  8
0
 10
-14.800003
 20
57.000000
 11
-13.800003
 21
57.000000
  0
LINE
  8
0
 10
-11.800019
 20
62.300003
 11
106.199982
 21
62.300007
  0
LINE
  8
0
 10
133.199997
 20
56.500004
 11
133.199997
 21
26.500004
  0
LINE
  8
0
 10
131.412277
 20
57.999947
 11
133.199890
 21
56.499947
  0
LINE
  8
0
 10
131.412445
 20
24.999975
 11
133.200104
 21
26.499968
  0
LINE
  8
0
 10
106.199997
 20
58.000004
 11
131.412369
 21
58.000004
  0
LINE
  8
0
 10
106.199997
 20
25.000004
 11
131.412369
 21
25.000004
  0
LINE
  8
0
 10
131.412369
 20
25.000004
 11
131.412369
 21
26.000004
  0
LINE
  8
0
 10
131.412369
 20
57.000004
 11
131.412369
 21
58.000004
  0
LINE
  8
0
 10
106.199997
 20
58.000004
 11
131.412369
 21
58.000004
  0
LINE
  8
0
 10
108.199997
 20
57.000004
 11
132.604111
 21
57.000004
  0
LINE
  8
0
 10
108.199997
 20
26.000004
 11
132.604111
 21
26.000004
  0
LINE
  8
0
 10
108.199997
 20
58.000004
 11
108.199997
 21
57.000004
  0
LINE
  8
0
 10
108.199997
 20
26.000004
 11
108.199997
 21
25.000004
  0
LINE
  8
0
 10
-11.800017
 20
20.700027
 11
-11.800019
 21
62.300034
  0
LINE
  8
0
 10
108.199982
 20
56.999981
 11
106.467941
 21
57.999985
  0
LINE
  8
0
 10
108.199959
 20
26.000015
 11
106.467911
 21
25.000013
  0
LINE
  8
0
 10
-11.800017
 20
20.700027
 11
-11.800019
 21
62.300034
  0
LINE
  8
0
 10
3.199983
 20
20.700024
 11
3.199981
 21
62.300034
  0
LINE
  8
0
 10
106.199982
 20
20.700001
 11
-11.800017
 21
20.699997
  0
LINE
  8
0
 10
121.200005
 20
63.000004
 11
121.200005
 21
20.000004
  0
LINE
  8
0
 10
-56.799988
 20
47.500000
 11
-33.799988
 21
47.500000
  0
LINE
  8
0
 10
-56.799988
 20
35.500000
 11
-33.799988
 21
35.500000
  0
LINE
  8
0
 10
-55.799988
 20
48.500000
 11
-55.799988
 21
34.500000
  0
LINE
  8
0
 10
-55.799988
 20
48.500000
 11
-56.799988
 21
47.500000
  0
LINE
  8
0
 10
-56.799988
 20
47.500000
 11
-56.799988
 21
35.500000
  0
LINE
  8
0
 10
-56.799980
 20
35.499992
 11
-55.799980
 21
34.499992
  0
LINE
  8
0
 10
-59.425003
 20
41.500000
 11
135.824997
 21
41.500004
  0
LINE
  8
0
 10
-3.800004
 20
65.171356
 11
-3.800002
 21
17.828644
  0
LINE
  8
0
 10
75.199982
 20
20.699980
 11
75.199982
 21
62.299980
  0
LINE
  8
0
 10
90.199997
 20
65.171356
 11
90.199997
 21
17.828646
  0
LINE
  8
0
 10
102.199997
 20
57.062778
 11
102.199997
 21
25.937229
  0
LINE
  8
0
 10
78.199997
 20
57.062775
 11
78.199997
 21
25.937227
  0
LINE
  8
0
 10
78.199997
 20
57.062775
 11
102.199997
 21
57.062778
  0
LINE
  8
0
 10
78.199997
 20
25.937227
 11
102.199997
 21
25.937229
  0
LINE
  8
0
 10
78.199997
 20
54.000000
 11
102.199997
 21
54.000004
  0
LINE
  8
0
 10
78.199997
 20
29.000002
 11
102.199997
 21
29.000004
  0
LINE
  8
0
 10
98.284904
 20
31.084938
 11
100.115036
 21
32.915070
  0
LINE
  8
0
 10
98.285126
 20
32.915092
 11
100.115242
 21
31.084970
  0
LINE
  8
0
 10
80.285065
 20
51.915119
 11
82.115181
 21
50.084995
  0
LINE
  8
0
 10
80.284836
 20
50.084976
 11
82.114967
 21
51.915108
  0
LINE
  8
0
 10
80.285065
 20
32.915051
 11
82.115189
 21
31.084930
  0
LINE
  8
0
 10
80.284828
 20
31.084908
 11
82.114960
 21
32.915039
  0
LINE
  8
0
 10
98.285049
 20
51.915016
 11
100.115173
 21
50.084888
  0
LINE
  8
0
 10
98.284836
 20
50.084858
 11
100.114967
 21
51.914989
  0
ARC
  8
0
 10
81.199997
 20
32.000004
 40
4.000000
 50
311.409637
 51
138.590408
  0
ARC
  8
0
 10
99.199997
 20
32.000004
 40
4.000000
 50
41.409630
 51
228.590378
  0
CIRCLE
  8
0
 10
121.200005
 20
41.500004
 40
5.000000
  0
ARC
  8
0
 10
99.199997
 20
51.000004
 40
3.999998
 50
131.409668
 51
308.682159
  0
ARC
  8
0
 10
81.199997
 20
51.000004
 40
4.000000
 50
221.409622
 51
48.590370
  0
CIRCLE
  8
0
 10
90.199997
 20
41.500004
 40
1.750000
  0
CIRCLE
  8
0
 10
81.199997
 20
50.999973
 40
2.750000
  0
CIRCLE
  8
0
 10
99.199997
 20
31.999966
 40
2.750000
  0
CIRCLE
  8
0
 10
99.200012
 20
50.999966
 40
2.750000
  0
CIRCLE
  8
0
 10
81.199997
 20
31.999973
 40
2.750000
  0
ARC
  8
0
 10
99.199997
 20
50.999966
 40
3.999998
 50
131.409668
 51
318.590363
  0
POLYLINE
  8
0
 66
     1
  0
VERTEX
  8
0
 10
-22.468994
 20
65.171356
  0
VERTEX
  8
0
 10
-22.912539
 20
64.399879
  0
VERTEX
  8
0
 10
-23.307156
 20
63.594280
  0
VERTEX
  8
0
 10
-23.645805
 20
62.760250
  0
VERTEX
  8
0
 10
-23.921453
 20
61.903473
  0
VERTEX
  8
0
 10
-24.127058
 20
61.029636
  0
VERTEX
  8
0
 10
-24.255583
 20
60.144424
  0
VERTEX
  8
0
 10
-24.299988
 20
59.253525
  0
VERTEX
  8
0
 10
-24.255583
 20
58.362625
  0
VERTEX
  8
0
 10
-24.127058
 20
57.477409
  0
VERTEX
  8
0
 10
-23.921453
 20
56.603569
  0
VERTEX
  8
0
 10
-23.645805
 20
55.746788
  0
VERTEX
  8
0
 10
-23.307156
 20
54.912754
  0
VERTEX
  8
0
 10
-22.912539
 20
54.107155
  0
VERTEX
  8
0
 10
-22.468994
 20
53.335678
  0
SEQEND
  0
POLYLINE
  8
0
 66
     1
  0
VERTEX
  8
0
 10
-22.468994
 20
29.664318
  0
VERTEX
  8
0
 10
-22.912539
 20
28.892841
  0
VERTEX
  8
0
 10
-23.307156
 20
28.087242
  0
VERTEX
  8
0
 10
-23.645805
 20
27.253212
  0
VERTEX
  8
0
 10
-23.921453
 20
26.396433
  0
VERTEX
  8
0
 10
-24.127058
 20
25.522593
  0
VERTEX
  8
0
 10
-24.255583
 20
24.637379
  0
VERTEX
  8
0
 10
-24.299988
 20
23.746479
  0
VERTEX
  8
0
 10
-24.255583
 20
22.855579
  0
VERTEX
  8
0
 10
-24.127058
 20
21.970367
  0
VERTEX
  8
0
 10
-23.921453
 20
21.096527
  0
VERTEX
  8
0
 10
-23.645805
 20
20.239750
  0
VERTEX
  8
0
 10
-23.307156
 20
19.405718
  0
VERTEX
  8
0
 10
-22.912539
 20
18.600121
  0
VERTEX
  8
0
 10
-22.468994
 20
17.828644
  0
SEQEND
  0
POLYLINE
  8
0
 66
     1
  0
VERTEX
  8
0
 10
-22.468994
 20
53.335678
  0
VERTEX
  8
0
 10
-22.752901
 20
52.378239
  0
VERTEX
  8
0
 10
-23.014341
 20
51.413269
  0
VERTEX
  8
0
 10
-23.252895
 20
50.441452
  0
VERTEX
  8
0
 10
-23.468136
 20
49.463474
  0
VERTEX
  8
0
 10
-23.659641
 20
48.480022
  0
VERTEX
  8
0
 10
-23.826986
 20
47.491776
  0
VERTEX
  8
0
 10
-23.969749
 20
46.499420
  0
VERTEX
  8
0
 10
-24.087505
 20
45.503647
  0
VERTEX
  8
0
 10
-24.179831
 20
44.505131
  0
VERTEX
  8
0
 10
-24.246302
 20
43.504562
  0
VERTEX
  8
0
 10
-24.286495
 20
42.502625
  0
VERTEX
  8
0
 10
-24.299988
 20
41.500000
  0
VERTEX
  8
0
 10
-24.286495
 20
40.497375
  0
VERTEX
  8
0
 10
-24.246302
 20
39.495438
  0
VERTEX
  8
0
 10
-24.179831
 20
38.494869
  0
VERTEX
  8
0
 10
-24.087505
 20
37.496353
  0
VERTEX
  8
0
 10
-23.969749
 20
36.500576
  0
VERTEX
  8
0
 10
-23.826986
 20
35.508221
  0
VERTEX
  8
0
 10
-23.659641
 20
34.519974
  0
VERTEX
  8
0
 10
-23.468136
 20
33.536522
  0
VERTEX
  8
0
 10
-23.252895
 20
32.558544
  0
VERTEX
  8
0
 10
-23.014341
 20
31.586727
  0
VERTEX
  8
0
 10
-22.752901
 20
30.621758
  0
VERTEX
  8
0
 10
-22.468994
 20
29.664318
  0
SEQEND
  0
POINT
  8
0
 10
-127.299995
 20
41.499996
  0
POINT
  8
0
 10
-106.800003
 20
41.499996
  0
LINE
  8
0
 10
-147.800003
 20
53.335655
 11
-147.800003
 21
29.664295
  0
LINE
  8
0
 10
-106.800011
 20
53.335701
 11
-106.799995
 21
29.664341
  0
LINE
  8
0
 10
-147.799866
 20
53.335533
 11
-127.299934
 21
65.171204
  0
LINE
  8
0
 10
-127.299942
 20
17.828615
 11
-106.799957
 21
29.664289
  0
LINE
  8
0
 10
-127.300049
 20
65.171356
 11
-106.800034
 21
53.335690
  0
LINE
  8
0
 10
-147.799911
 20
29.664276
 11
-127.299988
 21
17.828623
  0
LINE
  8
0
 10
-136.800003
 20
46.984818
 11
-136.800003
 21
36.015167
  0
LINE
  8
0
 10
-117.800003
 20
46.984837
 11
-117.800003
 21
36.015182
  0
LINE
  8
0
 10
-136.800003
 20
46.984802
 11
-127.300018
 21
52.469627
  0
LINE
  8
0
 10
-127.299973
 20
30.530331
 11
-117.799980
 21
36.015160
  0
LINE
  8
0
 10
-127.299973
 20
52.469654
 11
-117.799980
 21
46.984837
  0
LINE
  8
0
 10
-136.799988
 20
36.015179
 11
-127.299995
 21
30.530354
  0
LINE
  8
0
 10
-152.399994
 20
41.499985
 11
-98.800003
 21
41.500015
  0
LINE
  8
0
 10
-127.300018
 20
67.500000
 11
-127.299988
 21
15.206230
  0
LINE
  8
0
 10
-107.950851
 20
28.999866
 11
-104.199997
 21
28.999868
  0
LINE
  8
0
 10
-102.200020
 20
52.000183
 11
-102.200005
 21
30.999844
  0
LINE
  8
0
 10
-105.400002
 20
28.999878
 11
-105.400009
 21
35.122520
  0
LINE
  8
0
 10
-104.200012
 20
47.877525
 11
-104.200012
 21
35.122520
  0
LINE
  8
0
 10
-107.950928
 20
54.000156
 11
-104.200027
 21
54.000160
  0
LINE
  8
0
 10
-105.400017
 20
54.000168
 11
-105.400009
 21
47.877525
  0
LINE
  8
0
 10
-104.200027
 20
54.000191
 11
-102.200027
 21
52.000191
  0
LINE
  8
0
 10
-106.800003
 20
47.877514
 11
-102.200012
 21
47.877518
  0
LINE
  8
0
 10
-106.800003
 20
35.122509
 11
-102.200012
 21
35.122513
  0
LINE
  8
0
 10
-104.199898
 20
28.999783
 11
-102.199905
 21
30.999786
  0
CIRCLE
  8
0
 10
-127.300003
 20
41.500000
 40
15.500000
  0
CIRCLE
  8
0
 10
-127.300003
 20
41.500000
 40
9.500000
  0
CIRCLE
  8
0
 10
-127.300003
 20
41.500000
 40
6.000000
  0
CIRCLE
  8
0
 10
-127.300003
 20
41.500000
 40
7.000000
  0
CIRCLE
  8
0
 10
-127.300003
 20
41.500000
 40
20.500000
  0
CIRCLE
  8
0
 10
-127.300003
 20
41.500000
 40
16.500000
  0
POINT
  8
0
 10
-11.800009
 20
-54.660236
  0
POINT
  8
0
 10
133.199966
 20
-54.660236
  0
LINE
  8
0
 10
84.322495
 20
-31.160240
 11
96.077499
 21
-31.160240
  0
LINE
  8
0
 10
78.199860
 20
-33.860241
 11
78.199860
 21
-31.160244
  0
LINE
  8
0
 10
78.199860
 20
-32.360233
 11
84.322502
 21
-32.360237
  0
LINE
  8
0
 10
78.199837
 20
-31.160229
 11
80.199837
 21
-29.160229
  0
LINE
  8
0
 10
84.322502
 20
-33.860245
 11
84.322502
 21
-29.160246
  0
LINE
  8
0
 10
96.077507
 20
-33.860245
 11
96.077507
 21
-29.160246
  0
LINE
  8
0
 10
102.200150
 20
-31.160213
 11
100.200142
 21
-29.160213
  0
LINE
  8
0
 10
102.200150
 20
-33.860245
 11
102.200150
 21
-31.160250
  0
LINE
  8
0
 10
102.200150
 20
-32.360237
 11
96.077507
 21
-32.360237
  0
LINE
  8
0
 10
80.199844
 20
-29.160240
 11
100.200188
 21
-29.160240
  0
LINE
  8
0
 10
90.199997
 20
-46.660244
 11
90.199997
 21
-62.660248
  0
LINE
  8
0
 10
-3.800003
 20
-46.660236
 11
-3.800003
 21
-62.660236
  0
LINE
  8
0
 10
107.199982
 20
-44.660244
 11
133.199982
 21
-44.660244
  0
LINE
  8
0
 10
107.199982
 20
-64.660240
 11
133.199982
 21
-64.660240
  0
LINE
  8
0
  6
DASHED
 10
116.199982
 20
-44.660252
 11
116.199982
 21
-64.660248
  0
LINE
  8
0
  6
DASHED
 10
126.199974
 20
-44.660252
 11
126.199974
 21
-64.660248
  0
LINE
  8
0
 10
121.199974
 20
-40.660252
 11
121.199974
 21
-68.660263
  0
LINE
  8
0
 10
106.199982
 20
-75.460236
 11
106.199982
 21
-37.160248
  0
LINE
  8
0
 10
107.199982
 20
-71.160248
 11
107.199982
 21
-64.660248
  0
LINE
  8
0
 10
106.199982
 20
-68.660248
 11
106.199982
 21
-33.860260
  0
LINE
  8
0
 10
-59.800018
 20
-54.660233
 11
144.199982
 21
-54.660244
  0
LINE
  8
0
 10
107.199982
 20
-44.660252
 11
107.199982
 21
-38.160248
  0
LINE
  8
0
 10
75.199982
 20
-75.460236
 11
75.199982
 21
-33.860241
  0
LINE
  8
0
 10
-25.800018
 20
-70.160217
 11
-25.800018
 21
-39.160252
  0
LINE
  8
0
 10
-11.800019
 20
-75.460236
 11
-11.800017
 21
-33.860233
  0
LINE
  8
0
 10
-11.800016
 20
-33.860233
 11
106.199982
 21
-33.860237
  0
LINE
  8
0
 10
-33.800018
 20
-61.660252
 11
-33.800018
 21
-47.660236
  0
LINE
  8
0
 10
-13.800017
 20
-38.160252
 11
-13.800019
 21
-71.160217
  0
LINE
  8
0
 10
-56.800018
 20
-48.660229
 11
-56.800018
 21
-60.660229
  0
LINE
  8
0
 10
-56.799919
 20
-48.660400
 11
-55.799942
 21
-47.660397
  0
LINE
  8
0
 10
-55.800018
 20
-47.660229
 11
-55.800018
 21
-61.660244
  0
LINE
  8
0
 10
-56.800018
 20
-48.660233
 11
-33.800018
 21
-48.660236
  0
LINE
  8
0
 10
-25.800018
 20
-47.660221
 11
-55.800018
 21
-47.660217
  0
LINE
  8
0
 10
3.199981
 20
-75.460236
 11
3.199983
 21
-33.860233
  0
LINE
  8
0
 10
-25.800018
 20
-39.160252
 11
-24.299999
 21
-39.160252
  0
LINE
  8
0
 10
-11.800016
 20
-38.160252
 11
-14.800013
 21
-38.160252
  0
LINE
  8
0
 10
-25.799995
 20
-39.160316
 11
-24.800011
 21
-38.160316
  0
LINE
  8
0
 10
-24.800034
 20
-38.160252
 11
-24.800034
 21
-71.160217
  0
LINE
  8
0
 10
106.199982
 20
-38.160240
 11
107.199982
 21
-38.160240
  0
LINE
  8
0
 10
-55.799988
 20
-61.660187
 11
-56.799988
 21
-60.660179
  0
LINE
  8
0
 10
-33.800018
 20
-60.660236
 11
-56.800018
 21
-60.660233
  0
LINE
  8
0
 10
-55.800018
 20
-61.660248
 11
-25.800018
 21
-61.660252
  0
LINE
  8
0
 10
-13.800020
 20
-70.160217
 11
-14.800016
 21
-70.160217
  0
LINE
  8
0
 10
-24.800034
 20
-71.160217
 11
-24.299999
 21
-71.160217
  0
LINE
  8
0
 10
-24.800051
 20
-71.160225
 11
-25.800032
 21
-70.160233
  0
LINE
  8
0
 10
107.199982
 20
-71.160240
 11
106.199982
 21
-71.160240
  0
LINE
  8
0
 10
133.199982
 20
-44.660252
 11
133.199982
 21
-64.660248
  0
LINE
  8
0
 10
106.199982
 20
-75.460243
 11
-11.800020
 21
-75.460236
  0
LINE
  8
0
 10
-22.469006
 20
-30.988880
 11
-14.800013
 21
-30.988880
  0
LINE
  8
0
 10
-14.800014
 20
-30.988880
 11
-14.800015
 21
-78.331589
  0
LINE
  8
0
 10
-24.299982
 20
-34.160297
 11
-22.468990
 21
-30.988924
  0
LINE
  8
0
 10
-24.299999
 20
-34.160236
 11
-24.299999
 21
-75.160233
  0
LINE
  8
0
 10
-24.300003
 20
-75.160225
 11
-22.469009
 21
-78.331573
  0
LINE
  8
0
 10
-24.299999
 20
-38.160252
 11
-24.800034
 21
-38.160252
  0
LINE
  8
0
 10
-14.800013
 20
-39.160252
 11
-13.800016
 21
-39.160252
  0
LINE
  8
0
 10
-24.299999
 20
-70.160217
 11
-25.800018
 21
-70.160217
  0
LINE
  8
0
 10
-14.800016
 20
-71.160217
 11
-11.800020
 21
-71.160217
  0
LINE
  8
0
 10
-22.469006
 20
-78.331589
 11
-14.800016
 21
-78.331589
  0
CIRCLE
  8
0
 10
-3.800003
 20
-54.660236
 40
5.000000
  0
ARC
  8
0
 10
14.869877
 20
-42.824726
 40
39.169880
 50
162.412216
 51
197.587738
  0
ARC
  8
0
 10
14.869877
 20
-66.496384
 40
39.169880
 50
162.412186
 51
197.587708
  0
CIRCLE
  8
0
 10
-3.800003
 20
-54.660236
 40
4.000000
  0
CIRCLE
  8
0
 10
90.199997
 20
-54.660244
 40
5.000000
  0
CIRCLE
  8
0
 10
90.199997
 20
-54.660244
 40
4.000000
  0
ENDSEC
  0
EOF
