  0
SECTION
  2
HEADER
  0
ENDSEC
  0
SECTION
  2
TABLES
  0
TABLE
  2
LTYPE
 70
     4
  0
LTYPE
  2
CONTINUOUS
 70
    64
  3
Solid line
 72
    65
 73
     0
 40
0.000000
  0
LTYPE
  2
DASHED
 70
    64
  3
__ __ __ __ __ __ __ __ __ __ __ __ __ __ __
 72
    65
 73
     2
 40
3.500000
 49
2.000000
 49
-1.500000
  0
LTYPE
  2
CENTER
 70
    64
  3
____ _ ____ _ ____ _ ____ _ ____ _ ____ _ ____
 72
    65
 73
     4
 40
17.500000
 49
13.000000
 49
-1.500000
 49
1.500000
 49
-1.500000
  0
LTYPE
  2
PHANTOM
 70
    64
  3
_____ _ _ _____ _ _ _____ _ _ _____ _ _ ____  
 72
    65
 73
     6
 40
15.500000
 49
8.000000
 49
-1.500000
 49
1.500000
 49
-1.500000
 49
1.500000
 49
-1.500000
  0
LTYPE
  2
DASHED1
 70
    64
  3
__ __ __ __ __ __ __ __ __ __ __ __ __ __ __
 72
    65
 73
     2
 40
1.500000
 49
1.000000
 49
-0.500000
  0
LTYPE
  2
DASHED2
 70
    64
  3
__ __ __ __ __ __ __ __ __ __ __ __ __ __ __
 72
    65
 73
     2
 40
3.500000
 49
2.500000
 49
-1.000000
  0
LTYPE
  2
DASHED3
 70
    64
  3
__ __ __ __ __ __ __ __ __ __ __ __ __ __ __
 72
    65
 73
     2
 40
6.000000
 49
4.000000
 49
-2.000000
  0
LTYPE
  2
DASHED4
 70
    64
  3
__ __ __ __ __ __ __ __ __ __ __ __ __ __ __
 72
    65
 73
     2
 40
12.000000
 49
10.000000
 49
-2.000000
  0
LTYPE
  2
DASHED5
 70
    64
  3
__ __ __ __ __ __ __ __ __ __ __ __ __ __ __
 72
    65
 73
     2
 40
17.000000
 49
15.000000
 49
-2.000000
  0
LTYPE
  2
DASHED6
 70
    64
  3
__ __ __ __ __ __ __ __ __ __ __ __ __ __ __
 72
    65
 73
     2
 40
29.000000
 49
27.000000
 49
-2.000000
  0
LTYPE
  2
PHANTOM1
 70
    64
  3
_____ _ _ _____ _ _ _____ _ _ _____ _ _ ____  
 72
    65
 73
     6
 40
31.000000
 49
25.000000
 49
-1.500000
 49
1.000000
 49
-1.000000
 49
1.000000
 49
-1.500000
  0
LTYPE
  2
PHANTOM2
 70
    64
  3
_____ _ _ _____ _ _ _____ _ _ _____ _ _ ____  
 72
    65
 73
     6
 40
36.000000
 49
27.000000
 49
-1.500000
 49
2.500000
 49
-1.000000
 49
2.500000
 49
-1.500000
  0
LTYPE
  2
PHANTOM3
 70
    64
  3
_____ _ _ _____ _ _ _____ _ _ _____ _ _ ____  
 72
    65
 73
     6
 40
78.000000
 49
64.000000
 49
-2.000000
 49
4.000000
 49
-2.000000
 49
4.000000
 49
-2.000000
  0
LTYPE
  2
CENTER1
 70
    64
  3
____ _ ____ _ ____ _ ____ _ ____ _ ____ _ ____
 72
    65
 73
     4
 40
19.000000
 49
14.000000
 49
-1.000000
 49
3.000000
 49
-1.000000
  0
LTYPE
  2
CENTER2
 70
    64
  3
____ _ ____ _ ____ _ ____ _ ____ _ ____ _ ____
 72
    65
 73
     4
 40
28.500000
 49
25.000000
 49
-1.000000
 49
1.500000
 49
-1.000000
  0
LTYPE
  2
CENTER3
 70
    64
  3
____ _ ____ _ ____ _ ____ _ ____ _ ____ _ ____
 72
    65
 73
     4
 40
31.500000
 49
27.000000
 49
-1.000000
 49
2.500000
 49
-1.000000
  0
LTYPE
  2
CENTER4
 70
    64
  3
____ _ ____ _ ____ _ ____ _ ____ _ ____ _ ____
 72
    65
 73
     4
 40
50.000000
 49
45.000000
 49
-1.000000
 49
3.000000
 49
-1.000000
  0
LTYPE
  2
CENTER5
 70
    64
  3
____ _ ____ _ ____ _ ____ _ ____ _ ____ _ ____
 72
    65
 73
     4
 40
100.000000
 49
92.000000
 49
-2.000000
 49
4.000000
 49
-2.000000
  0
LTYPE
  2
SBK1
 70
    64
  3
______ _ _ _ ______ _ _ _ ______ _ _ _ _____  
 72
    65
 73
     8
 40
60.500000
 49
45.000000
 49
-2.000000
 49
2.500000
 49
-2.000000
 49
2.500000
 49
-2.000000
 49
2.500000
 49
-2.000000
  0
LTYPE
  2
SBK2
 70
    64
  3
______ _ _ _ ______ _ _ _ ______ _ _ _ _____  
 72
    65
 73
     8
 40
84.000000
 49
64.000000
 49
-2.000000
 49
4.000000
 49
-2.000000
 49
4.000000
 49
-2.000000
 49
4.000000
 49
-2.000000
  0
LTYPE
  2
STCH
 70
    64
  3
__ __ __ __ __ __ __ __ __ __ __ __ __ __ __
 72
    65
 73
     2
 40
3.000000
 49
1.000000
 49
-2.000000
  0
LTYPE
  2
MTCH
 70
    64
  3
_____ _ _ _____ _ _ _____ _ _ _____ _ _ ____  
 72
    65
 73
     6
 40
80.000000
 49
66.000000
 49
-2.000000
 49
4.000000
 49
-2.000000
 49
4.000000
 49
-2.000000
  0
ENDTAB
  0
TABLE
  2
LAYER
 70
     1
  0
LAYER
  2
0
 70
     0
 62
     7
  6
CONTINUOUS
  0
ENDTAB
  0
TABLE
  2
STYLE
 70
     1
  0
STYLE
  2
STANDARD
 70
     0
 40
0.000000
 41
1.000000
 50
0.000000
 71
     0
 42
0.200000
  3
txt
  4
BIGFONT
  0
ENDTAB
  0
TABLE
  2
VIEW
 70
     0
  0
ENDTAB
  0
ENDSEC
  0
SECTION
  2
BLOCKS
  0
ENDSEC
  0
SECTION
  2
ENTITIES
  0
LINE
  8
0
 10
-185.436783
 20
-127.279236
 11
-185.436783
 21
127.279236
  0
LINE
  8
0
 10
185.436783
 20
127.279236
 11
185.436783
 21
-127.279236
  0
LINE
  8
0
 10
-185.436783
 20
-127.279236
 11
185.436783
 21
-127.279236
  0
LINE
  8
0
 10
-185.436783
 20
127.279236
 11
185.436783
 21
127.279236
  0
LINE
  8
0
 10
-185.436783
 20
112.978195
 11
-109.164589
 21
112.978195
  0
LINE
  8
0
 10
-109.164589
 20
112.978195
 11
-109.164589
 21
127.279236
  0
LINE
  8
0
 10
109.164581
 20
-112.978210
 11
185.436783
 21
-112.978210
  0
LINE
  8
0
 10
109.164581
 20
112.978195
 11
185.436783
 21
112.978195
  0
LINE
  8
0
 10
109.164581
 20
127.279236
 11
109.164581
 21
112.978195
  0
LINE
  8
0
 10
109.164581
 20
-112.978210
 11
109.164581
 21
-127.279236
  0
TEXT
  8
0
 10
113.360985
 20
117.310349
 40
4.242641
  1
DATE : AUG ,1992
 50
0.000000
 41
1.052631
 51
0.000000
  7
STANDARD
  0
TEXT
  8
0
 10
-180.264954
 20
116.628723
 40
5.000000
  1
SLIM CYLINDER
 50
0.000000
 41
1.052632
 51
0.000000
  7
STANDARD
  0
TEXT
  8
0
 10
114.336403
 20
-123.628723
 40
5.000000
  1
KOGANEI CORP.
 50
0.000000
 41
1.052632
 51
0.000000
  7
STANDARD
  0
TEXT
  8
0
 10
-162.655182
 20
81.983665
 40
5.000000
  1
MODEL : DAK32X25-RL
 50
0.000000
 41
1.052632
 51
0.000000
  7
STANDARD
  0
POINT
  8
0
 10
-16.699497
 20
35.000004
  0
POINT
  8
0
 10
123.300476
 20
35.000004
  0
LINE
  8
0
 10
-19.911867
 20
53.000000
 11
-19.411867
 21
53.000000
  0
LINE
  8
0
 10
-19.911863
 20
17.000000
 11
-19.411863
 21
17.000000
  0
LINE
  8
0
 10
-27.304167
 20
14.215389
 11
-19.911863
 21
14.215391
  0
LINE
  8
0
 10
-28.911867
 20
53.000000
 11
-28.911863
 21
16.999996
  0
LINE
  8
0
 10
-28.911961
 20
53.000114
 11
-27.304264
 21
55.784721
  0
LINE
  8
0
 10
-28.911873
 20
17.000006
 11
-27.304173
 21
14.215395
  0
LINE
  8
0
 10
-27.304169
 20
45.392303
 11
-19.911867
 21
45.392303
  0
LINE
  8
0
 10
-27.304169
 20
24.607697
 11
-19.911863
 21
24.607697
  0
LINE
  8
0
 10
-27.304171
 20
55.784607
 11
-19.911867
 21
55.784607
  0
LINE
  8
0
 10
-60.699493
 20
39.999996
 11
-36.699493
 21
39.999996
  0
LINE
  8
0
 10
-60.699493
 20
29.999996
 11
-36.699493
 21
29.999998
  0
LINE
  8
0
 10
-60.699493
 20
39.999996
 11
-60.699493
 21
29.999996
  0
LINE
  8
0
 10
-38.699493
 20
39.999996
 11
-38.699493
 21
29.999998
  0
LINE
  8
0
 10
-36.699493
 20
39.999996
 11
-36.699493
 21
29.999998
  0
LINE
  8
0
 10
-35.699493
 20
41.000000
 11
-30.699493
 21
41.000000
  0
LINE
  8
0
 10
-35.699493
 20
28.999998
 11
-30.699493
 21
28.999998
  0
LINE
  8
0
 10
-36.699425
 20
39.999893
 11
-35.699425
 21
40.999889
  0
LINE
  8
0
 10
-36.699463
 20
29.999981
 11
-35.699478
 21
28.999985
  0
LINE
  8
0
 10
-31.699493
 20
38.316624
 11
-31.699493
 21
31.683374
  0
LINE
  8
0
 10
-60.699493
 20
39.999996
 11
-60.699493
 21
29.999996
  0
LINE
  8
0
 10
-30.699493
 20
47.500000
 11
-30.699493
 21
22.499998
  0
LINE
  8
0
 10
-28.911867
 20
48.500000
 11
-28.911863
 21
21.500000
  0
LINE
  8
0
 10
-16.699495
 20
52.500000
 11
9.300505
 21
52.500000
  0
LINE
  8
0
 10
-16.699492
 20
17.500000
 11
9.300508
 21
17.500002
  0
LINE
  8
0
 10
9.300505
 20
51.800003
 11
80.300507
 21
51.800014
  0
LINE
  8
0
 10
9.300508
 20
18.200003
 11
80.300507
 21
18.200012
  0
LINE
  8
0
 10
80.300507
 20
52.500011
 11
80.300507
 21
17.500011
  0
LINE
  8
0
 10
96.300507
 20
52.500011
 11
96.300507
 21
17.500011
  0
LINE
  8
0
 10
80.300507
 20
52.500011
 11
96.300507
 21
52.500011
  0
LINE
  8
0
 10
80.300507
 20
17.500011
 11
96.300507
 21
17.500011
  0
LINE
  8
0
 10
96.300507
 20
48.500011
 11
122.041855
 21
48.500015
  0
LINE
  8
0
 10
96.300507
 20
21.500011
 11
122.041855
 21
21.500015
  0
LINE
  8
0
 10
123.300507
 20
47.000015
 11
123.300507
 21
23.000011
  0
LINE
  8
0
 10
111.300507
 20
55.784622
 11
111.300507
 21
14.215405
  0
LINE
  8
0
 10
122.041855
 20
48.499966
 11
123.300491
 21
46.999969
  0
LINE
  8
0
 10
122.041931
 20
21.500000
 11
123.300583
 21
23.000002
  0
LINE
  8
0
 10
122.041855
 20
48.500015
 11
122.041855
 21
47.500015
  0
LINE
  8
0
 10
122.041855
 20
22.500015
 11
122.041855
 21
21.500015
  0
LINE
  8
0
 10
98.300507
 20
48.500011
 11
98.300507
 21
47.500011
  0
LINE
  8
0
 10
98.300507
 20
22.500011
 11
98.300507
 21
21.500011
  0
LINE
  8
0
 10
98.300507
 20
47.500011
 11
122.880951
 21
47.500015
  0
LINE
  8
0
 10
98.300507
 20
22.500011
 11
122.880966
 21
22.500015
  0
LINE
  8
0
 10
96.568405
 20
48.499939
 11
98.300461
 21
47.499939
  0
LINE
  8
0
 10
96.568466
 20
21.500044
 11
98.300537
 21
22.500038
  0
LINE
  8
0
 10
-64.430443
 20
34.999996
 11
128.833344
 21
35.000015
  0
LINE
  8
0
 10
-19.911867
 20
55.784607
 11
-19.911863
 21
14.215391
  0
LINE
  8
0
 10
-19.411867
 20
53.000000
 11
-19.411863
 21
17.000000
  0
LINE
  8
0
 10
-16.699495
 20
52.500000
 11
-16.699492
 21
17.500000
  0
LINE
  8
0
 10
-35.699955
 20
41.000000
 11
-35.699955
 21
28.999998
  0
LINE
  8
0
 10
-16.699492
 20
21.500000
 11
-19.411863
 21
21.500000
  0
LINE
  8
0
 10
-29.699495
 20
48.500000
 11
-28.911867
 21
48.500000
  0
LINE
  8
0
 10
-18.699492
 20
21.500000
 11
-18.699495
 21
48.500000
  0
LINE
  8
0
 10
-61.699493
 20
30.999996
 11
-38.699493
 21
30.999998
  0
LINE
  8
0
 10
-61.699493
 20
38.999996
 11
-38.699493
 21
38.999996
  0
LINE
  8
0
 10
-60.699474
 20
30.000000
 11
-61.699474
 21
31.000000
  0
LINE
  8
0
 10
-61.699493
 20
30.999996
 11
-61.699493
 21
38.999996
  0
LINE
  8
0
 10
-61.699474
 20
38.999977
 11
-60.699478
 21
39.999973
  0
LINE
  8
0
 10
-35.699501
 20
38.316620
 11
-31.699493
 21
38.316624
  0
LINE
  8
0
 10
-35.699493
 20
31.683374
 11
-31.699493
 21
31.683374
  0
LINE
  8
0
 10
-35.699490
 20
38.316616
 11
-31.699486
 21
31.683372
  0
LINE
  8
0
 10
-31.699455
 20
38.316605
 11
-35.699459
 21
31.683355
  0
LINE
  8
0
 10
9.300505
 20
52.500000
 11
9.300508
 21
17.500002
  0
LINE
  8
0
 10
-14.699495
 20
52.500000
 11
-14.699492
 21
17.500000
  0
LINE
  8
0
 10
-14.699495
 20
47.500000
 11
9.300505
 21
47.500004
  0
LINE
  8
0
 10
-14.699492
 20
22.500000
 11
9.300508
 21
22.500004
  0
LINE
  8
0
 10
-29.699488
 20
48.499992
 11
-30.699486
 21
47.499992
  0
LINE
  8
0
 10
-30.699486
 20
22.500002
 11
-29.699486
 21
21.500002
  0
LINE
  8
0
 10
-28.911863
 20
21.500000
 11
-29.699492
 21
21.500000
  0
LINE
  8
0
 10
-19.411867
 20
48.500000
 11
-16.699495
 21
48.500000
  0
LINE
  8
0
 10
-30.699493
 20
47.500000
 11
-28.911865
 21
47.500000
  0
LINE
  8
0
 10
-19.411867
 20
47.500000
 11
-18.699495
 21
47.500000
  0
LINE
  8
0
 10
-30.699493
 20
22.499998
 11
-28.911865
 21
22.500000
  0
LINE
  8
0
 10
-19.411863
 20
22.500000
 11
-18.699492
 21
22.500000
  0
LINE
  8
0
 10
-29.699495
 20
48.500000
 11
-29.699492
 21
21.500000
  0
LINE
  8
0
 10
-2.699495
 20
55.784607
 11
-2.699492
 21
14.215393
  0
LINE
  8
0
 10
88.300507
 20
55.784618
 11
88.300507
 21
14.215403
  0
LINE
  8
0
 10
5.385328
 20
43.584877
 11
7.215456
 21
45.415009
  0
LINE
  8
0
 10
5.385548
 20
45.415016
 11
7.215685
 21
43.584881
  0
LINE
  8
0
 10
5.385609
 20
26.415085
 11
7.215744
 21
24.584953
  0
LINE
  8
0
 10
5.385393
 20
24.584946
 11
7.215527
 21
26.415079
  0
LINE
  8
0
 10
-12.614458
 20
26.415051
 11
-10.784322
 21
24.584915
  0
LINE
  8
0
 10
-12.614673
 20
24.584915
 11
-10.784538
 21
26.415049
  0
LINE
  8
0
 10
-12.614460
 20
45.415123
 11
-10.784323
 21
43.584991
  0
LINE
  8
0
 10
-12.614676
 20
43.584988
 11
-10.784542
 21
45.415123
  0
ARC
  8
0
 10
-11.699494
 20
44.500000
 40
4.000000
 50
221.409622
 51
48.590382
  0
CIRCLE
  8
0
 10
111.300507
 20
35.000015
 40
5.000000
  0
CIRCLE
  8
0
 10
-2.699493
 20
35.000000
 40
1.750000
  0
CIRCLE
  8
0
 10
-11.699494
 20
44.499969
 40
2.750000
  0
CIRCLE
  8
0
 10
6.300508
 20
25.499966
 40
2.750000
  0
CIRCLE
  8
0
 10
6.300520
 20
44.499966
 40
2.750000
  0
CIRCLE
  8
0
 10
-11.699492
 20
25.499969
 40
2.750000
  0
ARC
  8
0
 10
6.300505
 20
44.499966
 40
3.999998
 50
131.409668
 51
318.590393
  0
ARC
  8
0
 10
-11.699492
 20
25.500000
 40
4.000000
 50
311.409637
 51
138.590378
  0
ARC
  8
0
 10
6.300508
 20
25.500004
 40
3.999999
 50
41.409649
 51
228.590347
  0
ARC
  8
0
 10
6.300505
 20
44.500004
 40
3.999998
 50
131.409668
 51
308.682190
  0
POLYLINE
  8
0
 66
     1
  0
VERTEX
  8
0
 10
-27.304171
 20
55.784607
  0
VERTEX
  8
0
 10
-27.754522
 20
54.991264
  0
VERTEX
  8
0
 10
-28.144997
 20
54.158279
  0
VERTEX
  8
0
 10
-28.465782
 20
53.293575
  0
VERTEX
  8
0
 10
-28.707066
 20
52.405083
  0
VERTEX
  8
0
 10
-28.859032
 20
51.500732
  0
VERTEX
  8
0
 10
-28.911867
 20
50.588455
  0
VERTEX
  8
0
 10
-28.859032
 20
49.676178
  0
VERTEX
  8
0
 10
-28.707066
 20
48.771828
  0
VERTEX
  8
0
 10
-28.465782
 20
47.883335
  0
VERTEX
  8
0
 10
-28.144997
 20
47.018631
  0
VERTEX
  8
0
 10
-27.754520
 20
46.185646
  0
VERTEX
  8
0
 10
-27.304169
 20
45.392303
  0
SEQEND
  0
POLYLINE
  8
0
 66
     1
  0
VERTEX
  8
0
 10
-27.304169
 20
24.607697
  0
VERTEX
  8
0
 10
-27.754520
 20
23.814354
  0
VERTEX
  8
0
 10
-28.144995
 20
22.981367
  0
VERTEX
  8
0
 10
-28.465780
 20
22.116663
  0
VERTEX
  8
0
 10
-28.707062
 20
21.228170
  0
VERTEX
  8
0
 10
-28.859028
 20
20.323820
  0
VERTEX
  8
0
 10
-28.911863
 20
19.411541
  0
VERTEX
  8
0
 10
-28.859028
 20
18.499262
  0
VERTEX
  8
0
 10
-28.707062
 20
17.594913
  0
VERTEX
  8
0
 10
-28.465778
 20
16.706421
  0
VERTEX
  8
0
 10
-28.144995
 20
15.841718
  0
VERTEX
  8
0
 10
-27.754519
 20
15.008731
  0
VERTEX
  8
0
 10
-27.304167
 20
14.215389
  0
SEQEND
  0
POLYLINE
  8
0
 66
     1
  0
VERTEX
  8
0
 10
-27.304169
 20
45.392303
  0
VERTEX
  8
0
 10
-27.575142
 20
44.474861
  0
VERTEX
  8
0
 10
-27.822599
 20
43.549618
  0
VERTEX
  8
0
 10
-28.046059
 20
42.617348
  0
VERTEX
  8
0
 10
-28.245039
 20
41.678837
  0
VERTEX
  8
0
 10
-28.419054
 20
40.734863
  0
VERTEX
  8
0
 10
-28.567623
 20
39.786205
  0
VERTEX
  8
0
 10
-28.690262
 20
38.833649
  0
VERTEX
  8
0
 10
-28.786489
 20
37.877968
  0
VERTEX
  8
0
 10
-28.855822
 20
36.919945
  0
VERTEX
  8
0
 10
-28.897774
 20
35.960361
  0
VERTEX
  8
0
 10
-28.911865
 20
35.000000
  0
VERTEX
  8
0
 10
-28.897774
 20
34.039639
  0
VERTEX
  8
0
 10
-28.855820
 20
33.080055
  0
VERTEX
  8
0
 10
-28.786489
 20
32.122032
  0
VERTEX
  8
0
 10
-28.690262
 20
31.166351
  0
VERTEX
  8
0
 10
-28.567623
 20
30.213793
  0
VERTEX
  8
0
 10
-28.419054
 20
29.265137
  0
VERTEX
  8
0
 10
-28.245039
 20
28.321161
  0
VERTEX
  8
0
 10
-28.046059
 20
27.382650
  0
VERTEX
  8
0
 10
-27.822599
 20
26.450382
  0
VERTEX
  8
0
 10
-27.575142
 20
25.525137
  0
VERTEX
  8
0
 10
-27.304169
 20
24.607697
  0
SEQEND
  0
POINT
  8
0
 10
-106.699493
 20
35.000000
  0
POINT
  8
0
 10
-124.699463
 20
35.000000
  0
LINE
  8
0
 10
-142.699493
 20
45.392303
 11
-142.699493
 21
24.607697
  0
LINE
  8
0
 10
-106.699493
 20
45.392303
 11
-106.699493
 21
24.607697
  0
LINE
  8
0
 10
-142.699493
 20
45.392303
 11
-124.699501
 21
55.784603
  0
LINE
  8
0
 10
-124.699478
 20
14.215462
 11
-106.699501
 21
24.607773
  0
LINE
  8
0
 10
-124.699455
 20
55.784584
 11
-106.699509
 21
45.392307
  0
LINE
  8
0
 10
-142.699524
 20
24.607767
 11
-124.699547
 21
14.215462
  0
LINE
  8
0
 10
-131.699493
 20
39.041451
 11
-131.699493
 21
30.958549
  0
LINE
  8
0
 10
-117.699493
 20
39.041451
 11
-117.699493
 21
30.958549
  0
LINE
  8
0
 10
-131.699493
 20
39.041473
 11
-124.699493
 21
43.082916
  0
LINE
  8
0
 10
-124.699509
 20
26.917156
 11
-117.699516
 21
30.958611
  0
LINE
  8
0
 10
-124.699524
 20
43.082909
 11
-117.699554
 21
39.041477
  0
LINE
  8
0
 10
-131.699493
 20
30.958540
 11
-124.699509
 21
26.917105
  0
LINE
  8
0
 10
-145.375000
 20
35.000000
 11
-100.015015
 21
35.000000
  0
LINE
  8
0
 10
-124.699493
 20
58.875000
 11
-124.699493
 21
4.359045
  0
LINE
  8
0
 10
-104.199493
 20
41.377502
 11
-104.199493
 21
28.622498
  0
LINE
  8
0
 10
-102.199493
 20
45.500145
 11
-102.199493
 21
24.499863
  0
LINE
  8
0
 10
-110.350372
 20
47.500145
 11
-104.199493
 21
47.500145
  0
LINE
  8
0
 10
-104.199486
 20
47.500149
 11
-102.199486
 21
45.500149
  0
LINE
  8
0
 10
-106.699493
 20
41.377502
 11
-102.199493
 21
41.377502
  0
LINE
  8
0
 10
-106.699493
 20
28.622498
 11
-102.199493
 21
28.622498
  0
LINE
  8
0
 10
-104.199402
 20
22.499754
 11
-102.199402
 21
24.499758
  0
LINE
  8
0
 10
-110.350372
 20
22.499855
 11
-104.199493
 21
22.499855
  0
LINE
  8
0
 10
-108.199493
 20
22.499855
 11
-108.199493
 21
23.741665
  0
LINE
  8
0
 10
-108.199493
 20
47.500145
 11
-108.199493
 21
46.258335
  0
LINE
  8
0
 10
-105.399490
 20
47.500145
 11
-105.399490
 21
41.377502
  0
LINE
  8
0
 10
-105.399490
 20
22.499855
 11
-105.399490
 21
28.622498
  0
CIRCLE
  8
0
 10
-124.699493
 20
35.000000
 40
4.000000
  0
CIRCLE
  8
0
 10
-124.699493
 20
35.000000
 40
7.000000
  0
CIRCLE
  8
0
 10
-124.699493
 20
35.000000
 40
12.500000
  0
CIRCLE
  8
0
 10
-124.699493
 20
35.000000
 40
13.500000
  0
CIRCLE
  8
0
 10
-124.699493
 20
35.000000
 40
18.000000
  0
CIRCLE
  8
0
 10
-124.699493
 20
35.000000
 40
5.000000
  0
POINT
  8
0
 10
-16.699495
 20
-50.039490
  0
POINT
  8
0
 10
123.300491
 20
-50.039490
  0
LINE
  8
0
 10
-8.576852
 20
-29.539492
 11
3.177925
 21
-29.539492
  0
LINE
  8
0
 10
-12.699492
 20
-27.539494
 11
7.300560
 21
-27.539494
  0
LINE
  8
0
 10
-14.699492
 20
-32.539482
 11
-14.699492
 21
-29.539497
  0
LINE
  8
0
 10
-14.699499
 20
-29.539490
 11
-12.699496
 21
-27.539488
  0
LINE
  8
0
 10
-8.576849
 20
-32.539482
 11
-8.576849
 21
-27.539497
  0
LINE
  8
0
 10
3.177927
 20
-32.539482
 11
3.177927
 21
-27.539497
  0
LINE
  8
0
 10
9.300669
 20
-29.539406
 11
7.300661
 21
-27.539404
  0
LINE
  8
0
 10
111.300507
 20
-37.039497
 11
111.300507
 21
-63.039497
  0
LINE
  8
0
  6
DASHED
 10
106.300507
 20
-40.039497
 11
106.300507
 21
-60.039497
  0
LINE
  8
0
  6
DASHED
 10
116.300507
 20
-40.039497
 11
116.300507
 21
-60.039497
  0
LINE
  8
0
 10
-2.699493
 20
-42.039497
 11
-2.699493
 21
-58.039497
  0
LINE
  8
0
 10
96.300507
 20
-67.539497
 11
96.300507
 21
-32.539497
  0
LINE
  8
0
 10
123.300507
 20
-60.039497
 11
123.300507
 21
-40.039497
  0
LINE
  8
0
 10
97.300507
 20
-64.039497
 11
97.300507
 21
-60.039497
  0
LINE
  8
0
 10
96.300507
 20
-64.039497
 11
96.300507
 21
-36.039497
  0
LINE
  8
0
 10
96.300507
 20
-36.039497
 11
97.300507
 21
-36.039497
  0
LINE
  8
0
 10
97.300507
 20
-64.039497
 11
96.300507
 21
-64.039497
  0
LINE
  8
0
 10
-64.699493
 20
-50.039497
 11
128.833344
 21
-50.039497
  0
LINE
  8
0
 10
88.300507
 20
-42.039497
 11
88.300507
 21
-58.039497
  0
LINE
  8
0
 10
97.300507
 20
-40.039497
 11
97.300507
 21
-36.039497
  0
LINE
  8
0
 10
97.300507
 20
-40.039497
 11
123.300507
 21
-40.039497
  0
LINE
  8
0
 10
97.300507
 20
-60.039497
 11
123.300507
 21
-60.039497
  0
LINE
  8
0
 10
-30.699493
 20
-62.539513
 11
-30.699493
 21
-37.539482
  0
LINE
  8
0
 10
-16.699493
 20
-67.539482
 11
-16.699493
 21
-32.539482
  0
LINE
  8
0
 10
9.300507
 20
-29.539249
 11
9.300507
 21
-67.539482
  0
LINE
  8
0
 10
-16.699493
 20
-32.539482
 11
9.300507
 21
-32.539482
  0
LINE
  8
0
 10
-16.699493
 20
-67.539482
 11
9.300507
 21
-67.539482
  0
LINE
  8
0
 10
-38.699493
 20
-55.039528
 11
-38.699493
 21
-45.039482
  0
LINE
  8
0
 10
-18.699493
 20
-36.539482
 11
-18.699493
 21
-63.539513
  0
LINE
  8
0
 10
-61.699493
 20
-46.039482
 11
-61.699493
 21
-54.039513
  0
LINE
  8
0
 10
-61.699341
 20
-46.039703
 11
-60.699348
 21
-45.039696
  0
LINE
  8
0
 10
-60.699493
 20
-45.039482
 11
-60.699493
 21
-55.039528
  0
LINE
  8
0
 10
-61.699493
 20
-46.039482
 11
-38.699493
 21
-46.039482
  0
LINE
  8
0
 10
-30.699493
 20
-45.039467
 11
-60.699493
 21
-45.039467
  0
LINE
  8
0
 10
80.300507
 20
-32.539497
 11
80.300507
 21
-67.539497
  0
LINE
  8
0
 10
96.300507
 20
-32.539497
 11
80.300507
 21
-32.539497
  0
LINE
  8
0
 10
96.300507
 20
-67.539497
 11
80.300507
 21
-67.539497
  0
LINE
  8
0
 10
9.300507
 20
-66.839493
 11
80.300507
 21
-66.839493
  0
LINE
  8
0
 10
9.300507
 20
-33.239502
 11
80.300507
 21
-33.239502
  0
LINE
  8
0
 10
-30.699493
 20
-37.539482
 11
-28.911865
 21
-37.539482
  0
LINE
  8
0
 10
-16.699493
 20
-36.539482
 11
-19.411865
 21
-36.539482
  0
LINE
  8
0
 10
-30.699516
 20
-37.539471
 11
-29.699541
 21
-36.539471
  0
LINE
  8
0
 10
-29.699509
 20
-36.539482
 11
-29.699509
 21
-63.539513
  0
LINE
  8
0
 10
-60.699501
 20
-55.039455
 11
-61.699486
 21
-54.039459
  0
LINE
  8
0
 10
-38.699493
 20
-54.039513
 11
-61.699493
 21
-54.039513
  0
LINE
  8
0
 10
-60.699493
 20
-55.039528
 11
-30.699493
 21
-55.039528
  0
LINE
  8
0
 10
-18.699493
 20
-62.539513
 11
-19.411865
 21
-62.539513
  0
LINE
  8
0
 10
-29.699509
 20
-63.539513
 11
-28.911865
 21
-63.539513
  0
LINE
  8
0
 10
-29.699501
 20
-63.539490
 11
-30.699499
 21
-62.539490
  0
LINE
  8
0
 10
-14.699492
 20
-30.739492
 11
-8.576849
 21
-30.739492
  0
LINE
  8
0
 10
9.300507
 20
-30.739491
 11
3.177927
 21
-30.739491
  0
LINE
  8
0
 10
-19.911865
 20
-29.254890
 11
-19.911865
 21
-70.824104
  0
LINE
  8
0
 10
-19.411865
 20
-29.254890
 11
-19.411865
 21
-70.824104
  0
LINE
  8
0
 10
-27.304169
 20
-29.254890
 11
-19.411865
 21
-29.254890
  0
LINE
  8
0
 10
-28.911846
 20
-32.039459
 11
-27.304146
 21
-29.254850
  0
LINE
  8
0
 10
-28.911865
 20
-32.039497
 11
-28.911865
 21
-68.039497
  0
LINE
  8
0
 10
-28.911842
 20
-68.039490
 11
-27.304152
 21
-70.824081
  0
LINE
  8
0
 10
-27.304169
 20
-70.824104
 11
-19.411865
 21
-70.824104
  0
LINE
  8
0
 10
-28.911865
 20
-36.539482
 11
-29.699509
 21
-36.539482
  0
LINE
  8
0
 10
-19.411865
 20
-37.539482
 11
-18.699493
 21
-37.539482
  0
LINE
  8
0
 10
-28.911865
 20
-62.539513
 11
-30.699493
 21
-62.539513
  0
LINE
  8
0
 10
-19.411865
 20
-63.539513
 11
-16.699493
 21
-63.539513
  0
ARC
  8
0
 10
5.479416
 20
-39.647041
 40
34.391285
 50
162.411789
 51
197.588196
  0
ARC
  8
0
 10
5.479416
 20
-60.431343
 40
34.391285
 50
162.411743
 51
197.588135
  0
CIRCLE
  8
0
 10
-2.699493
 20
-50.039497
 40
4.000000
  0
CIRCLE
  8
0
 10
-2.699493
 20
-50.039497
 40
5.000000
  0
CIRCLE
  8
0
 10
88.300507
 20
-50.039497
 40
4.000000
  0
CIRCLE
  8
0
 10
88.300507
 20
-50.039497
 40
5.000000
  0
ENDSEC
  0
EOF
