  0
SECTION
  2
HEADER
  0
ENDSEC
  0
SECTION
  2
TABLES
  0
TABLE
  2
LTYPE
 70
     4
  0
LTYPE
  2
CONTINUOUS
 70
    64
  3
Solid line
 72
    65
 73
     0
 40
0.000000
  0
LTYPE
  2
DASHED
 70
    64
  3
__ __ __ __ __ __ __ __ __ __ __ __ __ __ __
 72
    65
 73
     2
 40
3.500000
 49
2.000000
 49
-1.500000
  0
LTYPE
  2
CENTER
 70
    64
  3
____ _ ____ _ ____ _ ____ _ ____ _ ____ _ ____
 72
    65
 73
     4
 40
17.500000
 49
13.000000
 49
-1.500000
 49
1.500000
 49
-1.500000
  0
LTYPE
  2
PHANTOM
 70
    64
  3
_____ _ _ _____ _ _ _____ _ _ _____ _ _ ____  
 72
    65
 73
     6
 40
15.500000
 49
8.000000
 49
-1.500000
 49
1.500000
 49
-1.500000
 49
1.500000
 49
-1.500000
  0
LTYPE
  2
DASHED1
 70
    64
  3
__ __ __ __ __ __ __ __ __ __ __ __ __ __ __
 72
    65
 73
     2
 40
1.500000
 49
1.000000
 49
-0.500000
  0
LTYPE
  2
DASHED2
 70
    64
  3
__ __ __ __ __ __ __ __ __ __ __ __ __ __ __
 72
    65
 73
     2
 40
3.500000
 49
2.500000
 49
-1.000000
  0
LTYPE
  2
DASHED3
 70
    64
  3
__ __ __ __ __ __ __ __ __ __ __ __ __ __ __
 72
    65
 73
     2
 40
6.000000
 49
4.000000
 49
-2.000000
  0
LTYPE
  2
DASHED4
 70
    64
  3
__ __ __ __ __ __ __ __ __ __ __ __ __ __ __
 72
    65
 73
     2
 40
12.000000
 49
10.000000
 49
-2.000000
  0
LTYPE
  2
DASHED5
 70
    64
  3
__ __ __ __ __ __ __ __ __ __ __ __ __ __ __
 72
    65
 73
     2
 40
17.000000
 49
15.000000
 49
-2.000000
  0
LTYPE
  2
DASHED6
 70
    64
  3
__ __ __ __ __ __ __ __ __ __ __ __ __ __ __
 72
    65
 73
     2
 40
29.000000
 49
27.000000
 49
-2.000000
  0
LTYPE
  2
PHANTOM1
 70
    64
  3
_____ _ _ _____ _ _ _____ _ _ _____ _ _ ____  
 72
    65
 73
     6
 40
31.000000
 49
25.000000
 49
-1.500000
 49
1.000000
 49
-1.000000
 49
1.000000
 49
-1.500000
  0
LTYPE
  2
PHANTOM2
 70
    64
  3
_____ _ _ _____ _ _ _____ _ _ _____ _ _ ____  
 72
    65
 73
     6
 40
36.000000
 49
27.000000
 49
-1.500000
 49
2.500000
 49
-1.000000
 49
2.500000
 49
-1.500000
  0
LTYPE
  2
PHANTOM3
 70
    64
  3
_____ _ _ _____ _ _ _____ _ _ _____ _ _ ____  
 72
    65
 73
     6
 40
78.000000
 49
64.000000
 49
-2.000000
 49
4.000000
 49
-2.000000
 49
4.000000
 49
-2.000000
  0
LTYPE
  2
CENTER1
 70
    64
  3
____ _ ____ _ ____ _ ____ _ ____ _ ____ _ ____
 72
    65
 73
     4
 40
19.000000
 49
14.000000
 49
-1.000000
 49
3.000000
 49
-1.000000
  0
LTYPE
  2
CENTER2
 70
    64
  3
____ _ ____ _ ____ _ ____ _ ____ _ ____ _ ____
 72
    65
 73
     4
 40
28.500000
 49
25.000000
 49
-1.000000
 49
1.500000
 49
-1.000000
  0
LTYPE
  2
CENTER3
 70
    64
  3
____ _ ____ _ ____ _ ____ _ ____ _ ____ _ ____
 72
    65
 73
     4
 40
31.500000
 49
27.000000
 49
-1.000000
 49
2.500000
 49
-1.000000
  0
LTYPE
  2
CENTER4
 70
    64
  3
____ _ ____ _ ____ _ ____ _ ____ _ ____ _ ____
 72
    65
 73
     4
 40
50.000000
 49
45.000000
 49
-1.000000
 49
3.000000
 49
-1.000000
  0
LTYPE
  2
CENTER5
 70
    64
  3
____ _ ____ _ ____ _ ____ _ ____ _ ____ _ ____
 72
    65
 73
     4
 40
100.000000
 49
92.000000
 49
-2.000000
 49
4.000000
 49
-2.000000
  0
LTYPE
  2
SBK1
 70
    64
  3
______ _ _ _ ______ _ _ _ ______ _ _ _ _____  
 72
    65
 73
     8
 40
60.500000
 49
45.000000
 49
-2.000000
 49
2.500000
 49
-2.000000
 49
2.500000
 49
-2.000000
 49
2.500000
 49
-2.000000
  0
LTYPE
  2
SBK2
 70
    64
  3
______ _ _ _ ______ _ _ _ ______ _ _ _ _____  
 72
    65
 73
     8
 40
84.000000
 49
64.000000
 49
-2.000000
 49
4.000000
 49
-2.000000
 49
4.000000
 49
-2.000000
 49
4.000000
 49
-2.000000
  0
LTYPE
  2
STCH
 70
    64
  3
__ __ __ __ __ __ __ __ __ __ __ __ __ __ __
 72
    65
 73
     2
 40
3.000000
 49
1.000000
 49
-2.000000
  0
LTYPE
  2
MTCH
 70
    64
  3
_____ _ _ _____ _ _ _____ _ _ _____ _ _ ____  
 72
    65
 73
     6
 40
80.000000
 49
66.000000
 49
-2.000000
 49
4.000000
 49
-2.000000
 49
4.000000
 49
-2.000000
  0
ENDTAB
  0
TABLE
  2
LAYER
 70
     1
  0
LAYER
  2
0
 70
     0
 62
     7
  6
CONTINUOUS
  0
ENDTAB
  0
TABLE
  2
STYLE
 70
     1
  0
STYLE
  2
STANDARD
 70
     0
 40
0.000000
 41
1.000000
 50
0.000000
 71
     0
 42
0.200000
  3
txt
  4
BIGFONT
  0
ENDTAB
  0
TABLE
  2
VIEW
 70
     0
  0
ENDTAB
  0
ENDSEC
  0
SECTION
  2
BLOCKS
  0
ENDSEC
  0
SECTION
  2
ENTITIES
  0
LINE
  8
0
 10
-131.123611
 20
-90.000008
 11
-131.123611
 21
90.000008
  0
LINE
  8
0
 10
131.123611
 20
90.000008
 11
131.123611
 21
-90.000008
  0
LINE
  8
0
 10
-131.123611
 20
-90.000008
 11
131.123611
 21
-90.000008
  0
LINE
  8
0
 10
-131.123611
 20
90.000008
 11
131.123611
 21
90.000008
  0
LINE
  8
0
 10
-131.123611
 20
79.887642
 11
-77.191025
 21
79.887642
  0
LINE
  8
0
 10
-77.191025
 20
79.887642
 11
-77.191025
 21
90.000008
  0
LINE
  8
0
 10
77.191010
 20
-79.887642
 11
131.123611
 21
-79.887642
  0
LINE
  8
0
 10
77.191010
 20
79.887642
 11
131.123611
 21
79.887642
  0
LINE
  8
0
 10
77.191010
 20
90.000008
 11
77.191010
 21
79.887642
  0
LINE
  8
0
 10
77.191010
 20
-79.887642
 11
77.191010
 21
-90.000008
  0
TEXT
  8
0
 10
80.231529
 20
83.243828
 40
3.000000
  1
DATE : AUG,1992
 50
0.000000
 41
1.052632
 51
0.000000
  7
STANDARD
  0
TEXT
  8
0
 10
-127.157318
 20
82.793823
 40
3.500000
  1
SLIM CYLINDER
 50
0.000000
 41
1.052632
 51
0.000000
  7
STANDARD
  0
TEXT
  8
0
 10
81.157310
 20
-87.093826
 40
3.500000
  1
KOGANEI CORP.
 50
0.000000
 41
1.052632
 51
0.000000
  7
STANDARD
  0
TEXT
  8
0
 10
-104.499840
 20
63.183334
 40
3.500000
  1
MODEL:DAK20X25-RL
 50
0.000000
 41
1.052632
 51
0.000000
  7
STANDARD
  0
POINT
  8
0
 10
-27.500000
 20
26.999990
  0
POINT
  8
0
 10
94.500015
 20
26.999990
  0
LINE
  8
0
 10
-31.230835
 20
42.578117
 11
-36.794220
 21
42.578117
  0
LINE
  8
0
 10
-38.000000
 20
36.999992
 11
-38.500000
 21
36.999992
  0
LINE
  8
0
 10
-31.000000
 20
11.406240
 11
-36.794235
 21
11.406240
  0
LINE
  8
0
 10
-38.000000
 20
17.999990
 11
-39.500000
 21
17.999990
  0
LINE
  8
0
 10
-30.500000
 20
13.499990
 11
-31.000000
 21
13.499990
  0
LINE
  8
0
 10
-38.000000
 20
16.999990
 11
-38.500000
 21
16.999990
  0
LINE
  8
0
 10
-37.999268
 20
40.494690
 11
-36.796143
 21
42.578564
  0
LINE
  8
0
 10
-36.793522
 20
11.404101
 11
-38.004456
 21
13.501507
  0
LINE
  8
0
 10
-31.000000
 20
19.203115
 11
-36.794235
 21
19.203115
  0
LINE
  8
0
 10
-31.000000
 20
34.796867
 11
-36.794220
 21
34.796867
  0
LINE
  8
0
 10
-39.468819
 20
17.993450
 11
-38.474442
 21
16.999088
  0
LINE
  8
0
 10
-39.504135
 20
36.003777
 11
-38.509769
 21
36.998150
  0
LINE
  8
0
 10
-39.500000
 20
35.999992
 11
-38.000000
 21
35.999992
  0
LINE
  8
0
 10
-38.500000
 20
36.999992
 11
-38.000000
 21
36.999992
  0
LINE
  8
0
 10
-38.500000
 20
16.999990
 11
-38.000000
 21
16.999990
  0
LINE
  8
0
 10
-38.500000
 20
36.999992
 11
-38.000000
 21
36.999992
  0
LINE
  8
0
 10
-31.000000
 20
13.499990
 11
-30.500000
 21
13.499990
  0
LINE
  8
0
 10
-31.000000
 20
40.499992
 11
-30.500000
 21
40.499992
  0
LINE
  8
0
 10
-36.794235
 20
11.406240
 11
-31.000000
 21
11.406240
  0
LINE
  8
0
 10
-30.643341
 20
26.999990
 11
-30.643341
 21
26.999990
  0
LINE
  8
0
 10
-36.794220
 20
42.578117
 11
-31.000000
 21
42.578117
  0
LINE
  8
0
 10
-45.500000
 20
24.343740
 11
-45.500000
 21
29.640615
  0
LINE
  8
0
 10
-40.500000
 20
24.343740
 11
-40.500000
 21
29.640615
  0
LINE
  8
0
 10
-45.500000
 20
29.640615
 11
-40.500000
 21
29.640615
  0
LINE
  8
0
 10
-45.500000
 20
24.343740
 11
-40.500000
 21
24.343740
  0
LINE
  8
0
 10
-45.494392
 20
24.347294
 11
-40.493607
 21
29.639626
  0
LINE
  8
0
 10
-45.494995
 20
29.648441
 11
-40.494213
 21
24.356106
  0
LINE
  8
0
 10
-30.500000
 20
13.499990
 11
-30.500000
 21
40.499992
  0
LINE
  8
0
 10
-31.000000
 20
11.406240
 11
-31.000000
 21
42.578117
  0
LINE
  8
0
 10
-39.500000
 20
17.999990
 11
-39.500000
 21
35.999992
  0
LINE
  8
0
 10
-38.000000
 20
40.499992
 11
-38.000000
 21
13.499990
  0
LINE
  8
0
 10
73.500015
 20
13.499990
 11
73.500015
 21
40.499992
  0
LINE
  8
0
 10
57.500015
 20
40.499992
 11
57.500015
 21
13.499990
  0
LINE
  8
0
 10
-30.500000
 20
16.999990
 11
-27.500000
 21
16.999990
  0
LINE
  8
0
 10
-30.500000
 20
17.999990
 11
-29.500000
 21
17.999990
  0
LINE
  8
0
 10
-27.500000
 20
36.999992
 11
-30.500000
 21
36.999992
  0
LINE
  8
0
 10
-30.500000
 20
35.999992
 11
-29.500000
 21
35.999992
  0
LINE
  8
0
 10
-47.500000
 20
22.999990
 11
-47.500000
 21
30.999990
  0
LINE
  8
0
 10
-38.500061
 20
36.999992
 11
-38.500061
 21
16.999990
  0
LINE
  8
0
 10
-29.500000
 20
36.999992
 11
-29.500000
 21
16.999990
  0
LINE
  8
0
 10
-62.500000
 20
29.999990
 11
-47.500000
 21
29.999990
  0
LINE
  8
0
 10
-62.500000
 20
23.999990
 11
-47.500000
 21
23.999990
  0
LINE
  8
0
 10
-39.500000
 20
22.999990
 11
-61.500000
 21
22.999990
  0
LINE
  8
0
 10
-61.500000
 20
30.999990
 11
-39.500031
 21
30.999990
  0
LINE
  8
0
 10
-62.503853
 20
29.990217
 11
-61.498432
 21
30.995632
  0
LINE
  8
0
 10
-62.503540
 20
23.995232
 11
-61.498123
 21
22.989813
  0
LINE
  8
0
 10
-61.500000
 20
30.999990
 11
-61.500000
 21
22.999990
  0
LINE
  8
0
 10
-52.500000
 20
29.999990
 11
-47.500000
 21
29.999990
  0
LINE
  8
0
 10
-11.500000
 20
41.499992
 11
-11.500000
 21
12.499990
  0
LINE
  8
0
 10
94.500015
 20
17.999990
 11
94.500015
 21
35.999992
  0
LINE
  8
0
 10
75.500015
 20
16.999990
 11
75.500015
 21
17.999990
  0
LINE
  8
0
 10
-27.500000
 20
12.499990
 11
-27.500000
 21
41.499992
  0
LINE
  8
0
 10
73.500015
 20
36.999992
 11
93.660904
 21
36.999992
  0
LINE
  8
0
 10
94.500015
 20
35.999992
 11
75.500015
 21
35.999992
  0
LINE
  8
0
 10
75.500015
 20
17.999990
 11
94.500015
 21
17.999990
  0
LINE
  8
0
 10
93.660904
 20
16.999990
 11
73.500015
 21
16.999990
  0
LINE
  8
0
 10
75.500015
 20
35.999992
 11
75.500015
 21
36.999992
  0
LINE
  8
0
 10
94.482285
 20
35.985825
 11
93.648659
 21
36.979279
  0
LINE
  8
0
 10
94.495262
 20
17.996899
 11
93.661652
 21
17.003433
  0
LINE
  8
0
 10
93.660904
 20
16.999990
 11
93.660904
 21
17.999990
  0
LINE
  8
0
 10
75.492485
 20
36.003597
 11
73.760429
 21
37.003586
  0
LINE
  8
0
 10
75.504700
 20
17.991020
 11
73.772644
 21
16.991020
  0
LINE
  8
0
 10
93.660904
 20
35.999992
 11
93.660904
 21
36.999992
  0
LINE
  8
0
 10
57.500015
 20
16.296865
 11
-11.500000
 21
16.296865
  0
LINE
  8
0
 10
57.500015
 20
37.687492
 11
-11.500000
 21
37.687492
  0
LINE
  8
0
 10
-62.500000
 20
29.999990
 11
-62.500000
 21
23.999990
  0
LINE
  8
0
 10
-27.500000
 20
34.999992
 11
-11.500000
 21
34.999992
  0
LINE
  8
0
 10
-27.500000
 20
18.999990
 11
-11.500000
 21
18.999990
  0
LINE
  8
0
 10
-27.500000
 20
41.499992
 11
-11.500000
 21
41.499992
  0
LINE
  8
0
 10
-27.500000
 20
12.499990
 11
-11.500000
 21
12.499990
  0
LINE
  8
0
 10
73.500015
 20
40.499992
 11
57.500015
 21
40.499992
  0
LINE
  8
0
 10
73.500015
 20
13.499990
 11
57.500015
 21
13.499990
  0
LINE
  8
0
 10
-65.500000
 20
26.999990
 11
97.556381
 21
26.999990
  0
LINE
  8
0
 10
85.500015
 20
40.499992
 11
85.500015
 21
13.499990
  0
LINE
  8
0
 10
-19.500000
 20
43.499992
 11
-19.500000
 21
10.499990
  0
LINE
  8
0
 10
65.500015
 20
43.499992
 11
65.500015
 21
10.499990
  0
LINE
  8
0
 10
-15.560664
 20
30.939342
 11
-13.439344
 21
33.060661
  0
LINE
  8
0
 10
-15.560658
 20
33.060654
 11
-13.439339
 21
30.939337
  0
LINE
  8
0
 10
-25.560661
 20
33.060658
 11
-23.439342
 21
30.939337
  0
LINE
  8
0
 10
-25.560665
 20
30.939339
 11
-23.439346
 21
33.060658
  0
LINE
  8
0
 10
-25.560661
 20
23.060650
 11
-23.439342
 21
20.939331
  0
LINE
  8
0
 10
-25.560667
 20
20.939337
 11
-23.439346
 21
23.060656
  0
LINE
  8
0
 10
-15.560663
 20
23.060652
 11
-13.439342
 21
20.939331
  0
LINE
  8
0
 10
-15.560672
 20
20.939337
 11
-13.439352
 21
23.060656
  0
CIRCLE
  8
0
 10
-24.500000
 20
21.999990
 40
2.750000
  0
CIRCLE
  8
0
 10
-24.500000
 20
31.999990
 40
2.750000
  0
CIRCLE
  8
0
 10
85.500015
 20
26.999990
 40
4.000000
  0
CIRCLE
  8
0
 10
-19.500000
 20
26.999990
 40
1.700000
  0
ARC
  8
0
 10
-24.500000
 20
31.999990
 40
3.999999
 50
221.409607
 51
48.590389
  0
ARC
  8
0
 10
-14.500000
 20
31.999990
 40
4.000000
 50
131.409592
 51
318.590332
  0
ARC
  8
0
 10
-14.500000
 20
21.999990
 40
4.000000
 50
41.409592
 51
228.590332
  0
ARC
  8
0
 10
-24.500000
 20
21.999990
 40
3.999999
 50
311.409576
 51
138.590332
  0
CIRCLE
  8
0
 10
-14.500000
 20
31.999990
 40
2.750000
  0
CIRCLE
  8
0
 10
-14.500000
 20
21.999990
 40
2.750000
  0
POLYLINE
  8
0
 66
     1
  0
VERTEX
  8
0
 10
-36.794235
 20
19.203115
  0
VERTEX
  8
0
 10
-37.194397
 20
18.484640
  0
VERTEX
  8
0
 10
-37.527771
 20
17.723986
  0
VERTEX
  8
0
 10
-37.781643
 20
16.931944
  0
VERTEX
  8
0
 10
-37.943291
 20
16.119307
  0
VERTEX
  8
0
 10
-38.000000
 20
15.296865
  0
VERTEX
  8
0
 10
-37.943291
 20
14.477013
  0
VERTEX
  8
0
 10
-37.781643
 20
13.668371
  0
VERTEX
  8
0
 10
-37.527771
 20
12.880593
  0
VERTEX
  8
0
 10
-37.194397
 20
12.123332
  0
VERTEX
  8
0
 10
-36.794235
 20
11.406240
  0
SEQEND
  0
POLYLINE
  8
0
 66
     1
  0
VERTEX
  8
0
 10
-36.794235
 20
19.203115
  0
VERTEX
  8
0
 10
-37.069149
 20
20.150881
  0
VERTEX
  8
0
 10
-37.310459
 20
21.109482
  0
VERTEX
  8
0
 10
-37.517231
 20
22.077337
  0
VERTEX
  8
0
 10
-37.688519
 20
23.052862
  0
VERTEX
  8
0
 10
-37.823380
 20
24.034473
  0
VERTEX
  8
0
 10
-37.920876
 20
25.020588
  0
VERTEX
  8
0
 10
-37.980061
 20
26.009623
  0
VERTEX
  8
0
 10
-38.000000
 20
26.999990
  0
VERTEX
  8
0
 10
-37.980061
 20
27.990360
  0
VERTEX
  8
0
 10
-37.920872
 20
28.979393
  0
VERTEX
  8
0
 10
-37.823372
 20
29.965508
  0
VERTEX
  8
0
 10
-37.688511
 20
30.947119
  0
VERTEX
  8
0
 10
-37.517220
 20
31.922644
  0
VERTEX
  8
0
 10
-37.310448
 20
32.890499
  0
VERTEX
  8
0
 10
-37.069134
 20
33.849102
  0
VERTEX
  8
0
 10
-36.794220
 20
34.796867
  0
SEQEND
  0
POLYLINE
  8
0
 66
     1
  0
VERTEX
  8
0
 10
-36.794220
 20
42.578117
  0
VERTEX
  8
0
 10
-37.194386
 20
41.861027
  0
VERTEX
  8
0
 10
-37.527763
 20
41.103767
  0
VERTEX
  8
0
 10
-37.781639
 20
40.315987
  0
VERTEX
  8
0
 10
-37.943291
 20
39.507343
  0
VERTEX
  8
0
 10
-38.000000
 20
38.687492
  0
VERTEX
  8
0
 10
-37.943291
 20
37.867641
  0
VERTEX
  8
0
 10
-37.781639
 20
37.058998
  0
VERTEX
  8
0
 10
-37.527763
 20
36.271221
  0
VERTEX
  8
0
 10
-37.194386
 20
35.513958
  0
VERTEX
  8
0
 10
-36.794220
 20
34.796867
  0
SEQEND
  0
POINT
  8
0
 10
-105.500000
 20
27.000000
  0
POINT
  8
0
 10
-92.000000
 20
27.000000
  0
LINE
  8
0
 10
-119.000000
 20
34.794231
 11
-119.000000
 21
19.205772
  0
LINE
  8
0
 10
-92.000000
 20
34.794235
 11
-92.000000
 21
19.205742
  0
LINE
  8
0
 10
-105.499947
 20
42.588432
 11
-91.999962
 21
34.794216
  0
LINE
  8
0
 10
-118.999878
 20
19.205761
 11
-105.499908
 21
11.411540
  0
LINE
  8
0
 10
-111.500000
 20
30.464100
 11
-111.500000
 21
23.535900
  0
LINE
  8
0
 10
-99.500000
 20
30.464100
 11
-99.500000
 21
23.535900
  0
LINE
  8
0
 10
-111.500099
 20
30.464180
 11
-105.500122
 21
33.928272
  0
LINE
  8
0
 10
-105.499992
 20
20.071781
 11
-99.499992
 21
23.535885
  0
LINE
  8
0
 10
-105.500000
 20
33.928185
 11
-99.499985
 21
30.464073
  0
LINE
  8
0
 10
-111.500038
 20
23.535963
 11
-105.499977
 21
20.071842
  0
LINE
  8
0
 10
-105.499931
 20
11.411508
 11
-91.999939
 21
19.205725
  0
LINE
  8
0
 10
-123.074959
 20
27.000000
 11
-85.246284
 21
27.000000
  0
LINE
  8
0
 10
-119.000031
 20
34.794254
 11
-105.499969
 21
42.588463
  0
LINE
  8
0
 10
-88.000000
 20
29.354248
 11
-88.000000
 21
24.645752
  0
LINE
  8
0
 10
-92.356400
 20
35.000000
 11
-89.500000
 21
35.000000
  0
LINE
  8
0
 10
-92.356361
 20
19.000000
 11
-89.500008
 21
19.000000
  0
LINE
  8
0
 10
-89.500046
 20
34.999943
 11
-89.250053
 21
34.749947
  0
LINE
  8
0
 10
-105.500000
 20
45.167160
 11
-105.500000
 21
8.493610
  0
LINE
  8
0
 10
-90.500000
 20
34.750000
 11
-90.500000
 21
29.354248
  0
LINE
  8
0
 10
-88.000000
 20
29.250000
 11
-87.500000
 21
29.250000
  0
LINE
  8
0
 10
-90.500000
 20
29.354248
 11
-88.000000
 21
29.354248
  0
LINE
  8
0
 10
-90.500000
 20
34.750000
 11
-87.500000
 21
34.750000
  0
LINE
  8
0
 10
-87.500000
 20
34.750000
 11
-87.500000
 21
29.250000
  0
LINE
  8
0
 10
-87.500000
 20
19.250000
 11
-87.500000
 21
24.750000
  0
LINE
  8
0
 10
-90.500000
 20
24.645752
 11
-88.000000
 21
24.645752
  0
LINE
  8
0
 10
-90.500000
 20
24.645752
 11
-90.500000
 21
19.250000
  0
LINE
  8
0
 10
-89.249977
 20
19.249973
 11
-89.499977
 21
18.999973
  0
LINE
  8
0
 10
-88.000000
 20
24.750000
 11
-87.500000
 21
24.750000
  0
LINE
  8
0
 10
-90.500000
 20
19.250000
 11
-87.500000
 21
19.250000
  0
ARC
  8
0
 10
-105.500000
 20
27.000000
 40
14.499998
 50
38.596706
 51
81.403305
  0
ARC
  8
0
 10
-105.500000
 20
27.000000
 40
14.500000
 50
278.596863
 51
321.403076
  0
CIRCLE
  8
0
 10
-105.500000
 20
27.000000
 40
4.000000
  0
CIRCLE
  8
0
 10
-105.500000
 20
27.000000
 40
9.000000
  0
CIRCLE
  8
0
 10
-105.500000
 20
27.000000
 40
10.000000
  0
CIRCLE
  8
0
 10
-105.500000
 20
27.000000
 40
13.500000
  0
CIRCLE
  8
0
 10
-105.500000
 20
27.000000
 40
6.000000
  0
CIRCLE
  8
0
 10
-105.500000
 20
27.000000
 40
3.000000
  0
ARC
  8
0
 10
-105.500000
 20
27.000000
 40
14.500000
 50
98.596481
 51
141.403229
  0
ARC
  8
0
 10
-105.500000
 20
27.000000
 40
14.499999
 50
158.596664
 51
201.403320
  0
ARC
  8
0
 10
-105.500000
 20
27.000000
 40
14.500001
 50
218.596390
 51
261.403534
  0
POINT
  8
0
 10
-27.500006
 20
-39.645401
  0
POINT
  8
0
 10
94.500023
 20
-39.645401
  0
LINE
  8
0
 10
-65.050003
 20
-39.645405
 11
97.556381
 21
-39.645393
  0
LINE
  8
0
 10
-27.249996
 20
-24.645399
 11
-21.854248
 21
-24.645399
  0
LINE
  8
0
 10
-21.854244
 20
-24.645401
 11
-21.854244
 21
-22.145401
  0
LINE
  8
0
 10
-17.145752
 20
-24.645401
 11
-17.145752
 21
-22.145401
  0
LINE
  8
0
 10
-17.145752
 20
-24.645397
 11
-11.749999
 21
-24.645397
  0
LINE
  8
0
 10
-11.749981
 20
-23.395378
 11
-11.499983
 21
-23.645380
  0
LINE
  8
0
 10
-27.249996
 20
-24.645401
 11
-27.249998
 21
-21.645399
  0
LINE
  8
0
 10
-27.249998
 20
-21.645399
 11
-21.749996
 21
-21.645399
  0
LINE
  8
0
 10
-21.749996
 20
-22.145401
 11
-21.749996
 21
-21.645399
  0
LINE
  8
0
 10
-17.250000
 20
-22.145401
 11
-17.250000
 21
-21.645399
  0
LINE
  8
0
 10
-11.749999
 20
-24.645401
 11
-11.749999
 21
-21.645397
  0
LINE
  8
0
 10
-11.749999
 20
-21.645397
 11
-17.250000
 21
-21.645399
  0
LINE
  8
0
 10
-39.499958
 20
-48.645443
 11
-38.499943
 21
-49.645451
  0
LINE
  8
0
 10
-39.499981
 20
-30.645432
 11
-38.499996
 21
-29.645447
  0
LINE
  8
0
 10
-39.500000
 20
-48.645386
 11
-39.500000
 21
-30.645386
  0
LINE
  8
0
 10
-27.500000
 20
-53.145386
 11
-27.500002
 21
-23.645369
  0
LINE
  8
0
 10
-27.500000
 20
-26.145386
 11
-11.500000
 21
-26.145386
  0
LINE
  8
0
 10
-27.500000
 20
-53.145386
 11
-11.500000
 21
-53.145386
  0
LINE
  8
0
 10
-38.500000
 20
-49.645386
 11
-38.000000
 21
-49.645386
  0
LINE
  8
0
 10
-39.500000
 20
-48.645386
 11
-38.000000
 21
-48.645386
  0
LINE
  8
0
 10
-27.500000
 20
-29.645386
 11
-30.500000
 21
-29.645386
  0
LINE
  8
0
 10
-39.500000
 20
-30.645386
 11
-38.000000
 21
-30.645386
  0
LINE
  8
0
 10
-47.500000
 20
-43.645386
 11
-47.500000
 21
-35.645386
  0
LINE
  8
0
 10
-38.500031
 20
-29.645393
 11
-38.500031
 21
-49.645393
  0
LINE
  8
0
 10
-29.500000
 20
-29.645386
 11
-29.500000
 21
-49.645386
  0
LINE
  8
0
 10
-62.500000
 20
-36.645390
 11
-62.500000
 21
-42.645390
  0
LINE
  8
0
 10
-62.499893
 20
-36.645451
 11
-61.499908
 21
-35.645454
  0
LINE
  8
0
 10
-62.499992
 20
-42.645481
 11
-61.500023
 21
-43.645470
  0
LINE
  8
0
 10
-61.500000
 20
-35.645386
 11
-61.500000
 21
-43.645390
  0
LINE
  8
0
 10
-62.500000
 20
-42.645390
 11
-47.499985
 21
-42.645386
  0
LINE
  8
0
 10
-62.500000
 20
-36.645390
 11
-47.500000
 21
-36.645386
  0
LINE
  8
0
 10
-61.500000
 20
-43.645390
 11
-46.499985
 21
-43.645386
  0
LINE
  8
0
 10
-19.500000
 20
-31.732071
 11
-19.500000
 21
-47.645401
  0
LINE
  8
0
 10
-45.500000
 20
-36.645401
 11
-40.500000
 21
-36.645401
  0
LINE
  8
0
 10
-45.500000
 20
-42.645401
 11
-40.500000
 21
-42.645401
  0
LINE
  8
0
 10
-40.499977
 20
-36.645462
 11
-39.499947
 21
-35.645454
  0
LINE
  8
0
 10
-46.499928
 20
-43.645466
 11
-45.499947
 21
-42.645489
  0
LINE
  8
0
 10
-40.500042
 20
-42.645435
 11
-39.500050
 21
-43.645420
  0
LINE
  8
0
 10
-46.499969
 20
-35.645351
 11
-45.499924
 21
-36.645382
  0
LINE
  8
0
 10
-46.500015
 20
-35.645370
 11
-61.500000
 21
-35.645370
  0
LINE
  8
0
 10
73.500000
 20
-53.145393
 11
73.500000
 21
-26.145393
  0
LINE
  8
0
 10
73.500000
 20
-26.145393
 11
57.500000
 21
-26.145395
  0
LINE
  8
0
 10
73.500000
 20
-53.145393
 11
57.500000
 21
-53.145393
  0
LINE
  8
0
 10
94.500000
 20
-45.645393
 11
94.500000
 21
-33.645393
  0
LINE
  8
0
 10
74.500000
 20
-49.645393
 11
74.500000
 21
-45.645393
  0
LINE
  8
0
 10
73.500000
 20
-49.645393
 11
73.500000
 21
-29.645393
  0
LINE
  8
0
 10
73.500000
 20
-29.645393
 11
74.500000
 21
-29.645393
  0
LINE
  8
0
 10
74.500000
 20
-49.645393
 11
73.500000
 21
-49.645393
  0
LINE
  8
0
 10
85.500000
 20
-30.645393
 11
85.500000
 21
-48.645393
  0
LINE
  8
0
 10
-11.500000
 20
-50.345398
 11
57.500000
 21
-50.345390
  0
LINE
  8
0
 10
-11.500000
 20
-28.945404
 11
57.500000
 21
-28.945398
  0
LINE
  8
0
 10
65.500000
 20
-31.645395
 11
65.500000
 21
-47.645393
  0
LINE
  8
0
  6
DASHED
 10
81.500000
 20
-33.645393
 11
81.500000
 21
-45.645393
  0
LINE
  8
0
  6
DASHED
 10
89.500000
 20
-33.645393
 11
89.500000
 21
-45.645393
  0
LINE
  8
0
 10
74.500000
 20
-33.645393
 11
94.500000
 21
-33.645393
  0
LINE
  8
0
 10
74.500000
 20
-45.645393
 11
94.500000
 21
-45.645393
  0
LINE
  8
0
 10
74.500000
 20
-33.645393
 11
74.500000
 21
-29.645393
  0
LINE
  8
0
 10
-11.500002
 20
-23.645367
 11
-11.500000
 21
-53.145386
  0
LINE
  8
0
 10
57.500000
 20
-26.145395
 11
57.500000
 21
-53.145393
  0
LINE
  8
0
 10
-36.794220
 20
-24.056931
 11
-30.500000
 21
-24.056931
  0
LINE
  8
0
 10
-31.000000
 20
-55.233841
 11
-31.000000
 21
-24.056931
  0
LINE
  8
0
 10
-30.500000
 20
-55.233856
 11
-30.500000
 21
-24.056931
  0
LINE
  8
0
 10
-38.000038
 20
-26.145367
 11
-36.794277
 21
-24.056919
  0
LINE
  8
0
 10
-38.000000
 20
-26.145386
 11
-38.000000
 21
-53.145386
  0
LINE
  8
0
 10
-36.794231
 20
-55.233833
 11
-38.000008
 21
-53.145363
  0
LINE
  8
0
 10
-36.794235
 20
-55.233856
 11
-30.500000
 21
-55.233856
  0
LINE
  8
0
 10
-38.000000
 20
-29.645386
 11
-38.500015
 21
-29.645386
  0
LINE
  8
0
 10
-30.500000
 20
-30.645386
 11
-29.500000
 21
-30.645386
  0
LINE
  8
0
 10
-30.500000
 20
-48.645386
 11
-29.500000
 21
-48.645386
  0
LINE
  8
0
 10
-30.500000
 20
-49.645386
 11
-27.500000
 21
-49.645386
  0
LINE
  8
0
 10
-21.854244
 20
-22.145401
 11
-17.145752
 21
-22.145401
  0
LINE
  8
0
 10
-27.250015
 20
-23.395380
 11
-27.500019
 21
-23.645384
  0
ARC
  8
0
 10
-12.206054
 20
-47.439575
 40
25.793947
 50
162.411880
 51
197.588058
  0
ARC
  8
0
 10
-12.206056
 20
-31.851135
 40
25.793945
 50
162.411926
 51
197.588104
  0
CIRCLE
  8
0
 10
-19.500000
 20
-39.645401
 40
5.000000
  0
CIRCLE
  8
0
 10
65.500000
 20
-39.645393
 40
5.000000
  0
CIRCLE
  8
0
 10
65.500000
 20
-39.645393
 40
4.000000
  0
CIRCLE
  8
0
 10
-19.500000
 20
-39.645401
 40
4.000000
  0
ENDSEC
  0
EOF
