  0
SECTION
  2
HEADER
  9
$ACADVER
  1
AC1012
  9
$DWGCODEPAGE
  3
dos932
  9
$INSBASE
 10
0.0
 20
0.0
 30
0.0
  9
$EXTMIN
 10
0.0
 20
0.0
 30
0.0
  9
$EXTMAX
 10
594.0
 20
420.0
 30
0.0
  9
$LIMMIN
 10
0.0
 20
0.0
  9
$LIMMAX
 10
0.0
 20
0.0
  9
$ORTHOMODE
 70
         0
  9
$REGENMODE
 70
         1
  9
$FILLMODE
 70
         1
  9
$QTEXTMODE
 70
         0
  9
$MIRRTEXT
 70
         1
  9
$DRAGMODE
 70
         2
  9
$LTSCALE
 40
1.0
  9
$OSMODE
 70
         0
  9
$ATTMODE
 70
         1
  9
$TEXTSIZE
 40
3.5
  9
$TRACEWID
 40
0.05
  9
$TEXTSTYLE
  7
STANDARD
  9
$CLAYER
  8
0
  9
$CELTYPE
  6
CONTINUOUS
  9
$CECOLOR
 62
       256
  9
$CELTSCALE
 40
1.0
  9
$DELOBJ
 70
         1
  9
$DISPSILH
 70
         0
  9
$DIMSCALE
 40
1.0
  9
$DIMASZ
 40
0.012850053
  9
$DIMEXO
 40
0.0
  9
$DIMDLI
 40
0.38
  9
$DIMRND
 40
0.0
  9
$DIMDLE
 40
0.0
  9
$DIMEXE
 40
0.18
  9
$DIMTP
 40
0.0
  9
$DIMTM
 40
0.0
  9
$DIMTXT
 40
3.5
  9
$DIMCEN
 40
0.09
  9
$DIMTSZ
 40
0.0
  9
$DIMTOL
 70
         0
  9
$DIMLIM
 70
         0
  9
$DIMTIH
 70
         1
  9
$DIMTOH
 70
         1
  9
$DIMSE1
 70
         0
  9
$DIMSE2
 70
         0
  9
$DIMTAD
 70
         1
  9
$DIMZIN
 70
         0
  9
$DIMBLK
  1

  9
$DIMASO
 70
         1
  9
$DIMSHO
 70
         1
  9
$DIMPOST
  1

  9
$DIMAPOST
  1

  9
$DIMALT
 70
         0
  9
$DIMALTD
 70
         2
  9
$DIMALTF
 40
0.0394
  9
$DIMLFAC
 40
1.0
  9
$DIMTOFL
 70
         0
  9
$DIMTVP
 40
0.0
  9
$DIMTIX
 70
         0
  9
$DIMSOXD
 70
         0
  9
$DIMSAH
 70
         0
  9
$DIMBLK1
  1

  9
$DIMBLK2
  1

  9
$DIMSTYLE
  2
STANDARD
  9
$DIMCLRD
 70
         0
  9
$DIMCLRE
 70
         0
  9
$DIMCLRT
 70
         0
  9
$DIMTFAC
 40
1.0
  9
$DIMGAP
 40
0.0
  9
$DIMJUST
 70
         0
  9
$DIMSD1
 70
         0
  9
$DIMSD2
 70
         0
  9
$DIMTOLJ
 70
         1
  9
$DIMTZIN
 70
         0
  9
$DIMALTZ
 70
         0
  9
$DIMALTTZ
 70
         0
  9
$DIMFIT
 70
         3
  9
$DIMUPT
 70
         0
  9
$DIMUNIT
 70
         2
  9
$DIMDEC
 70
         4
  9
$DIMTDEC
 70
         4
  9
$DIMALTU
 70
         2
  9
$DIMALTTD
 70
         2
  9
$DIMTXSTY
  7
STANDARD
  9
$DIMAUNIT
 70
         0
  9
$LUNITS
 70
         2
  9
$LUPREC
 70
         2
  9
$SKETCHINC
 40
0.1
  9
$FILLETRAD
 40
0.0
  9
$AUNITS
 70
         0
  9
$AUPREC
 70
         2
  9
$MENU
  1
acad
  9
$ELEVATION
 40
0.0
  9
$PELEVATION
 40
0.0
  9
$THICKNESS
 40
0.0
  9
$LIMCHECK
 70
         0
  9
$BLIPMODE
 70
         1
  9
$CHAMFERA
 40
0.0
  9
$CHAMFERB
 40
0.0
  9
$CHAMFERC
 40
0.0
  9
$CHAMFERD
 40
0.0
  9
$SKPOLY
 70
         0
  9
$TDCREATE
 40
0.000000000
  9
$TDUPDATE
 40
0.000000000
  9
$TDINDWG
 40
0.0000000000
  9
$TDUSRTIMER
 40
0.0000000000
  9
$USRTIMER
 70
         1
  9
$ANGBASE
 50
0.0
  9
$ANGDIR
 70
         0
  9
$PDMODE
 70
         0
  9
$PDSIZE
 40
-1.0
  9
$PLINEWID
 40
0.0
  9
$COORDS
 70
         0
  9
$SPLFRAME
 70
         0
  9
$SPLINETYPE
 70
         6
  9
$SPLINESEGS
 70
         8
  9
$ATTDIA
 70
         0
  9
$ATTREQ
 70
         1
  9
$HANDLING
 70
         1
  9
$HANDSEED
  5
186
  9
$SURFTAB1
 70
         6
  9
$SURFTAB2
 70
         6
  9
$SURFTYPE
 70
         6
  9
$SURFU
 70
         6
  9
$SURFV
 70
         6
  9
$UCSNAME
  2

  9
$UCSORG
 10
0.0
 20
0.0
 30
0.0
  9
$UCSXDIR
 10
1.0
 20
0.0
 30
0.0
  9
$UCSYDIR
 10
0.0
 20
1.0
 30
0.0
  9
$PUCSNAME
  2

  9
$PUCSORG
 10
0.0
 20
0.0
 30
0.0
  9
$PUCSXDIR
 10
1.0
 20
0.0
 30
0.0
  9
$PUCSYDIR
 10
0.0
 20
1.0
 30
0.0
  9
$USERI1
 70
         0
  9
$USERI2
 70
         0
  9
$USERI3
 70
         0
  9
$USERI4
 70
         0
  9
$USERI5
 70
         0
  9
$USERR1
 40
0.0
  9
$USERR2
 40
0.0
  9
$USERR3
 40
0.0
  9
$USERR4
 40
0.0
  9
$USERR5
 40
0.0
  9
$WORLDVIEW
 70
         1
  9
$SHADEDGE
 70
         3
  9
$SHADEDIF
 70
        70
  9
$TILEMODE
 70
         1
  9
$MAXACTVP
 70
        16
  9
$PINSBASE
 10
0.0
 20
0.0
 30
0.0
  9
$PLIMCHECK
 70
         0
  9
$PEXTMIN
 10
1.0000000000E+20
 20
1.0000000000E+20
 30
1.0000000000E+20
  9
$PEXTMAX
 10
-1.0000000000E+20
 20
-1.0000000000E+20
 30
-1.0000000000E+20
  9
$PLIMMIN
 10
0.0
 20
0.0
  9
$PLIMMAX
 10
12.0
 20
9.0
  9
$UNITMODE
 70
         0
  9
$VISRETAIN
 70
         0
  9
$PLINEGEN
 70
         1
  9
$PSLTSCALE
 70
         1
  9
$TREEDEPTH
 70
      3020
  9
$PICKSTYLE
 70
         1
  9
$CMLSTYLE
  2
STANDARD
  9
$CMLJUST
 70
         0
  9
$CMLSCALE
 40
1.0
  9
$SAVEIMAGES
 70
         0
  0
ENDSEC
  0
SECTION
  2
CLASSES
  0
CLASS
  1
LWPOLYLINE
  2
AcDbPolyline
  3
"AutoCAD"
 90
    32768
280
         0
281
         1
  0
CLASS
  1
IMAGE
  2
AcDbRasterImage
  3
ISM
 90
    32895
280
         0
281
         1
  0
CLASS
  1
OLE2FRAME
  2
AcDbOle2Frame
  3
""
 90
    32768
280
         0
281
         1
  0
CLASS
  1
HATCH
  2
AcDbHatch
  3
"ACAD_SEDONA"
 90
    32768
280
         0
281
         1
  0
CLASS
  1
DICTIONARYVAR
  2
AcDbDictionaryVar
  3
"AutoCAD"
 90
    32768
280
         0
281
         0
  0
CLASS
  1
RASTERVARIABLES
  2
AcDbRasterVariables
  3
ISM
 90
    32768
280
         0
281
         0
  0
CLASS
  1
IMAGEDEF
  2
AcDbRasterImageDef
  3
ISM
 90
    32768
280
         0
281
         0
  0
CLASS
  1
IMAGEDEF_REACTOR
  2
AcDbRasterImageDefReactor
  3
ISM
 90
    32769
280
         0
281
         0
  0
CLASS
  1
IDBUFFER
  2
AcDbIdBuffer
  3
"Acad"
 90
    32768
280
         0
281
         0
  0
CLASS
  1
SPATIAL_FILTER
  2
AcDbSpatialFilter
  3
"Acad"
 90
    32768
280
         0
281
         0
  0
CLASS
  1
XRECORD
  2
AcDbXrecord
  3
"<Built In>"
 90
    32768
280
         0
281
         0
  0
CLASS
  1
SORTENTSTABLE
  2
AcDbSortentsTable
  3
"AutoCAD"
 90
    32768
280
         0
281
         0
  0
CLASS
  1
LAYER_INDEX
  2
AcDbLayerIndex
  3
"Acad"
 90
    32768
280
         0
281
         0
  0
CLASS
  1
SPATIAL_INDEX
  2
AcDbSpatialIndex
  3
"Acad"
 90
    32768
280
         0
281
         0
  0
CLASS
  1
OBJECT_PTR
  2
CAseDLPNTableRecord
  3
"ASE-LPNTableRecord"
 90
    32769
280
         0
281
         0
  0
CLASS
  1
LAYOUT
  2
AcDbLayout
  3
"AutoCAD 2000"
 90
    32768
280
         0
281
         0
  0
CLASS
  1
PLOTSETTINGS
  2
AcDbPlotSettings
  3
"AutoCAD 2000"
 90
    32768
280
         0
281
         0
  0
CLASS
  1
ACDBDICTIONARYWDFLT
  2
AcDbDictionaryWithDefault
  3
"AutoCAD 2000"
 90
    32768
280
         0
281
         0
  0
CLASS
  1
ACDBPLACEHOLDER
  2
AcDbPlaceHolder
  3
"AutoCAD 2000"
 90
    32768
280
         0
281
         0
  0
CLASS
  1
VBA_PROJECT
  2
AcDbVbaProject
  3
"acadvba"
 90
    32768
280
         0
281
         0
  0
CLASS
  1
WIPEOUT
  2
AcDbWipeout
  3
WipeOut|AutoCAD Express Tool|expresstools@autodesk.com
 90
    32895
280
         0
281
         1
  0
CLASS
  1
WIPEOUTVARIABLES
  2
AcDbWipeoutVariables
  3
WipeOut|AutoCAD Express Tool|expresstools@autodesk.com
 90
    32768
280
         0
281
         0
  0
CLASS
  1
RTEXT
  2
RText
  3
RText|AutoCAD Express Tool|expresstools@autodesk.com
 90
    32768
280
         0
281
         1
  0
CLASS
  1
ARCALIGNEDTEXT
  2
AcDbArcAlignedText
  3
ATEXT|AutoCAD Express Tool|expresstools@autodesk.com
 90
    32768
280
         0
281
         1
  0
ENDSEC
  0
SECTION
  2
TABLES
  0
TABLE
  2
VPORT
  5
7
100
AcDbSymbolTable
 70
         1
  0
VPORT
  5
15
100
AcDbSymbolTableRecord
100
AcDbViewportTableRecord
  2
*ACTIVE
 70
         0
 10
0.0
 20
0.0
 11
1.0
 21
1.0
 12
297.0
 22
210.0
 13
0.0
 23
0.0
 14
1.0
 24
1.0
 15
0.0
 25
0.0
 16
0.0
 26
0.0
 36
1.0
 17
0.0
 27
0.0
 37
0.0
 40
420.0
 41
0.7070707071
 42
50.0
 43
0.0
 44
0.0
 50
0.0
 51
0.0
 71
         0
 72
      2000
 73
         1
 74
         1
 75
         0
 76
         0
 77
         0
 78
         0
  0
ENDTAB
  0
TABLE
  2
LTYPE
  5
4
100
AcDbSymbolTable
 70
         8
  0
LTYPE
  5
11
100
AcDbSymbolTableRecord
100
AcDbLinetypeTableRecord
  2
BYBLOCK
 70
        64
  3

 72
        65
 73
         0
 40
0.0
  0
LTYPE
  5
12
100
AcDbSymbolTableRecord
100
AcDbLinetypeTableRecord
  2
BYLAYER
 70
        64
  3

 72
        65
 73
         0
 40
0.0
  0
LTYPE
  5
13
100
AcDbSymbolTableRecord
100
AcDbLinetypeTableRecord
  2
CONTINUOUS
 70
        64
  3
Solid line
 72
        65
 73
         0
 40
0.0
  0
LTYPE
  5
1D
100
AcDbSymbolTableRecord
100
AcDbLinetypeTableRecord
  2
HIDDEN
 70
        64
  3
Hidden __ __ __ __ __ __ __ __ __ __ __ __ __ __
 72
        65
 73
         2
 40
1.905
 49
1.27
 74
         0
 49
-0.635
 74
         0
  0
LTYPE
  5
1E
100
AcDbSymbolTableRecord
100
AcDbLinetypeTableRecord
  2
PHANTOM
 70
        64
  3
Phantom ______  __  __  ______  __  __  ______
 72
        65
 73
         6
 40
12.7
 49
6.35
 74
         0
 49
-1.27
 74
         0
 49
1.27
 74
         0
 49
-1.27
 74
         0
 49
1.27
 74
         0
 49
-1.27
 74
         0
  0
LTYPE
  5
1F
100
AcDbSymbolTableRecord
100
AcDbLinetypeTableRecord
  2
CENTER
 70
        64
  3
Center ____ _ ____ _ ____ _ ____ _ ____ _ ____
 72
        65
 73
         4
 40
10.16
 49
6.35
 74
         0
 49
-1.27
 74
         0
 49
1.27
 74
         0
 49
-1.27
 74
         0
  0
LTYPE
  5
20
100
AcDbSymbolTableRecord
100
AcDbLinetypeTableRecord
  2
CENTERX2
 70
        64
  3
Center (2x) ________  __  ________  __  _____
 72
        65
 73
         4
 40
20.32
 49
12.7
 74
         0
 49
-2.54
 74
         0
 49
2.54
 74
         0
 49
-2.54
 74
         0
  0
LTYPE
  5
21
100
AcDbSymbolTableRecord
100
AcDbLinetypeTableRecord
  2
DOT2
 70
        64
  3
Dot (.5x) ........................................
 72
        65
 73
         2
 40
0.635
 49
0.0
 74
         0
 49
-0.635
 74
         0
  0
ENDTAB
  0
TABLE
  2
LAYER
  5
2
100
AcDbSymbolTable
 70
         2
  0
LAYER
  5
14
100
AcDbSymbolTableRecord
100
AcDbLayerTableRecord
  2
0
 70
         0
 62
         7
  6
CONTINUOUS
  0
LAYER
  5
23
100
AcDbSymbolTableRecord
100
AcDbLayerTableRecord
  2
DEFPOINTS
 70
         0
 62
         7
  6
CONTINUOUS
  0
ENDTAB
  0
TABLE
  2
STYLE
  5
3
100
AcDbSymbolTable
 70
         1
  0
STYLE
  5
17
100
AcDbSymbolTableRecord
100
AcDbTextStyleTableRecord
  2
STANDARD
 70
         0
 40
0.0
 41
1.0
 50
0.0
 71
         0
 42
0.0
  3
txt
  4
bigfont
  0
ENDTAB
  0
TABLE
  2
VIEW
  5
5
100
AcDbSymbolTable
 70
         0
  0
ENDTAB
  0
TABLE
  2
UCS
  5
6
100
AcDbSymbolTable
 70
         0
  0
ENDTAB
  0
TABLE
  2
APPID
  5
8
100
AcDbSymbolTable
 70
         1
  0
APPID
  5
16
100
AcDbSymbolTableRecord
100
AcDbRegAppTableRecord
  2
ACAD
 70
         0
  0
ENDTAB
  0
TABLE
  2
DIMSTYLE
  5
9
100
AcDbSymbolTable
 70
         1
  0
DIMSTYLE
105
18
100
AcDbSymbolTableRecord
100
AcDbDimStyleTableRecord
  2
STANDARD
 70
         0
  3

  4

  5

  6

  7

 40
1.0
 41
0.18
 42
0.0625
 43
0.38
 44
0.18
 45
0.0
 46
0.0
 47
0.0
 48
0.0
 71
         0
 72
         0
 73
         1
 74
         1
 75
         0
 76
         0
 77
         0
 78
         0
140
0.18
141
0.09
142
0.0
143
25.4
144
1.0
145
0.0
146
1.0
147
0.09
170
         0
171
         2
172
         0
173
         0
174
         0
175
         0
176
         0
177
         0
178
         0
270
         2
271
         4
272
         4
273
         2
274
         2
275
         0
280
         0
281
         0
282
         0
283
         1
284
         0
285
         0
286
         0
287
         3
288
         0
340
17
  0
ENDTAB
  0
TABLE
  2
BLOCK_RECORD
  5
1
100
AcDbSymbolTable
 70
         0
  0
BLOCK_RECORD
  5
A
100
AcDbSymbolTableRecord
100
AcDbBlockTableRecord
  2
*MODEL_SPACE
  0
BLOCK_RECORD
  5
B
100
AcDbSymbolTableRecord
100
AcDbBlockTableRecord
  2
*PAPER_SPACE
  0
ENDTAB
  0
ENDSEC
  0
SECTION
  2
BLOCKS
  0
BLOCK
  5
D
100
AcDbEntity
  8
0
100
AcDbBlockBegin
  2
*MODEL_SPACE
 70
         0
 10
0.0
 20
0.0
 30
0.0
  3
*MODEL_SPACE
  1

  0
ENDBLK
  5
E
100
AcDbEntity
  8
0
100
AcDbBlockEnd
  0
BLOCK
  5
F
100
AcDbEntity
 67
         1
  8
0
100
AcDbBlockBegin
  2
*PAPER_SPACE
 70
         0
 10
0.0
 20
0.0
 30
0.0
  3
*PAPER_SPACE
  1

  0
ENDBLK
  5
10
100
AcDbEntity
 67
         1
  8
0
100
AcDbBlockEnd
  0
ENDSEC
  0
SECTION
  2
ENTITIES
  0
LINE
  5
24
100
AcDbEntity
  8
0
  6
CONTINUOUS
 62
         7
100
AcDbLine
 10
226.6161823966
 20
210.9637539767
 30
0.0
 11
226.6161823966
 21
210.9637539767
 31
0.0
  0
LINE
  5
25
100
AcDbEntity
  8
0
  6
CONTINUOUS
 62
         7
100
AcDbLine
 10
226.6161823966
 20
210.9637539767
 30
0.0
 11
226.6161823966
 21
211.169354825
 31
0.0
  0
LINE
  5
26
100
AcDbEntity
  8
0
  6
CONTINUOUS
 62
         7
100
AcDbLine
 10
254.6161823966
 20
200.2637539767
 30
0.0
 11
255.0161823966
 21
200.2637539767
 31
0.0
  0
LINE
  5
27
100
AcDbEntity
  8
0
  6
CONTINUOUS
 62
         7
100
AcDbLine
 10
255.0161823966
 20
221.6637539767
 30
0.0
 11
254.6161823966
 21
221.6637539767
 31
0.0
  0
LINE
  5
28
100
AcDbEntity
  8
0
  6
CONTINUOUS
 62
         7
100
AcDbLine
 10
256.2161823966
 20
200.2637539767
 30
0.0
 11
346.4161823966
 21
200.2637539767
 31
0.0
  0
LINE
  5
29
100
AcDbEntity
  8
0
  6
CONTINUOUS
 62
         7
100
AcDbLine
 10
346.4161823966
 20
221.6637539767
 30
0.0
 11
256.2161823966
 21
221.6637539767
 31
0.0
  0
LINE
  5
2A
100
AcDbEntity
  8
0
  6
CONTINUOUS
 62
         7
100
AcDbLine
 10
255.4161823966
 20
200.2637539767
 30
0.0
 11
255.8161823966
 21
200.2637539767
 31
0.0
  0
LINE
  5
2B
100
AcDbEntity
  8
0
  6
CONTINUOUS
 62
         7
100
AcDbLine
 10
255.8161823966
 20
221.6637539767
 30
0.0
 11
255.4161823966
 21
221.6637539767
 31
0.0
  0
LINE
  5
2C
100
AcDbEntity
  8
0
  6
CONTINUOUS
 62
         7
100
AcDbLine
 10
346.8161823966
 20
200.2637539767
 30
0.0
 11
347.2161823966
 21
200.2637539767
 31
0.0
  0
LINE
  5
2D
100
AcDbEntity
  8
0
  6
CONTINUOUS
 62
         7
100
AcDbLine
 10
347.2161823966
 20
221.6637539767
 30
0.0
 11
346.8161823966
 21
221.6637539767
 31
0.0
  0
LINE
  5
2E
100
AcDbEntity
  8
0
  6
CONTINUOUS
 62
         7
100
AcDbLine
 10
347.6161823966
 20
200.2637539767
 30
0.0
 11
357.6161823966
 21
200.2637539767
 31
0.0
  0
LINE
  5
2F
100
AcDbEntity
  8
0
  6
CONTINUOUS
 62
         7
100
AcDbLine
 10
357.6161823966
 20
221.6637539767
 30
0.0
 11
347.6161823966
 21
221.6637539767
 31
0.0
  0
LINE
  5
30
100
AcDbEntity
  8
0
  6
CONTINUOUS
 62
         7
100
AcDbLine
 10
347.2161823966
 20
200.6637539767
 30
0.0
 11
347.6161823966
 21
200.6637539767
 31
0.0
  0
LINE
  5
31
100
AcDbEntity
  8
0
  6
CONTINUOUS
 62
         7
100
AcDbLine
 10
347.6161823966
 20
221.2637539767
 30
0.0
 11
347.2161823966
 21
221.2637539767
 31
0.0
  0
LINE
  5
32
100
AcDbEntity
  8
0
  6
CONTINUOUS
 62
         7
100
AcDbLine
 10
346.4161823966
 20
200.6637539767
 30
0.0
 11
346.8161823966
 21
200.6637539767
 31
0.0
  0
LINE
  5
33
100
AcDbEntity
  8
0
  6
CONTINUOUS
 62
         7
100
AcDbLine
 10
346.8161823966
 20
221.2637539767
 30
0.0
 11
346.4161823966
 21
221.2637539767
 31
0.0
  0
LINE
  5
34
100
AcDbEntity
  8
0
  6
CONTINUOUS
 62
         7
100
AcDbLine
 10
255.8161823966
 20
200.6637539767
 30
0.0
 11
256.2161823966
 21
200.6637539767
 31
0.0
  0
LINE
  5
35
100
AcDbEntity
  8
0
  6
CONTINUOUS
 62
         7
100
AcDbLine
 10
256.2161823966
 20
221.2637539767
 30
0.0
 11
255.8161823966
 21
221.2637539767
 31
0.0
  0
LINE
  5
36
100
AcDbEntity
  8
0
  6
CONTINUOUS
 62
         7
100
AcDbLine
 10
255.0161823966
 20
200.6637539767
 30
0.0
 11
255.4161823966
 21
200.6637539767
 31
0.0
  0
LINE
  5
37
100
AcDbEntity
  8
0
  6
CONTINUOUS
 62
         7
100
AcDbLine
 10
255.4161823966
 20
221.2637539767
 30
0.0
 11
255.0161823966
 21
221.2637539767
 31
0.0
  0
LINE
  5
38
100
AcDbEntity
  8
0
  6
CONTINUOUS
 62
         7
100
AcDbLine
 10
226.6161823966
 20
214.9637539767
 30
0.0
 11
218.7161823966
 21
214.9637539767
 31
0.0
  0
LINE
  5
39
100
AcDbEntity
  8
0
  6
CONTINUOUS
 62
         7
100
AcDbLine
 10
218.7161823966
 20
206.9637539767
 30
0.0
 11
226.6161823966
 21
206.9637539767
 31
0.0
  0
LINE
  5
3A
100
AcDbEntity
  8
0
  6
CONTINUOUS
 62
         7
100
AcDbLine
 10
218.6161823966
 20
214.9637539767
 30
0.0
 11
213.6161823966
 21
214.9637539767
 31
0.0
  0
LINE
  5
3B
100
AcDbEntity
  8
0
  6
CONTINUOUS
 62
         7
100
AcDbLine
 10
208.6161823966
 20
214.9637539767
 30
0.0
 11
204.1161823966
 21
214.9637539767
 31
0.0
  0
LINE
  5
3C
100
AcDbEntity
  8
0
  6
CONTINUOUS
 62
         7
100
AcDbLine
 10
204.1161823966
 20
206.9637539767
 30
0.0
 11
208.6161823966
 21
206.9637539767
 31
0.0
  0
LINE
  5
3D
100
AcDbEntity
  8
0
  6
CONTINUOUS
 62
         7
100
AcDbLine
 10
213.6161823966
 20
206.9637539767
 30
0.0
 11
218.6161823966
 21
206.9637539767
 31
0.0
  0
LINE
  5
3E
100
AcDbEntity
  8
0
  6
CONTINUOUS
 62
         7
100
AcDbLine
 10
204.1161823966
 20
214.9637539767
 30
0.0
 11
203.6161823966
 21
214.4637539767
 31
0.0
  0
LINE
  5
3F
100
AcDbEntity
  8
0
  6
CONTINUOUS
 62
         7
100
AcDbLine
 10
203.6161823966
 20
207.4637539767
 30
0.0
 11
204.1161823966
 21
206.9637539767
 31
0.0
  0
LINE
  5
40
100
AcDbEntity
  8
0
  6
CONTINUOUS
 62
         7
100
AcDbLine
 10
209.1161823966
 20
217.8919572069
 30
0.0
 11
208.6161823966
 21
217.3919572069
 31
0.0
  0
LINE
  5
41
100
AcDbEntity
  8
0
  6
CONTINUOUS
 62
         7
100
AcDbLine
 10
213.6161823966
 20
217.3919572069
 30
0.0
 11
213.1161823966
 21
217.8919572069
 31
0.0
  0
LINE
  5
42
100
AcDbEntity
  8
0
  6
CONTINUOUS
 62
         7
100
AcDbLine
 10
208.6161823966
 20
204.5355507464
 30
0.0
 11
209.1161823966
 21
204.0355507464
 31
0.0
  0
LINE
  5
43
100
AcDbEntity
  8
0
  6
CONTINUOUS
 62
         7
100
AcDbLine
 10
213.1161823966
 20
204.0355507464
 30
0.0
 11
213.6161823966
 21
204.5355507464
 31
0.0
  0
LINE
  5
44
100
AcDbEntity
  8
0
  6
CONTINUOUS
 62
         7
100
AcDbLine
 10
226.6161823966
 20
198.4637539767
 30
0.0
 11
254.6161823966
 21
198.4637539767
 31
0.0
  0
LINE
  5
45
100
AcDbEntity
  8
0
  6
CONTINUOUS
 62
         7
100
AcDbLine
 10
226.6161823966
 20
223.4637539767
 30
0.0
 11
226.6161823966
 21
198.4637539767
 31
0.0
  0
LINE
  5
46
100
AcDbEntity
  8
0
  6
CONTINUOUS
 62
         7
100
AcDbLine
 10
254.6161823966
 20
223.4637539767
 30
0.0
 11
226.6161823966
 21
223.4637539767
 31
0.0
  0
LINE
  5
47
100
AcDbEntity
  8
0
  6
CONTINUOUS
 62
         7
100
AcDbLine
 10
254.6161823966
 20
223.4637539767
 30
0.0
 11
254.6161823966
 21
198.4637539767
 31
0.0
  0
CIRCLE
  5
48
100
AcDbEntity
  8
0
  6
CONTINUOUS
 62
         7
100
AcDbCircle
 10
246.6161823966
 20
210.9637539767
 30
0.0
 40
4.85
  0
LINE
  5
49
100
AcDbEntity
  8
0
  6
CONTINUOUS
 62
         7
100
AcDbLine
 10
254.6161823966
 20
196.9637539767
 30
0.0
 11
226.6161823966
 21
196.9637539767
 31
0.0
  0
LINE
  5
4A
100
AcDbEntity
  8
0
  6
CONTINUOUS
 62
         7
100
AcDbLine
 10
226.6161823966
 20
196.9637539767
 30
0.0
 11
226.6161823966
 21
198.4637539767
 31
0.0
  0
LINE
  5
4B
100
AcDbEntity
  8
0
  6
CONTINUOUS
 62
         7
100
AcDbLine
 10
254.6161823966
 20
198.4637539767
 30
0.0
 11
254.6161823966
 21
196.9637539767
 31
0.0
  0
CIRCLE
  5
4C
100
AcDbEntity
  8
0
  6
CONTINUOUS
 62
         7
100
AcDbCircle
 10
246.6161823966
 20
210.9637539767
 30
0.0
 40
4.35
  0
LINE
  5
4D
100
AcDbEntity
  8
0
  6
CONTINUOUS
 62
         7
100
AcDbLine
 10
226.6161823966
 20
224.9637539767
 30
0.0
 11
254.6161823966
 21
224.9637539767
 31
0.0
  0
LINE
  5
4E
100
AcDbEntity
  8
0
  6
CONTINUOUS
 62
         7
100
AcDbLine
 10
226.6161823966
 20
223.4637539767
 30
0.0
 11
226.6161823966
 21
224.9637539767
 31
0.0
  0
LINE
  5
4F
100
AcDbEntity
  8
0
  6
CONTINUOUS
 62
         7
100
AcDbLine
 10
254.6161823966
 20
224.9637539767
 30
0.0
 11
254.6161823966
 21
223.4637539767
 31
0.0
  0
LINE
  5
50
100
AcDbEntity
  8
0
  6
CONTINUOUS
 62
         7
100
AcDbLine
 10
255.0161823966
 20
200.2637539767
 30
0.0
 11
255.0161823966
 21
221.6637539767
 31
0.0
  0
LINE
  5
51
100
AcDbEntity
  8
0
  6
CONTINUOUS
 62
         7
100
AcDbLine
 10
346.4161823966
 20
200.2637539767
 30
0.0
 11
346.4161823966
 21
221.6637539767
 31
0.0
  0
LINE
  5
52
100
AcDbEntity
  8
0
  6
CONTINUOUS
 62
         7
100
AcDbLine
 10
256.2161823966
 20
200.2637539767
 30
0.0
 11
256.2161823966
 21
221.6637539767
 31
0.0
  0
LINE
  5
53
100
AcDbEntity
  8
0
  6
CONTINUOUS
 62
         7
100
AcDbLine
 10
255.8161823966
 20
200.2637539767
 30
0.0
 11
255.8161823966
 21
221.6637539767
 31
0.0
  0
LINE
  5
54
100
AcDbEntity
  8
0
  6
CONTINUOUS
 62
         7
100
AcDbLine
 10
255.4161823966
 20
200.2637539767
 30
0.0
 11
255.4161823966
 21
221.6637539767
 31
0.0
  0
LINE
  5
55
100
AcDbEntity
  8
0
  6
CONTINUOUS
 62
         7
100
AcDbLine
 10
346.8161823966
 20
200.2637539767
 30
0.0
 11
346.8161823966
 21
221.6637539767
 31
0.0
  0
LINE
  5
56
100
AcDbEntity
  8
0
  6
CONTINUOUS
 62
         7
100
AcDbLine
 10
347.2161823966
 20
200.2637539767
 30
0.0
 11
347.2161823966
 21
221.6637539767
 31
0.0
  0
LINE
  5
57
100
AcDbEntity
  8
0
  6
CONTINUOUS
 62
         7
100
AcDbLine
 10
352.6161823966
 20
217.4629847004
 30
0.0
 11
357.6161823966
 21
217.4629847004
 31
0.0
  0
LINE
  5
58
100
AcDbEntity
  8
0
  6
CONTINUOUS
 62
         7
100
AcDbLine
 10
352.6161823966
 20
217.4629847004
 30
0.0
 11
352.6161823966
 21
204.464523253
 31
0.0
  0
LINE
  5
59
100
AcDbEntity
  8
0
  6
CONTINUOUS
 62
         7
100
AcDbLine
 10
352.6161823966
 20
204.464523253
 30
0.0
 11
357.6161823966
 21
204.464523253
 31
0.0
  0
LINE
  5
5A
100
AcDbEntity
  8
0
  6
CONTINUOUS
 62
         7
100
AcDbLine
 10
357.6161823966
 20
200.2637539767
 30
0.0
 11
357.6161823966
 21
204.464523253
 31
0.0
  0
LINE
  5
5B
100
AcDbEntity
  8
0
  6
CONTINUOUS
 62
         7
100
AcDbLine
 10
357.6161823966
 20
217.4629847004
 30
0.0
 11
357.6161823966
 21
221.6637539767
 31
0.0
  0
LINE
  5
5C
100
AcDbEntity
  8
0
  6
CONTINUOUS
 62
         7
100
AcDbLine
 10
347.6161823966
 20
200.2637539767
 30
0.0
 11
347.6161823966
 21
221.6637539767
 31
0.0
  0
LINE
  5
5D
100
AcDbEntity
  8
0
  6
CONTINUOUS
 62
         7
100
AcDbLine
 10
357.6161823966
 20
204.464523253
 30
0.0
 11
357.6161823966
 21
217.4629847004
 31
0.0
  0
LINE
  5
5E
100
AcDbEntity
  8
0
  6
CONTINUOUS
 62
         7
100
AcDbLine
 10
218.7161823966
 20
207.0349676923
 30
0.0
 11
218.7161823966
 21
206.9637539767
 31
0.0
  0
LINE
  5
5F
100
AcDbEntity
  8
0
  6
CONTINUOUS
 62
         7
100
AcDbLine
 10
218.7161823966
 20
214.9637539767
 30
0.0
 11
218.7161823966
 21
207.0349676923
 31
0.0
  0
LINE
  5
60
100
AcDbEntity
  8
0
  6
CONTINUOUS
 62
         7
100
AcDbLine
 10
204.1161823966
 20
214.9637539767
 30
0.0
 11
204.1161823966
 21
206.9637539767
 31
0.0
  0
LINE
  5
61
100
AcDbEntity
  8
0
  6
CONTINUOUS
 62
         7
100
AcDbLine
 10
218.6161823966
 20
207.0349676923
 30
0.0
 11
218.6161823966
 21
206.9637539767
 31
0.0
  0
LINE
  5
62
100
AcDbEntity
  8
0
  6
CONTINUOUS
 62
         7
100
AcDbLine
 10
218.6161823966
 20
214.9637539767
 30
0.0
 11
218.6161823966
 21
207.0349676923
 31
0.0
  0
LINE
  5
63
100
AcDbEntity
  8
0
  6
CONTINUOUS
 62
         7
100
AcDbLine
 10
203.6161823966
 20
207.4637539767
 30
0.0
 11
203.6161823966
 21
214.4637539767
 31
0.0
  0
LINE
  5
64
100
AcDbEntity
  8
0
  6
CONTINUOUS
 62
         7
100
AcDbLine
 10
209.1161823966
 20
217.8919572069
 30
0.0
 11
208.6161823966
 21
217.313357392
 31
0.0
  0
LINE
  5
65
100
AcDbEntity
  8
0
  6
CONTINUOUS
 62
         7
100
AcDbLine
 10
209.1161823966
 20
217.8919572069
 30
0.0
 11
213.1161823966
 21
217.8919572069
 31
0.0
  0
LINE
  5
66
100
AcDbEntity
  8
0
  6
CONTINUOUS
 62
         7
100
AcDbLine
 10
213.6161823966
 20
217.313357392
 30
0.0
 11
213.1161823966
 21
217.8919572069
 31
0.0
  0
LINE
  5
67
100
AcDbEntity
  8
0
  6
CONTINUOUS
 62
         7
100
AcDbLine
 10
213.6161823966
 20
217.313357392
 30
0.0
 11
213.6161823966
 21
215.0064554067
 31
0.0
  0
LINE
  5
68
100
AcDbEntity
  8
0
  6
CONTINUOUS
 62
         7
100
AcDbLine
 10
213.1161823966
 20
214.4278555918
 30
0.0
 11
213.6161823966
 21
215.0064554067
 31
0.0
  0
LINE
  5
69
100
AcDbEntity
  8
0
  6
CONTINUOUS
 62
         7
100
AcDbLine
 10
209.1161823966
 20
214.4278555918
 30
0.0
 11
213.1161823966
 21
214.4278555918
 31
0.0
  0
LINE
  5
6A
100
AcDbEntity
  8
0
  6
CONTINUOUS
 62
         7
100
AcDbLine
 10
208.6161823966
 20
215.0064554067
 30
0.0
 11
209.1161823966
 21
214.4278555918
 31
0.0
  0
LINE
  5
6B
100
AcDbEntity
  8
0
  6
CONTINUOUS
 62
         7
100
AcDbLine
 10
208.6161823966
 20
217.313357392
 30
0.0
 11
208.6161823966
 21
215.0064554067
 31
0.0
  0
LINE
  5
6C
100
AcDbEntity
  8
0
  6
CONTINUOUS
 62
         7
100
AcDbLine
 10
213.6161823966
 20
213.270655962
 30
0.0
 11
213.1161823966
 21
214.4278555918
 31
0.0
  0
POLYLINE
  5
6D
100
AcDbEntity
  8
0
  6
CONTINUOUS
 62
         7
100
AcDb2dPolyline
 66
         1
 10
0.0
 20
0.0
 30
0.0
 70
       128
  0
VERTEX
  5
6E
100
AcDbEntity
  8
0
100
AcDbVertex
100
AcDb2dVertex
 10
213.1161823966
 20
207.4996523615
 30
0.0
  0
VERTEX
  5
6F
100
AcDbEntity
  8
0
100
AcDbVertex
100
AcDb2dVertex
 10
213.4868384657
 20
208.3177334229
 30
0.0
  0
VERTEX
  5
70
100
AcDbEntity
  8
0
100
AcDbVertex
100
AcDb2dVertex
 10
213.6161823966
 20
208.6568519914
 30
0.0
  0
SEQEND
  5
71
100
AcDbEntity
  8
0
  0
LINE
  5
72
100
AcDbEntity
  8
0
  6
CONTINUOUS
 62
         7
100
AcDbLine
 10
209.1161823966
 20
207.4996523615
 30
0.0
 11
213.1161823966
 21
207.4996523615
 31
0.0
  0
POLYLINE
  5
73
100
AcDbEntity
  8
0
  6
CONTINUOUS
 62
         7
100
AcDb2dPolyline
 66
         1
 10
0.0
 20
0.0
 30
0.0
 70
       128
  0
VERTEX
  5
74
100
AcDbEntity
  8
0
100
AcDbVertex
100
AcDb2dVertex
 10
208.6161823966
 20
208.6568519914
 30
0.0
  0
VERTEX
  5
75
100
AcDbEntity
  8
0
100
AcDbVertex
100
AcDb2dVertex
 10
208.7455263275
 20
208.3177334229
 30
0.0
  0
VERTEX
  5
76
100
AcDbEntity
  8
0
100
AcDbVertex
100
AcDb2dVertex
 10
209.1161823966
 20
207.4996523615
 30
0.0
  0
SEQEND
  5
77
100
AcDbEntity
  8
0
  0
LINE
  5
78
100
AcDbEntity
  8
0
  6
CONTINUOUS
 62
         7
100
AcDbLine
 10
209.1161823966
 20
214.4278555918
 30
0.0
 11
208.6161823966
 21
213.270655962
 31
0.0
  0
LINE
  5
79
100
AcDbEntity
  8
0
  6
CONTINUOUS
 62
         7
100
AcDbLine
 10
213.6161823966
 20
213.270655962
 30
0.0
 11
213.6161823966
 21
208.6568519914
 31
0.0
  0
LINE
  5
7A
100
AcDbEntity
  8
0
  6
CONTINUOUS
 62
         7
100
AcDbLine
 10
208.6161823966
 20
213.270655962
 30
0.0
 11
208.6161823966
 21
208.6568519914
 31
0.0
  0
LINE
  5
7B
100
AcDbEntity
  8
0
  6
CONTINUOUS
 62
         7
100
AcDbLine
 10
213.6161823966
 20
215.0064554067
 30
0.0
 11
213.6161823966
 21
213.270655962
 31
0.0
  0
LINE
  5
7C
100
AcDbEntity
  8
0
  6
CONTINUOUS
 62
         7
100
AcDbLine
 10
208.6161823966
 20
215.0064554067
 30
0.0
 11
208.6161823966
 21
213.270655962
 31
0.0
  0
LINE
  5
7D
100
AcDbEntity
  8
0
  6
CONTINUOUS
 62
         7
100
AcDbLine
 10
209.1161823966
 20
207.4996523615
 30
0.0
 11
208.6161823966
 21
206.9210525466
 31
0.0
  0
LINE
  5
7E
100
AcDbEntity
  8
0
  6
CONTINUOUS
 62
         7
100
AcDbLine
 10
208.6161823966
 20
208.6568519914
 30
0.0
 11
208.6161823966
 21
206.9210525466
 31
0.0
  0
LINE
  5
7F
100
AcDbEntity
  8
0
  6
CONTINUOUS
 62
         7
100
AcDbLine
 10
213.6161823966
 20
206.9210525466
 30
0.0
 11
213.1161823966
 21
207.4996523615
 31
0.0
  0
LINE
  5
80
100
AcDbEntity
  8
0
  6
CONTINUOUS
 62
         7
100
AcDbLine
 10
213.6161823966
 20
208.6568519914
 30
0.0
 11
213.6161823966
 21
206.9210525466
 31
0.0
  0
LINE
  5
81
100
AcDbEntity
  8
0
  6
CONTINUOUS
 62
         7
100
AcDbLine
 10
213.1161823966
 20
204.0355507464
 30
0.0
 11
213.6161823966
 21
204.6141505613
 31
0.0
  0
LINE
  5
82
100
AcDbEntity
  8
0
  6
CONTINUOUS
 62
         7
100
AcDbLine
 10
209.1161823966
 20
204.0355507464
 30
0.0
 11
213.1161823966
 21
204.0355507464
 31
0.0
  0
LINE
  5
83
100
AcDbEntity
  8
0
  6
CONTINUOUS
 62
         7
100
AcDbLine
 10
208.6161823966
 20
204.6141505613
 30
0.0
 11
209.1161823966
 21
204.0355507464
 31
0.0
  0
LINE
  5
84
100
AcDbEntity
  8
0
  6
CONTINUOUS
 62
         7
100
AcDbLine
 10
213.6161823966
 20
206.9210525466
 30
0.0
 11
213.6161823966
 21
204.6141505613
 31
0.0
  0
LINE
  5
85
100
AcDbEntity
  8
0
  6
CONTINUOUS
 62
         7
100
AcDbLine
 10
208.6161823966
 20
206.9210525466
 30
0.0
 11
208.6161823966
 21
204.6141505613
 31
0.0
  0
LINE
  5
86
100
AcDbEntity
  8
0
  6
CONTINUOUS
 62
         7
100
AcDbLine
 10
208.6161823966
 20
217.3919572069
 30
0.0
 11
208.6161823966
 21
217.313357392
 31
0.0
  0
LINE
  5
87
100
AcDbEntity
  8
0
  6
CONTINUOUS
 62
         7
100
AcDbLine
 10
213.6161823966
 20
217.3919572069
 30
0.0
 11
213.6161823966
 21
217.313357392
 31
0.0
  0
LINE
  5
88
100
AcDbEntity
  8
0
  6
CONTINUOUS
 62
         7
100
AcDbLine
 10
208.6161823966
 20
204.6141505613
 30
0.0
 11
208.6161823966
 21
204.5355507464
 31
0.0
  0
LINE
  5
89
100
AcDbEntity
  8
0
  6
CONTINUOUS
 62
         7
100
AcDbLine
 10
213.6161823966
 20
204.6141505613
 30
0.0
 11
213.6161823966
 21
204.5355507464
 31
0.0
  0
LINE
  5
8A
100
AcDbEntity
  8
0
  6
CONTINUOUS
 62
         7
100
AcDbLine
 10
226.6161823966
 20
296.701611877
 30
0.0
 11
226.6161823966
 21
296.5988114528
 31
0.0
  0
LINE
  5
8B
100
AcDbEntity
  8
0
  6
CONTINUOUS
 62
         7
100
AcDbLine
 10
226.6161823966
 20
296.701611877
 30
0.0
 11
226.6161823966
 21
296.701611877
 31
0.0
  0
LINE
  5
8C
100
AcDbEntity
  8
0
  6
CONTINUOUS
 62
         7
100
AcDbLine
 10
347.6161823966
 20
286.001611877
 30
0.0
 11
352.6161823966
 21
286.001611877
 31
0.0
  0
LINE
  5
8D
100
AcDbEntity
  8
0
  6
CONTINUOUS
 62
         7
100
AcDbLine
 10
352.6161823966
 20
307.401611877
 30
0.0
 11
347.6161823966
 21
307.401611877
 31
0.0
  0
LINE
  5
8E
100
AcDbEntity
  8
0
  6
CONTINUOUS
 62
         7
100
AcDbLine
 10
255.4161823966
 20
286.001611877
 30
0.0
 11
255.8161823966
 21
286.001611877
 31
0.0
  0
LINE
  5
8F
100
AcDbEntity
  8
0
  6
CONTINUOUS
 62
         7
100
AcDbLine
 10
255.8161823966
 20
307.401611877
 30
0.0
 11
255.4161823966
 21
307.401611877
 31
0.0
  0
LINE
  5
90
100
AcDbEntity
  8
0
  6
CONTINUOUS
 62
         7
100
AcDbLine
 10
254.6161823966
 20
286.001611877
 30
0.0
 11
255.0161823966
 21
286.001611877
 31
0.0
  0
LINE
  5
91
100
AcDbEntity
  8
0
  6
CONTINUOUS
 62
         7
100
AcDbLine
 10
255.0161823966
 20
307.401611877
 30
0.0
 11
254.6161823966
 21
307.401611877
 31
0.0
  0
LINE
  5
92
100
AcDbEntity
  8
0
  6
CONTINUOUS
 62
         7
100
AcDbLine
 10
256.2161823966
 20
286.001611877
 30
0.0
 11
346.4161823966
 21
286.001611877
 31
0.0
  0
LINE
  5
93
100
AcDbEntity
  8
0
  6
CONTINUOUS
 62
         7
100
AcDbLine
 10
346.4161823966
 20
307.401611877
 30
0.0
 11
256.2161823966
 21
307.401611877
 31
0.0
  0
LINE
  5
94
100
AcDbEntity
  8
0
  6
CONTINUOUS
 62
         7
100
AcDbLine
 10
346.8161823966
 20
286.001611877
 30
0.0
 11
347.2161823966
 21
286.001611877
 31
0.0
  0
LINE
  5
95
100
AcDbEntity
  8
0
  6
CONTINUOUS
 62
         7
100
AcDbLine
 10
347.2161823966
 20
307.401611877
 30
0.0
 11
346.8161823966
 21
307.401611877
 31
0.0
  0
LINE
  5
96
100
AcDbEntity
  8
0
  6
CONTINUOUS
 62
         7
100
AcDbLine
 10
255.8161823966
 20
286.401611877
 30
0.0
 11
256.2161823966
 21
286.401611877
 31
0.0
  0
LINE
  5
97
100
AcDbEntity
  8
0
  6
CONTINUOUS
 62
         7
100
AcDbLine
 10
256.2161823966
 20
307.001611877
 30
0.0
 11
255.8161823966
 21
307.001611877
 31
0.0
  0
LINE
  5
98
100
AcDbEntity
  8
0
  6
CONTINUOUS
 62
         7
100
AcDbLine
 10
255.0161823966
 20
286.401611877
 30
0.0
 11
255.4161823966
 21
286.401611877
 31
0.0
  0
LINE
  5
99
100
AcDbEntity
  8
0
  6
CONTINUOUS
 62
         7
100
AcDbLine
 10
255.4161823966
 20
307.001611877
 30
0.0
 11
255.0161823966
 21
307.001611877
 31
0.0
  0
LINE
  5
9A
100
AcDbEntity
  8
0
  6
CONTINUOUS
 62
         7
100
AcDbLine
 10
346.4161823966
 20
286.401611877
 30
0.0
 11
346.8161823966
 21
286.401611877
 31
0.0
  0
LINE
  5
9B
100
AcDbEntity
  8
0
  6
CONTINUOUS
 62
         7
100
AcDbLine
 10
346.8161823966
 20
307.001611877
 30
0.0
 11
346.4161823966
 21
307.001611877
 31
0.0
  0
LINE
  5
9C
100
AcDbEntity
  8
0
  6
CONTINUOUS
 62
         7
100
AcDbLine
 10
347.2161823966
 20
286.401611877
 30
0.0
 11
347.6161823966
 21
286.401611877
 31
0.0
  0
LINE
  5
9D
100
AcDbEntity
  8
0
  6
CONTINUOUS
 62
         7
100
AcDbLine
 10
347.6161823966
 20
307.001611877
 30
0.0
 11
347.2161823966
 21
307.001611877
 31
0.0
  0
LINE
  5
9E
100
AcDbEntity
  8
0
  6
CONTINUOUS
 62
         7
100
AcDbLine
 10
252.6161823966
 20
315.701611877
 30
0.0
 11
252.6161823966
 21
317.701611877
 31
0.0
  0
LINE
  5
9F
100
AcDbEntity
  8
0
  6
CONTINUOUS
 62
         7
100
AcDbLine
 10
240.6161823966
 20
317.701611877
 30
0.0
 11
240.6161823966
 21
315.701611877
 31
0.0
  0
LINE
  5
A0
100
AcDbEntity
  8
0
  6
CONTINUOUS
 62
         7
100
AcDbLine
 10
226.6161823966
 20
300.701611877
 30
0.0
 11
218.7161823966
 21
300.701611877
 31
0.0
  0
LINE
  5
A1
100
AcDbEntity
  8
0
  6
CONTINUOUS
 62
         7
100
AcDbLine
 10
218.7161823966
 20
292.701611877
 30
0.0
 11
226.6161823966
 21
292.701611877
 31
0.0
  0
LINE
  5
A2
100
AcDbEntity
  8
0
  6
CONTINUOUS
 62
         7
100
AcDbLine
 10
218.6161823966
 20
300.701611877
 30
0.0
 11
213.6161823966
 21
300.701611877
 31
0.0
  0
LINE
  5
A3
100
AcDbEntity
  8
0
  6
CONTINUOUS
 62
         7
100
AcDbLine
 10
208.6161823966
 20
300.701611877
 30
0.0
 11
204.1161823966
 21
300.701611877
 31
0.0
  0
LINE
  5
A4
100
AcDbEntity
  8
0
  6
CONTINUOUS
 62
         7
100
AcDbLine
 10
204.1161823966
 20
292.701611877
 30
0.0
 11
208.6161823966
 21
292.701611877
 31
0.0
  0
LINE
  5
A5
100
AcDbEntity
  8
0
  6
CONTINUOUS
 62
         7
100
AcDbLine
 10
213.6161823966
 20
292.701611877
 30
0.0
 11
218.6161823966
 21
292.701611877
 31
0.0
  0
LINE
  5
A6
100
AcDbEntity
  8
0
  6
CONTINUOUS
 62
         7
100
AcDbLine
 10
204.1161823966
 20
300.701611877
 30
0.0
 11
203.6161823966
 21
300.201611877
 31
0.0
  0
LINE
  5
A7
100
AcDbEntity
  8
0
  6
CONTINUOUS
 62
         7
100
AcDbLine
 10
203.6161823966
 20
293.201611877
 30
0.0
 11
204.1161823966
 21
292.701611877
 31
0.0
  0
LINE
  5
A8
100
AcDbEntity
  8
0
  6
CONTINUOUS
 62
         7
100
AcDbLine
 10
226.6161823966
 20
315.701611877
 30
0.0
 11
254.6161823966
 21
315.701611877
 31
0.0
  0
LINE
  5
A9
100
AcDbEntity
  8
0
  6
CONTINUOUS
 62
         7
100
AcDbLine
 10
254.6161823966
 20
314.201611877
 30
0.0
 11
226.6161823966
 21
314.201611877
 31
0.0
  0
LINE
  5
AA
100
AcDbEntity
  8
0
  6
CONTINUOUS
 62
         7
100
AcDbLine
 10
254.6161823966
 20
315.701611877
 30
0.0
 11
254.6161823966
 21
314.201611877
 31
0.0
  0
LINE
  5
AB
100
AcDbEntity
  8
0
  6
CONTINUOUS
 62
         7
100
AcDbLine
 10
226.6161823966
 20
314.201611877
 30
0.0
 11
226.6161823966
 21
315.701611877
 31
0.0
  0
LINE
  5
AC
100
AcDbEntity
  8
0
  6
CONTINUOUS
 62
         7
100
AcDbLine
 10
226.6161823966
 20
279.201611877
 30
0.0
 11
254.6161823966
 21
279.201611877
 31
0.0
  0
CIRCLE
  5
AD
100
AcDbEntity
  8
0
  6
CONTINUOUS
 62
         7
100
AcDbCircle
 10
246.6161823966
 20
296.701611877
 30
0.0
 40
4.85
  0
CIRCLE
  5
AE
100
AcDbEntity
  8
0
  6
CONTINUOUS
 62
         7
100
AcDbCircle
 10
237.6161823966
 20
307.701611877
 30
0.0
 40
5.5
  0
CIRCLE
  5
AF
100
AcDbEntity
  8
0
  6
CONTINUOUS
 62
         7
100
AcDbCircle
 10
237.6161823966
 20
285.701611877
 30
0.0
 40
5.5
  0
LINE
  5
B0
100
AcDbEntity
  8
0
  6
CONTINUOUS
 62
         7
100
AcDbLine
 10
254.6161823966
 20
314.201611877
 30
0.0
 11
254.6161823966
 21
279.201611877
 31
0.0
  0
LINE
  5
B1
100
AcDbEntity
  8
0
  6
CONTINUOUS
 62
         7
100
AcDbLine
 10
226.6161823966
 20
314.201611877
 30
0.0
 11
226.6161823966
 21
279.201611877
 31
0.0
  0
CIRCLE
  5
B2
100
AcDbEntity
  8
0
  6
CONTINUOUS
 62
         7
100
AcDbCircle
 10
246.6161823966
 20
296.701611877
 30
0.0
 40
4.35
  0
LINE
  5
B3
100
AcDbEntity
  8
0
  6
CONTINUOUS
 62
         7
100
AcDbLine
 10
254.6161823966
 20
277.701611877
 30
0.0
 11
226.6161823966
 21
277.701611877
 31
0.0
  0
LINE
  5
B4
100
AcDbEntity
  8
0
  6
CONTINUOUS
 62
         7
100
AcDbLine
 10
254.6161823966
 20
279.201611877
 30
0.0
 11
254.6161823966
 21
277.701611877
 31
0.0
  0
LINE
  5
B5
100
AcDbEntity
  8
0
  6
CONTINUOUS
 62
         7
100
AcDbLine
 10
226.6161823966
 20
277.701611877
 30
0.0
 11
226.6161823966
 21
279.201611877
 31
0.0
  0
LINE
  5
B6
100
AcDbEntity
  8
0
  6
CONTINUOUS
 62
         7
100
AcDbLine
 10
347.6161823966
 20
286.001611877
 30
0.0
 11
347.6161823966
 21
307.401611877
 31
0.0
  0
LINE
  5
B7
100
AcDbEntity
  8
0
  6
CONTINUOUS
 62
         7
100
AcDbLine
 10
352.6161823966
 20
288.201611877
 30
0.0
 11
357.6161823966
 21
288.201611877
 31
0.0
  0
LINE
  5
B8
100
AcDbEntity
  8
0
  6
CONTINUOUS
 62
         7
100
AcDbLine
 10
352.6161823966
 20
288.201611877
 30
0.0
 11
352.6161823966
 21
286.001611877
 31
0.0
  0
LINE
  5
B9
100
AcDbEntity
  8
0
  6
CONTINUOUS
 62
         7
100
AcDbLine
 10
352.6161823966
 20
307.401611877
 30
0.0
 11
352.6161823966
 21
305.201611877
 31
0.0
  0
LINE
  5
BA
100
AcDbEntity
  8
0
  6
CONTINUOUS
 62
         7
100
AcDbLine
 10
352.6161823966
 20
305.201611877
 30
0.0
 11
357.6161823966
 21
305.201611877
 31
0.0
  0
LINE
  5
BB
100
AcDbEntity
  8
0
  6
CONTINUOUS
 62
         7
100
AcDbLine
 10
357.6161823966
 20
288.201611877
 30
0.0
 11
357.6161823966
 21
305.201611877
 31
0.0
  0
LINE
  5
BC
100
AcDbEntity
  8
0
  6
CONTINUOUS
 62
         7
100
AcDbLine
 10
255.8161823966
 20
286.001611877
 30
0.0
 11
255.8161823966
 21
307.401611877
 31
0.0
  0
LINE
  5
BD
100
AcDbEntity
  8
0
  6
CONTINUOUS
 62
         7
100
AcDbLine
 10
255.4161823966
 20
286.001611877
 30
0.0
 11
255.4161823966
 21
307.401611877
 31
0.0
  0
LINE
  5
BE
100
AcDbEntity
  8
0
  6
CONTINUOUS
 62
         7
100
AcDbLine
 10
255.0161823966
 20
286.001611877
 30
0.0
 11
255.0161823966
 21
307.401611877
 31
0.0
  0
LINE
  5
BF
100
AcDbEntity
  8
0
  6
CONTINUOUS
 62
         7
100
AcDbLine
 10
346.4161823966
 20
286.001611877
 30
0.0
 11
346.4161823966
 21
307.401611877
 31
0.0
  0
LINE
  5
C0
100
AcDbEntity
  8
0
  6
CONTINUOUS
 62
         7
100
AcDbLine
 10
256.2161823966
 20
286.001611877
 30
0.0
 11
256.2161823966
 21
307.401611877
 31
0.0
  0
LINE
  5
C1
100
AcDbEntity
  8
0
  6
CONTINUOUS
 62
         7
100
AcDbLine
 10
346.8161823966
 20
286.001611877
 30
0.0
 11
346.8161823966
 21
307.401611877
 31
0.0
  0
LINE
  5
C2
100
AcDbEntity
  8
0
  6
CONTINUOUS
 62
         7
100
AcDbLine
 10
347.2161823966
 20
286.001611877
 30
0.0
 11
347.2161823966
 21
307.401611877
 31
0.0
  0
CIRCLE
  5
C3
100
AcDbEntity
  8
0
  6
CONTINUOUS
 62
         7
100
AcDbCircle
 10
237.6161823966
 20
307.701611877
 30
0.0
 40
3.3
  0
CIRCLE
  5
C4
100
AcDbEntity
  8
0
  6
CONTINUOUS
 62
         7
100
AcDbCircle
 10
237.6161823966
 20
285.701611877
 30
0.0
 40
3.3
  0
LINE
  5
C5
100
AcDbEntity
  8
0
  6
CONTINUOUS
 62
         7
100
AcDbLine
 10
240.6161823966
 20
317.701611877
 30
0.0
 11
252.6161823966
 21
317.701611877
 31
0.0
  0
LINE
  5
C6
100
AcDbEntity
  8
0
  6
CONTINUOUS
 62
         7
100
AcDbLine
 10
218.7161823966
 20
300.701611877
 30
0.0
 11
218.7161823966
 21
292.701611877
 31
0.0
  0
LINE
  5
C7
100
AcDbEntity
  8
0
  6
CONTINUOUS
 62
         7
100
AcDbLine
 10
218.6161823966
 20
300.701611877
 30
0.0
 11
218.6161823966
 21
292.701611877
 31
0.0
  0
LINE
  5
C8
100
AcDbEntity
  8
0
  6
CONTINUOUS
 62
         7
100
AcDbLine
 10
204.1161823966
 20
297.4530360793
 30
0.0
 11
204.1161823966
 21
292.701611877
 31
0.0
  0
LINE
  5
C9
100
AcDbEntity
  8
0
  6
CONTINUOUS
 62
         7
100
AcDbLine
 10
204.1161823966
 20
300.701611877
 30
0.0
 11
204.1161823966
 21
297.4530360793
 31
0.0
  0
LINE
  5
CA
100
AcDbEntity
  8
0
  6
CONTINUOUS
 62
         7
100
AcDbLine
 10
203.6161823966
 20
297.359108054
 30
0.0
 11
203.6161823966
 21
300.201611877
 31
0.0
  0
LINE
  5
CB
100
AcDbEntity
  8
0
  6
CONTINUOUS
 62
         7
100
AcDbLine
 10
203.6161823966
 20
293.201611877
 30
0.0
 11
203.6161823966
 21
297.359108054
 31
0.0
  0
LINE
  5
CC
100
AcDbEntity
  8
0
  6
CONTINUOUS
 62
         7
100
AcDbLine
 10
209.1161823966
 20
302.701611877
 30
0.0
 11
208.6161823966
 21
301.6994476003
 31
0.0
  0
LINE
  5
CD
100
AcDbEntity
  8
0
  6
CONTINUOUS
 62
         7
100
AcDbLine
 10
209.1161823966
 20
302.701611877
 30
0.0
 11
213.1161823966
 21
302.701611877
 31
0.0
  0
LINE
  5
CE
100
AcDbEntity
  8
0
  6
CONTINUOUS
 62
         7
100
AcDbLine
 10
213.6161823966
 20
301.6994476003
 30
0.0
 11
213.1161823966
 21
302.701611877
 31
0.0
  0
LINE
  5
CF
100
AcDbEntity
  8
0
  6
CONTINUOUS
 62
         7
100
AcDbLine
 10
213.6161823966
 20
301.6994476003
 30
0.0
 11
213.6161823966
 21
297.7037761537
 31
0.0
  0
LINE
  5
D0
100
AcDbEntity
  8
0
  6
CONTINUOUS
 62
         7
100
AcDbLine
 10
213.1161823966
 20
296.701611877
 30
0.0
 11
213.6161823966
 21
297.7037761537
 31
0.0
  0
LINE
  5
D1
100
AcDbEntity
  8
0
  6
CONTINUOUS
 62
         7
100
AcDbLine
 10
209.1161823966
 20
296.701611877
 30
0.0
 11
213.1161823966
 21
296.701611877
 31
0.0
  0
LINE
  5
D2
100
AcDbEntity
  8
0
  6
CONTINUOUS
 62
         7
100
AcDbLine
 10
208.6161823966
 20
297.7037761537
 30
0.0
 11
209.1161823966
 21
296.701611877
 31
0.0
  0
LINE
  5
D3
100
AcDbEntity
  8
0
  6
CONTINUOUS
 62
         7
100
AcDbLine
 10
208.6161823966
 20
301.6994476003
 30
0.0
 11
208.6161823966
 21
297.7037761537
 31
0.0
  0
LINE
  5
D4
100
AcDbEntity
  8
0
  6
CONTINUOUS
 62
         7
100
AcDbLine
 10
213.6161823966
 20
295.6994476003
 30
0.0
 11
213.1161823966
 21
296.701611877
 31
0.0
  0
LINE
  5
D5
100
AcDbEntity
  8
0
  6
CONTINUOUS
 62
         7
100
AcDbLine
 10
213.6161823966
 20
297.7037761537
 30
0.0
 11
213.6161823966
 21
295.6994476003
 31
0.0
  0
LINE
  5
D6
100
AcDbEntity
  8
0
  6
CONTINUOUS
 62
         7
100
AcDbLine
 10
209.1161823966
 20
296.701611877
 30
0.0
 11
208.6161823966
 21
295.6994476003
 31
0.0
  0
LINE
  5
D7
100
AcDbEntity
  8
0
  6
CONTINUOUS
 62
         7
100
AcDbLine
 10
208.6161823966
 20
297.7037761537
 30
0.0
 11
208.6161823966
 21
295.6994476003
 31
0.0
  0
LINE
  5
D8
100
AcDbEntity
  8
0
  6
CONTINUOUS
 62
         7
100
AcDbLine
 10
213.6161823966
 20
295.6994476003
 30
0.0
 11
213.6161823966
 21
291.7037761537
 31
0.0
  0
LINE
  5
D9
100
AcDbEntity
  8
0
  6
CONTINUOUS
 62
         7
100
AcDbLine
 10
213.1161823966
 20
290.701611877
 30
0.0
 11
213.6161823966
 21
291.7037761537
 31
0.0
  0
LINE
  5
DA
100
AcDbEntity
  8
0
  6
CONTINUOUS
 62
         7
100
AcDbLine
 10
209.1161823966
 20
290.701611877
 30
0.0
 11
213.1161823966
 21
290.701611877
 31
0.0
  0
LINE
  5
DB
100
AcDbEntity
  8
0
  6
CONTINUOUS
 62
         7
100
AcDbLine
 10
208.6161823966
 20
291.7037761537
 30
0.0
 11
209.1161823966
 21
290.701611877
 31
0.0
  0
LINE
  5
DC
100
AcDbEntity
  8
0
  6
CONTINUOUS
 62
         7
100
AcDbLine
 10
208.6161823966
 20
295.6994476003
 30
0.0
 11
208.6161823966
 21
291.7037761537
 31
0.0
  0
LINE
  5
DD
100
AcDbEntity
  8
0
  6
CONTINUOUS
 62
         7
100
AcDbLine
 10
213.1161823966
 20
302.701611877
 30
0.0
 11
213.6161823966
 21
302.701611877
 31
0.0
  0
LINE
  5
DE
100
AcDbEntity
  8
0
  6
CONTINUOUS
 62
         7
100
AcDbLine
 10
213.6161823966
 20
302.701611877
 30
0.0
 11
213.6161823966
 21
301.6994476003
 31
0.0
  0
LINE
  5
DF
100
AcDbEntity
  8
0
  6
CONTINUOUS
 62
         7
100
AcDbLine
 10
208.6161823966
 20
302.701611877
 30
0.0
 11
209.1161823966
 21
302.701611877
 31
0.0
  0
LINE
  5
E0
100
AcDbEntity
  8
0
  6
CONTINUOUS
 62
         7
100
AcDbLine
 10
208.6161823966
 20
302.701611877
 30
0.0
 11
208.6161823966
 21
301.6994476003
 31
0.0
  0
LINE
  5
E1
100
AcDbEntity
  8
0
  6
CONTINUOUS
 62
         7
100
AcDbLine
 10
213.6161823966
 20
290.701611877
 30
0.0
 11
213.1161823966
 21
290.701611877
 31
0.0
  0
LINE
  5
E2
100
AcDbEntity
  8
0
  6
CONTINUOUS
 62
         7
100
AcDbLine
 10
213.6161823966
 20
291.7037761537
 30
0.0
 11
213.6161823966
 21
290.701611877
 31
0.0
  0
LINE
  5
E3
100
AcDbEntity
  8
0
  6
CONTINUOUS
 62
         7
100
AcDbLine
 10
209.1161823966
 20
290.701611877
 30
0.0
 11
208.6161823966
 21
290.701611877
 31
0.0
  0
LINE
  5
E4
100
AcDbEntity
  8
0
  6
CONTINUOUS
 62
         7
100
AcDbLine
 10
208.6161823966
 20
291.7037761537
 30
0.0
 11
208.6161823966
 21
290.701611877
 31
0.0
  0
LINE
  5
E5
100
AcDbEntity
  8
0
  6
CONTINUOUS
 62
         7
100
AcDbLine
 10
226.6161823966
 20
116.2308589608
 30
0.0
 11
226.6161823966
 21
116.3336593849
 31
0.0
  0
LINE
  5
E6
100
AcDbEntity
  8
0
  6
CONTINUOUS
 62
         7
100
AcDbLine
 10
226.6161823966
 20
116.2308589608
 30
0.0
 11
226.6161823966
 21
116.2308589608
 31
0.0
  0
LINE
  5
E7
100
AcDbEntity
  8
0
  6
CONTINUOUS
 62
         7
100
AcDbLine
 10
347.6161823966
 20
105.5308589608
 30
0.0
 11
352.6161823966
 21
105.5308589608
 31
0.0
  0
LINE
  5
E8
100
AcDbEntity
  8
0
  6
CONTINUOUS
 62
         7
100
AcDbLine
 10
352.6161823966
 20
126.9308589608
 30
0.0
 11
347.6161823966
 21
126.9308589608
 31
0.0
  0
LINE
  5
E9
100
AcDbEntity
  8
0
  6
CONTINUOUS
 62
         7
100
AcDbLine
 10
256.2161823966
 20
105.5308589608
 30
0.0
 11
346.4161823966
 21
105.5308589608
 31
0.0
  0
LINE
  5
EA
100
AcDbEntity
  8
0
  6
CONTINUOUS
 62
         7
100
AcDbLine
 10
346.4161823966
 20
126.9308589608
 30
0.0
 11
256.2161823966
 21
126.9308589608
 31
0.0
  0
LINE
  5
EB
100
AcDbEntity
  8
0
  6
CONTINUOUS
 62
         7
100
AcDbLine
 10
346.8161823966
 20
105.5308589608
 30
0.0
 11
347.2161823966
 21
105.5308589608
 31
0.0
  0
LINE
  5
EC
100
AcDbEntity
  8
0
  6
CONTINUOUS
 62
         7
100
AcDbLine
 10
347.2161823966
 20
126.9308589608
 30
0.0
 11
346.8161823966
 21
126.9308589608
 31
0.0
  0
LINE
  5
ED
100
AcDbEntity
  8
0
  6
CONTINUOUS
 62
         7
100
AcDbLine
 10
254.6161823966
 20
105.5308589608
 30
0.0
 11
255.0161823966
 21
105.5308589608
 31
0.0
  0
LINE
  5
EE
100
AcDbEntity
  8
0
  6
CONTINUOUS
 62
         7
100
AcDbLine
 10
255.0161823966
 20
126.9308589608
 30
0.0
 11
254.6161823966
 21
126.9308589608
 31
0.0
  0
LINE
  5
EF
100
AcDbEntity
  8
0
  6
CONTINUOUS
 62
         7
100
AcDbLine
 10
255.4161823966
 20
105.5308589608
 30
0.0
 11
255.8161823966
 21
105.5308589608
 31
0.0
  0
LINE
  5
F0
100
AcDbEntity
  8
0
  6
CONTINUOUS
 62
         7
100
AcDbLine
 10
255.8161823966
 20
126.9308589608
 30
0.0
 11
255.4161823966
 21
126.9308589608
 31
0.0
  0
LINE
  5
F1
100
AcDbEntity
  8
0
  6
CONTINUOUS
 62
         7
100
AcDbLine
 10
346.4161823966
 20
105.9308589608
 30
0.0
 11
346.8161823966
 21
105.9308589608
 31
0.0
  0
LINE
  5
F2
100
AcDbEntity
  8
0
  6
CONTINUOUS
 62
         7
100
AcDbLine
 10
346.8161823966
 20
126.5308589608
 30
0.0
 11
346.4161823966
 21
126.5308589608
 31
0.0
  0
LINE
  5
F3
100
AcDbEntity
  8
0
  6
CONTINUOUS
 62
         7
100
AcDbLine
 10
347.2161823966
 20
105.9308589608
 30
0.0
 11
347.6161823966
 21
105.9308589608
 31
0.0
  0
LINE
  5
F4
100
AcDbEntity
  8
0
  6
CONTINUOUS
 62
         7
100
AcDbLine
 10
347.6161823966
 20
126.5308589608
 30
0.0
 11
347.2161823966
 21
126.5308589608
 31
0.0
  0
LINE
  5
F5
100
AcDbEntity
  8
0
  6
CONTINUOUS
 62
         7
100
AcDbLine
 10
255.8161823966
 20
105.9308589608
 30
0.0
 11
256.2161823966
 21
105.9308589608
 31
0.0
  0
LINE
  5
F6
100
AcDbEntity
  8
0
  6
CONTINUOUS
 62
         7
100
AcDbLine
 10
256.2161823966
 20
126.5308589608
 30
0.0
 11
255.8161823966
 21
126.5308589608
 31
0.0
  0
LINE
  5
F7
100
AcDbEntity
  8
0
  6
CONTINUOUS
 62
         7
100
AcDbLine
 10
255.0161823966
 20
105.9308589608
 30
0.0
 11
255.4161823966
 21
105.9308589608
 31
0.0
  0
LINE
  5
F8
100
AcDbEntity
  8
0
  6
CONTINUOUS
 62
         7
100
AcDbLine
 10
255.4161823966
 20
126.5308589608
 30
0.0
 11
255.0161823966
 21
126.5308589608
 31
0.0
  0
LINE
  5
F9
100
AcDbEntity
  8
0
  6
CONTINUOUS
 62
         7
100
AcDbLine
 10
240.6161823966
 20
97.2308589608
 30
0.0
 11
240.6161823966
 21
95.2308589608
 31
0.0
  0
LINE
  5
FA
100
AcDbEntity
  8
0
  6
CONTINUOUS
 62
         7
100
AcDbLine
 10
252.6161823966
 20
95.2308589608
 30
0.0
 11
252.6161823966
 21
97.2308589608
 31
0.0
  0
LINE
  5
FB
100
AcDbEntity
  8
0
  6
CONTINUOUS
 62
         7
100
AcDbLine
 10
226.6161823966
 20
120.2308589608
 30
0.0
 11
218.7161823966
 21
120.2308589608
 31
0.0
  0
LINE
  5
FC
100
AcDbEntity
  8
0
  6
CONTINUOUS
 62
         7
100
AcDbLine
 10
218.7161823966
 20
112.2308589608
 30
0.0
 11
226.6161823966
 21
112.2308589608
 31
0.0
  0
LINE
  5
FD
100
AcDbEntity
  8
0
  6
CONTINUOUS
 62
         7
100
AcDbLine
 10
218.6161823966
 20
120.2308589608
 30
0.0
 11
213.6161823966
 21
120.2308589608
 31
0.0
  0
LINE
  5
FE
100
AcDbEntity
  8
0
  6
CONTINUOUS
 62
         7
100
AcDbLine
 10
208.6161823966
 20
120.2308589608
 30
0.0
 11
204.1161823966
 21
120.2308589608
 31
0.0
  0
LINE
  5
FF
100
AcDbEntity
  8
0
  6
CONTINUOUS
 62
         7
100
AcDbLine
 10
204.1161823966
 20
112.2308589608
 30
0.0
 11
208.6161823966
 21
112.2308589608
 31
0.0
  0
LINE
  5
100
100
AcDbEntity
  8
0
  6
CONTINUOUS
 62
         7
100
AcDbLine
 10
213.6161823966
 20
112.2308589608
 30
0.0
 11
218.6161823966
 21
112.2308589608
 31
0.0
  0
LINE
  5
101
100
AcDbEntity
  8
0
  6
CONTINUOUS
 62
         7
100
AcDbLine
 10
204.1161823966
 20
120.2308589608
 30
0.0
 11
203.6161823966
 21
119.7308589608
 31
0.0
  0
LINE
  5
102
100
AcDbEntity
  8
0
  6
CONTINUOUS
 62
         7
100
AcDbLine
 10
203.6161823966
 20
112.7308589608
 30
0.0
 11
204.1161823966
 21
112.2308589608
 31
0.0
  0
LINE
  5
103
100
AcDbEntity
  8
0
  6
CONTINUOUS
 62
         7
100
AcDbLine
 10
226.6161823966
 20
98.7308589608
 30
0.0
 11
254.6161823966
 21
98.7308589608
 31
0.0
  0
LINE
  5
104
100
AcDbEntity
  8
0
  6
CONTINUOUS
 62
         7
100
AcDbLine
 10
254.6161823966
 20
97.2308589608
 30
0.0
 11
226.6161823966
 21
97.2308589608
 31
0.0
  0
LINE
  5
105
100
AcDbEntity
  8
0
  6
CONTINUOUS
 62
         7
100
AcDbLine
 10
254.6161823966
 20
98.7308589608
 30
0.0
 11
254.6161823966
 21
97.2308589608
 31
0.0
  0
LINE
  5
106
100
AcDbEntity
  8
0
  6
CONTINUOUS
 62
         7
100
AcDbLine
 10
226.6161823966
 20
97.2308589608
 30
0.0
 11
226.6161823966
 21
98.7308589608
 31
0.0
  0
LINE
  5
107
100
AcDbEntity
  8
0
  6
CONTINUOUS
 62
         7
100
AcDbLine
 10
254.6161823966
 20
133.7308589608
 30
0.0
 11
226.6161823966
 21
133.7308589608
 31
0.0
  0
CIRCLE
  5
108
100
AcDbEntity
  8
0
  6
CONTINUOUS
 62
         7
100
AcDbCircle
 10
237.6161823966
 20
105.2308589608
 30
0.0
 40
5.5
  0
CIRCLE
  5
109
100
AcDbEntity
  8
0
  6
CONTINUOUS
 62
         7
100
AcDbCircle
 10
237.6161823966
 20
127.2308589608
 30
0.0
 40
5.5
  0
LINE
  5
10A
100
AcDbEntity
  8
0
  6
CONTINUOUS
 62
         7
100
AcDbLine
 10
254.6161823966
 20
133.7308589608
 30
0.0
 11
254.6161823966
 21
98.7308589608
 31
0.0
  0
LINE
  5
10B
100
AcDbEntity
  8
0
  6
CONTINUOUS
 62
         7
100
AcDbLine
 10
226.6161823966
 20
133.7308589608
 30
0.0
 11
226.6161823966
 21
98.7308589608
 31
0.0
  0
LINE
  5
10C
100
AcDbEntity
  8
0
  6
CONTINUOUS
 62
         7
100
AcDbLine
 10
226.6161823966
 20
135.2308589608
 30
0.0
 11
254.6161823966
 21
135.2308589608
 31
0.0
  0
LINE
  5
10D
100
AcDbEntity
  8
0
  6
CONTINUOUS
 62
         7
100
AcDbLine
 10
254.6161823966
 20
135.2308589608
 30
0.0
 11
254.6161823966
 21
133.7308589608
 31
0.0
  0
LINE
  5
10E
100
AcDbEntity
  8
0
  6
CONTINUOUS
 62
         7
100
AcDbLine
 10
226.6161823966
 20
133.7308589608
 30
0.0
 11
226.6161823966
 21
135.2308589608
 31
0.0
  0
LINE
  5
10F
100
AcDbEntity
  8
0
  6
CONTINUOUS
 62
         7
100
AcDbLine
 10
347.6161823966
 20
116.2308589608
 30
0.0
 11
347.6161823966
 21
126.9308589608
 31
0.0
  0
LINE
  5
110
100
AcDbEntity
  8
0
  6
CONTINUOUS
 62
         7
100
AcDbLine
 10
347.6161823966
 20
105.5308589608
 30
0.0
 11
347.6161823966
 21
116.2308589608
 31
0.0
  0
LINE
  5
111
100
AcDbEntity
  8
0
  6
CONTINUOUS
 62
         7
100
AcDbLine
 10
352.6161823966
 20
126.9308589608
 30
0.0
 11
352.6161823966
 21
124.7308589608
 31
0.0
  0
LINE
  5
112
100
AcDbEntity
  8
0
  6
CONTINUOUS
 62
         7
100
AcDbLine
 10
352.6161823966
 20
124.7308589608
 30
0.0
 11
357.6161823966
 21
124.7308589608
 31
0.0
  0
LINE
  5
113
100
AcDbEntity
  8
0
  6
CONTINUOUS
 62
         7
100
AcDbLine
 10
357.6161823966
 20
107.7308589608
 30
0.0
 11
357.6161823966
 21
124.7308589608
 31
0.0
  0
LINE
  5
114
100
AcDbEntity
  8
0
  6
CONTINUOUS
 62
         7
100
AcDbLine
 10
352.6161823966
 20
107.7308589608
 30
0.0
 11
357.6161823966
 21
107.7308589608
 31
0.0
  0
LINE
  5
115
100
AcDbEntity
  8
0
  6
CONTINUOUS
 62
         7
100
AcDbLine
 10
352.6161823966
 20
107.7308589608
 30
0.0
 11
352.6161823966
 21
105.5308589608
 31
0.0
  0
LINE
  5
116
100
AcDbEntity
  8
0
  6
CONTINUOUS
 62
         7
100
AcDbLine
 10
346.4161823966
 20
116.2308589608
 30
0.0
 11
346.4161823966
 21
126.9308589608
 31
0.0
  0
LINE
  5
117
100
AcDbEntity
  8
0
  6
CONTINUOUS
 62
         7
100
AcDbLine
 10
346.4161823966
 20
105.5308589608
 30
0.0
 11
346.4161823966
 21
116.2308589608
 31
0.0
  0
LINE
  5
118
100
AcDbEntity
  8
0
  6
CONTINUOUS
 62
         7
100
AcDbLine
 10
256.2161823966
 20
116.2308589608
 30
0.0
 11
256.2161823966
 21
126.9308589608
 31
0.0
  0
LINE
  5
119
100
AcDbEntity
  8
0
  6
CONTINUOUS
 62
         7
100
AcDbLine
 10
256.2161823966
 20
105.5308589608
 30
0.0
 11
256.2161823966
 21
116.2308589608
 31
0.0
  0
LINE
  5
11A
100
AcDbEntity
  8
0
  6
CONTINUOUS
 62
         7
100
AcDbLine
 10
346.8161823966
 20
116.2308589608
 30
0.0
 11
346.8161823966
 21
126.9308589608
 31
0.0
  0
LINE
  5
11B
100
AcDbEntity
  8
0
  6
CONTINUOUS
 62
         7
100
AcDbLine
 10
346.8161823966
 20
105.5308589608
 30
0.0
 11
346.8161823966
 21
116.2308589608
 31
0.0
  0
LINE
  5
11C
100
AcDbEntity
  8
0
  6
CONTINUOUS
 62
         7
100
AcDbLine
 10
347.2161823966
 20
116.2308589608
 30
0.0
 11
347.2161823966
 21
126.9308589608
 31
0.0
  0
LINE
  5
11D
100
AcDbEntity
  8
0
  6
CONTINUOUS
 62
         7
100
AcDbLine
 10
347.2161823966
 20
105.5308589608
 30
0.0
 11
347.2161823966
 21
116.2308589608
 31
0.0
  0
LINE
  5
11E
100
AcDbEntity
  8
0
  6
CONTINUOUS
 62
         7
100
AcDbLine
 10
255.0161823966
 20
116.2308589608
 30
0.0
 11
255.0161823966
 21
126.9308589608
 31
0.0
  0
LINE
  5
11F
100
AcDbEntity
  8
0
  6
CONTINUOUS
 62
         7
100
AcDbLine
 10
255.0161823966
 20
105.5308589608
 30
0.0
 11
255.0161823966
 21
116.2308589608
 31
0.0
  0
LINE
  5
120
100
AcDbEntity
  8
0
  6
CONTINUOUS
 62
         7
100
AcDbLine
 10
255.4161823966
 20
116.2308589608
 30
0.0
 11
255.4161823966
 21
126.9308589608
 31
0.0
  0
LINE
  5
121
100
AcDbEntity
  8
0
  6
CONTINUOUS
 62
         7
100
AcDbLine
 10
255.4161823966
 20
105.5308589608
 30
0.0
 11
255.4161823966
 21
116.2308589608
 31
0.0
  0
LINE
  5
122
100
AcDbEntity
  8
0
  6
CONTINUOUS
 62
         7
100
AcDbLine
 10
255.8161823966
 20
116.2308589608
 30
0.0
 11
255.8161823966
 21
126.9308589608
 31
0.0
  0
LINE
  5
123
100
AcDbEntity
  8
0
  6
CONTINUOUS
 62
         7
100
AcDbLine
 10
255.8161823966
 20
105.5308589608
 30
0.0
 11
255.8161823966
 21
116.2308589608
 31
0.0
  0
CIRCLE
  5
124
100
AcDbEntity
  8
0
  6
CONTINUOUS
 62
         7
100
AcDbCircle
 10
237.6161823966
 20
105.2308589608
 30
0.0
 40
3.3
  0
CIRCLE
  5
125
100
AcDbEntity
  8
0
  6
CONTINUOUS
 62
         7
100
AcDbCircle
 10
237.6161823966
 20
127.2308589608
 30
0.0
 40
3.3
  0
LINE
  5
126
100
AcDbEntity
  8
0
  6
CONTINUOUS
 62
         7
100
AcDbLine
 10
252.6161823966
 20
95.2308589608
 30
0.0
 11
240.6161823966
 21
95.2308589608
 31
0.0
  0
LINE
  5
127
100
AcDbEntity
  8
0
  6
CONTINUOUS
 62
         7
100
AcDbLine
 10
218.7161823966
 20
116.9822831631
 30
0.0
 11
218.7161823966
 21
112.2308589608
 31
0.0
  0
LINE
  5
128
100
AcDbEntity
  8
0
  6
CONTINUOUS
 62
         7
100
AcDbLine
 10
218.7161823966
 20
120.2308589608
 30
0.0
 11
218.7161823966
 21
116.9822831631
 31
0.0
  0
LINE
  5
129
100
AcDbEntity
  8
0
  6
CONTINUOUS
 62
         7
100
AcDbLine
 10
218.6161823966
 20
116.9822831631
 30
0.0
 11
218.6161823966
 21
112.2308589608
 31
0.0
  0
LINE
  5
12A
100
AcDbEntity
  8
0
  6
CONTINUOUS
 62
         7
100
AcDbLine
 10
218.6161823966
 20
120.2308589608
 30
0.0
 11
218.6161823966
 21
116.9822831631
 31
0.0
  0
LINE
  5
12B
100
AcDbEntity
  8
0
  6
CONTINUOUS
 62
         7
100
AcDbLine
 10
204.1161823966
 20
120.2308589608
 30
0.0
 11
204.1161823966
 21
112.2308589608
 31
0.0
  0
LINE
  5
12C
100
AcDbEntity
  8
0
  6
CONTINUOUS
 62
         7
100
AcDbLine
 10
203.6161823966
 20
112.7308589608
 30
0.0
 11
203.6161823966
 21
119.7308589608
 31
0.0
  0
LINE
  5
12D
100
AcDbEntity
  8
0
  6
CONTINUOUS
 62
         7
100
AcDbLine
 10
209.1161823966
 20
116.2308589608
 30
0.0
 11
208.6161823966
 21
115.2286946841
 31
0.0
  0
LINE
  5
12E
100
AcDbEntity
  8
0
  6
CONTINUOUS
 62
         7
100
AcDbLine
 10
209.1161823966
 20
116.2308589608
 30
0.0
 11
213.1161823966
 21
116.2308589608
 31
0.0
  0
LINE
  5
12F
100
AcDbEntity
  8
0
  6
CONTINUOUS
 62
         7
100
AcDbLine
 10
213.6161823966
 20
115.2286946841
 30
0.0
 11
213.1161823966
 21
116.2308589608
 31
0.0
  0
LINE
  5
130
100
AcDbEntity
  8
0
  6
CONTINUOUS
 62
         7
100
AcDbLine
 10
213.6161823966
 20
115.2286946841
 30
0.0
 11
213.6161823966
 21
111.2330232375
 31
0.0
  0
LINE
  5
131
100
AcDbEntity
  8
0
  6
CONTINUOUS
 62
         7
100
AcDbLine
 10
213.1161823966
 20
110.2308589608
 30
0.0
 11
213.6161823966
 21
111.2330232375
 31
0.0
  0
LINE
  5
132
100
AcDbEntity
  8
0
  6
CONTINUOUS
 62
         7
100
AcDbLine
 10
209.1161823966
 20
110.2308589608
 30
0.0
 11
213.1161823966
 21
110.2308589608
 31
0.0
  0
LINE
  5
133
100
AcDbEntity
  8
0
  6
CONTINUOUS
 62
         7
100
AcDbLine
 10
208.6161823966
 20
111.2330232375
 30
0.0
 11
209.1161823966
 21
110.2308589608
 31
0.0
  0
LINE
  5
134
100
AcDbEntity
  8
0
  6
CONTINUOUS
 62
         7
100
AcDbLine
 10
208.6161823966
 20
115.2286946841
 30
0.0
 11
208.6161823966
 21
111.2330232375
 31
0.0
  0
LINE
  5
135
100
AcDbEntity
  8
0
  6
CONTINUOUS
 62
         7
100
AcDbLine
 10
208.6161823966
 20
117.2330232375
 30
0.0
 11
208.6161823966
 21
115.2286946841
 31
0.0
  0
LINE
  5
136
100
AcDbEntity
  8
0
  6
CONTINUOUS
 62
         7
100
AcDbLine
 10
208.6161823966
 20
117.2330232375
 30
0.0
 11
209.1161823966
 21
116.2308589608
 31
0.0
  0
LINE
  5
137
100
AcDbEntity
  8
0
  6
CONTINUOUS
 62
         7
100
AcDbLine
 10
209.1161823966
 20
122.2308589608
 30
0.0
 11
208.6161823966
 21
121.2286946841
 31
0.0
  0
LINE
  5
138
100
AcDbEntity
  8
0
  6
CONTINUOUS
 62
         7
100
AcDbLine
 10
209.1161823966
 20
122.2308589608
 30
0.0
 11
213.1161823966
 21
122.2308589608
 31
0.0
  0
LINE
  5
139
100
AcDbEntity
  8
0
  6
CONTINUOUS
 62
         7
100
AcDbLine
 10
213.6161823966
 20
121.2286946841
 30
0.0
 11
213.1161823966
 21
122.2308589608
 31
0.0
  0
LINE
  5
13A
100
AcDbEntity
  8
0
  6
CONTINUOUS
 62
         7
100
AcDbLine
 10
213.6161823966
 20
121.2286946841
 30
0.0
 11
213.6161823966
 21
117.2330232375
 31
0.0
  0
LINE
  5
13B
100
AcDbEntity
  8
0
  6
CONTINUOUS
 62
         7
100
AcDbLine
 10
213.1161823966
 20
116.2308589608
 30
0.0
 11
213.6161823966
 21
117.2330232375
 31
0.0
  0
LINE
  5
13C
100
AcDbEntity
  8
0
  6
CONTINUOUS
 62
         7
100
AcDbLine
 10
208.6161823966
 20
121.2286946841
 30
0.0
 11
208.6161823966
 21
117.2330232375
 31
0.0
  0
LINE
  5
13D
100
AcDbEntity
  8
0
  6
CONTINUOUS
 62
         7
100
AcDbLine
 10
213.6161823966
 20
117.2330232375
 30
0.0
 11
213.6161823966
 21
115.2286946841
 31
0.0
  0
LINE
  5
13E
100
AcDbEntity
  8
0
  6
CONTINUOUS
 62
         7
100
AcDbLine
 10
209.1161823966
 20
110.2308589608
 30
0.0
 11
208.6161823966
 21
110.2308589608
 31
0.0
  0
LINE
  5
13F
100
AcDbEntity
  8
0
  6
CONTINUOUS
 62
         7
100
AcDbLine
 10
208.6161823966
 20
111.2330232375
 30
0.0
 11
208.6161823966
 21
110.2308589608
 31
0.0
  0
LINE
  5
140
100
AcDbEntity
  8
0
  6
CONTINUOUS
 62
         7
100
AcDbLine
 10
213.6161823966
 20
110.2308589608
 30
0.0
 11
213.1161823966
 21
110.2308589608
 31
0.0
  0
LINE
  5
141
100
AcDbEntity
  8
0
  6
CONTINUOUS
 62
         7
100
AcDbLine
 10
213.6161823966
 20
111.2330232375
 30
0.0
 11
213.6161823966
 21
110.2308589608
 31
0.0
  0
LINE
  5
142
100
AcDbEntity
  8
0
  6
CONTINUOUS
 62
         7
100
AcDbLine
 10
208.6161823966
 20
122.2308589608
 30
0.0
 11
209.1161823966
 21
122.2308589608
 31
0.0
  0
LINE
  5
143
100
AcDbEntity
  8
0
  6
CONTINUOUS
 62
         7
100
AcDbLine
 10
208.6161823966
 20
122.2308589608
 30
0.0
 11
208.6161823966
 21
121.2286946841
 31
0.0
  0
LINE
  5
144
100
AcDbEntity
  8
0
  6
CONTINUOUS
 62
         7
100
AcDbLine
 10
213.1161823966
 20
122.2308589608
 30
0.0
 11
213.6161823966
 21
122.2308589608
 31
0.0
  0
LINE
  5
145
100
AcDbEntity
  8
0
  6
CONTINUOUS
 62
         7
100
AcDbLine
 10
213.6161823966
 20
122.2308589608
 30
0.0
 11
213.6161823966
 21
121.2286946841
 31
0.0
  0
LINE
  5
146
100
AcDbEntity
  8
0
  6
CONTINUOUS
 62
         7
100
AcDbLine
 10
112.6379851538
 20
210.9637539767
 30
0.0
 11
112.7407855779
 21
210.9637539767
 31
0.0
  0
LINE
  5
147
100
AcDbEntity
  8
0
  6
CONTINUOUS
 62
         7
100
AcDbLine
 10
112.6379851538
 20
210.9637539767
 30
0.0
 11
112.6379851538
 21
211.169354825
 31
0.0
  0
LINE
  5
148
100
AcDbEntity
  8
0
  6
CONTINUOUS
 62
         7
100
AcDbLine
 10
93.6379851538
 20
216.9637539767
 30
0.0
 11
91.6379851538
 21
216.9637539767
 31
0.0
  0
LINE
  5
149
100
AcDbEntity
  8
0
  6
CONTINUOUS
 62
         7
100
AcDbLine
 10
91.6379851538
 20
204.9637539767
 30
0.0
 11
93.6379851538
 21
204.9637539767
 31
0.0
  0
LINE
  5
14A
100
AcDbEntity
  8
0
  6
CONTINUOUS
 62
         7
100
AcDbLine
 10
93.6379851538
 20
198.4637539767
 30
0.0
 11
93.6379851538
 21
223.4637539767
 31
0.0
  0
LINE
  5
14B
100
AcDbEntity
  8
0
  6
CONTINUOUS
 62
         7
100
AcDbLine
 10
95.1379851538
 20
224.9637539767
 30
0.0
 11
93.6379851538
 21
223.4637539767
 31
0.0
  0
LINE
  5
14C
100
AcDbEntity
  8
0
  6
CONTINUOUS
 62
         7
100
AcDbLine
 10
95.1379851538
 20
224.9637539767
 30
0.0
 11
130.1379851538
 21
224.9637539767
 31
0.0
  0
LINE
  5
14D
100
AcDbEntity
  8
0
  6
CONTINUOUS
 62
         7
100
AcDbLine
 10
131.6379851538
 20
223.4637539767
 30
0.0
 11
130.1379851538
 21
224.9637539767
 31
0.0
  0
LINE
  5
14E
100
AcDbEntity
  8
0
  6
CONTINUOUS
 62
         7
100
AcDbLine
 10
131.6379851538
 20
223.4637539767
 30
0.0
 11
131.6379851538
 21
198.4637539767
 31
0.0
  0
LINE
  5
14F
100
AcDbEntity
  8
0
  6
CONTINUOUS
 62
         7
100
AcDbLine
 10
93.6379851538
 20
198.4637539767
 30
0.0
 11
95.1379851538
 21
196.9637539767
 31
0.0
  0
LINE
  5
150
100
AcDbEntity
  8
0
  6
CONTINUOUS
 62
         7
100
AcDbLine
 10
130.1379851538
 20
196.9637539767
 30
0.0
 11
131.6379851538
 21
198.4637539767
 31
0.0
  0
LINE
  5
151
100
AcDbEntity
  8
0
  6
CONTINUOUS
 62
         7
100
AcDbLine
 10
130.1379851538
 20
196.9637539767
 30
0.0
 11
95.1379851538
 21
196.9637539767
 31
0.0
  0
LINE
  5
152
100
AcDbEntity
  8
0
  6
CONTINUOUS
 62
         7
100
AcDbLine
 10
91.6379851538
 20
210.9637539767
 30
0.0
 11
91.6379851538
 21
216.9637539767
 31
0.0
  0
LINE
  5
153
100
AcDbEntity
  8
0
  6
CONTINUOUS
 62
         7
100
AcDbLine
 10
91.6379851538
 20
204.9637539767
 30
0.0
 11
91.6379851538
 21
210.9637539767
 31
0.0
  0
CIRCLE
  5
154
100
AcDbEntity
  8
0
  6
CONTINUOUS
 62
         7
100
AcDbCircle
 10
112.6379851538
 20
210.9637539767
 30
0.0
 40
4.0
  0
CIRCLE
  5
155
100
AcDbEntity
  8
0
  6
CONTINUOUS
 62
         7
100
AcDbCircle
 10
112.6379851538
 20
210.9637539767
 30
0.0
 40
3.5
  0
ARC
  5
156
100
AcDbEntity
  8
0
  6
CONTINUOUS
 62
         7
100
AcDbCircle
 10
112.6379851538
 20
210.9637539767
 30
0.0
 40
6.4282032303
100
AcDbArc
 50
141.0309362668
 51
158.9690637332
  0
LINE
  5
157
100
AcDbEntity
  8
0
  6
CONTINUOUS
 62
         7
100
AcDbLine
 10
106.6379851538
 20
213.270655962
 30
0.0
 11
106.6379851538
 21
214.4278555918
 31
0.0
  0
LINE
  5
158
100
AcDbEntity
  8
0
  6
CONTINUOUS
 62
         7
100
AcDbLine
 10
106.6379851538
 20
214.4278555918
 30
0.0
 11
107.6401494305
 21
215.0064554067
 31
0.0
  0
ARC
  5
159
100
AcDbEntity
  8
0
  6
CONTINUOUS
 62
         7
100
AcDbCircle
 10
112.6379851538
 20
210.9637539767
 30
0.0
 40
6.4282032303
100
AcDbArc
 50
81.0309362668
 51
98.9690637332
  0
LINE
  5
15A
100
AcDbEntity
  8
0
  6
CONTINUOUS
 62
         7
100
AcDbLine
 10
112.6379851538
 20
217.8919572069
 30
0.0
 11
113.6401494305
 21
217.313357392
 31
0.0
  0
LINE
  5
15B
100
AcDbEntity
  8
0
  6
CONTINUOUS
 62
         7
100
AcDbLine
 10
111.6358208771
 20
217.313357392
 30
0.0
 11
112.6379851538
 21
217.8919572069
 31
0.0
  0
LINE
  5
15C
100
AcDbEntity
  8
0
  6
CONTINUOUS
 62
         7
100
AcDbLine
 10
118.6379851538
 20
213.270655962
 30
0.0
 11
118.6379851538
 21
208.6568519914
 31
0.0
  0
ARC
  5
15D
100
AcDbEntity
  8
0
  6
CONTINUOUS
 62
         7
100
AcDbCircle
 10
112.6379851538
 20
210.9637539767
 30
0.0
 40
6.4282032303
100
AcDbArc
 50
321.0309362668
 51
338.9690637332
  0
LINE
  5
15E
100
AcDbEntity
  8
0
  6
CONTINUOUS
 62
         7
100
AcDbLine
 10
117.6358208771
 20
206.9210525466
 30
0.0
 11
113.6401494305
 21
204.6141505613
 31
0.0
  0
ARC
  5
15F
100
AcDbEntity
  8
0
  6
CONTINUOUS
 62
         7
100
AcDbCircle
 10
112.6379851538
 20
210.9637539767
 30
0.0
 40
6.4282032303
100
AcDbArc
 50
261.0309362668
 51
278.9690637332
  0
LINE
  5
160
100
AcDbEntity
  8
0
  6
CONTINUOUS
 62
         7
100
AcDbLine
 10
111.6358208771
 20
204.6141505613
 30
0.0
 11
107.6401494305
 21
206.9210525466
 31
0.0
  0
ARC
  5
161
100
AcDbEntity
  8
0
  6
CONTINUOUS
 62
         7
100
AcDbCircle
 10
112.6379851538
 20
210.9637539767
 30
0.0
 40
6.4282032303
100
AcDbArc
 50
201.0309362668
 51
218.9690637332
  0
LINE
  5
162
100
AcDbEntity
  8
0
  6
CONTINUOUS
 62
         7
100
AcDbLine
 10
106.6379851538
 20
208.6568519914
 30
0.0
 11
106.6379851538
 21
213.270655962
 31
0.0
  0
ARC
  5
163
100
AcDbEntity
  8
0
  6
CONTINUOUS
 62
         7
100
AcDbCircle
 10
112.6379851538
 20
210.9637539767
 30
0.0
 40
6.4282032303
100
AcDbArc
 50
21.0309362668
 51
38.9690637332
  0
CIRCLE
  5
164
100
AcDbEntity
  8
0
  6
CONTINUOUS
 62
         7
100
AcDbCircle
 10
112.6379851538
 20
210.9637539767
 30
0.0
 40
4.5
  0
LINE
  5
165
100
AcDbEntity
  8
0
  6
CONTINUOUS
 62
         7
100
AcDbLine
 10
113.6401494305
 20
217.313357392
 30
0.0
 11
117.6358208771
 21
215.0064554067
 31
0.0
  0
LINE
  5
166
100
AcDbEntity
  8
0
  6
CONTINUOUS
 62
         7
100
AcDbLine
 10
107.6401494305
 20
215.0064554067
 30
0.0
 11
111.6358208771
 21
217.313357392
 31
0.0
  0
LINE
  5
167
100
AcDbEntity
  8
0
  6
CONTINUOUS
 62
         7
100
AcDbLine
 10
118.6379851538
 20
214.4278555918
 30
0.0
 11
118.6379851538
 21
213.270655962
 31
0.0
  0
LINE
  5
168
100
AcDbEntity
  8
0
  6
CONTINUOUS
 62
         7
100
AcDbLine
 10
117.6358208771
 20
215.0064554067
 30
0.0
 11
118.6379851538
 21
214.4278555918
 31
0.0
  0
LINE
  5
169
100
AcDbEntity
  8
0
  6
CONTINUOUS
 62
         7
100
AcDbLine
 10
106.6379851538
 20
207.4996523615
 30
0.0
 11
106.6379851538
 21
208.6568519914
 31
0.0
  0
LINE
  5
16A
100
AcDbEntity
  8
0
  6
CONTINUOUS
 62
         7
100
AcDbLine
 10
107.6401494305
 20
206.9210525466
 30
0.0
 11
106.6379851538
 21
207.4996523615
 31
0.0
  0
LINE
  5
16B
100
AcDbEntity
  8
0
  6
CONTINUOUS
 62
         7
100
AcDbLine
 10
113.6401494305
 20
204.6141505613
 30
0.0
 11
112.6379851538
 21
204.0355507464
 31
0.0
  0
LINE
  5
16C
100
AcDbEntity
  8
0
  6
CONTINUOUS
 62
         7
100
AcDbLine
 10
112.6379851538
 20
204.0355507464
 30
0.0
 11
111.6358208771
 21
204.6141505613
 31
0.0
  0
LINE
  5
16D
100
AcDbEntity
  8
0
  6
CONTINUOUS
 62
         7
100
AcDbLine
 10
118.6379851538
 20
207.4996523615
 30
0.0
 11
117.6358208771
 21
206.9210525466
 31
0.0
  0
LINE
  5
16E
100
AcDbEntity
  8
0
  6
CONTINUOUS
 62
         7
100
AcDbLine
 10
118.6379851538
 20
208.6568519914
 30
0.0
 11
118.6379851538
 21
207.4996523615
 31
0.0
  0
LINE
  5
16F
100
AcDbEntity
  8
0
  6
CONTINUOUS
 62
         7
100
AcDbLine
 10
465.2994485684
 20
210.9637539767
 30
0.0
 11
465.1966481442
 21
210.9637539767
 31
0.0
  0
LINE
  5
170
100
AcDbEntity
  8
0
  6
CONTINUOUS
 62
         7
100
AcDbLine
 10
465.2994485684
 20
210.9637539767
 30
0.0
 11
465.2994485684
 21
211.169354825
 31
0.0
  0
LINE
  5
171
100
AcDbEntity
  8
0
  6
CONTINUOUS
 62
         7
100
AcDbLine
 10
484.2994485684
 20
204.9637539767
 30
0.0
 11
486.2994485684
 21
204.9637539767
 31
0.0
  0
LINE
  5
172
100
AcDbEntity
  8
0
  6
CONTINUOUS
 62
         7
100
AcDbLine
 10
486.2994485684
 20
216.9637539767
 30
0.0
 11
484.2994485684
 21
216.9637539767
 31
0.0
  0
CIRCLE
  5
173
100
AcDbEntity
  8
0
  6
CONTINUOUS
 62
         7
100
AcDbCircle
 10
465.2994485684
 20
210.9637539767
 30
0.0
 40
4.865
  0
CIRCLE
  5
174
100
AcDbEntity
  8
0
  6
CONTINUOUS
 62
         7
100
AcDbCircle
 10
465.2994485684
 20
210.9637539767
 30
0.0
 40
4.7951797403
  0
LINE
  5
175
100
AcDbEntity
  8
0
  6
CONTINUOUS
 62
         7
100
AcDbLine
 10
456.7994485684
 20
204.464523253
 30
0.0
 11
456.7994485684
 21
217.4629847004
 31
0.0
  0
LINE
  5
176
100
AcDbEntity
  8
0
  6
CONTINUOUS
 62
         7
100
AcDbLine
 10
473.7994485684
 20
217.4629847004
 30
0.0
 11
473.7994485684
 21
204.464523253
 31
0.0
  0
ARC
  5
177
100
AcDbEntity
  8
0
  6
CONTINUOUS
 62
         7
100
AcDbCircle
 10
465.2994485684
 20
210.9637539767
 30
0.0
 40
10.7
100
AcDbArc
 50
217.4020844499
 51
322.5979155501
  0
ARC
  5
178
100
AcDbEntity
  8
0
  6
CONTINUOUS
 62
         7
100
AcDbCircle
 10
465.2994485684
 20
210.9637539767
 30
0.0
 40
10.7
100
AcDbArc
 50
37.4020844499
 51
142.5979155501
  0
ARC
  5
179
100
AcDbEntity
  8
0
  6
CONTINUOUS
 62
         7
100
AcDbCircle
 10
465.2994485684
 20
210.9637539767
 30
0.0
 40
10.7
100
AcDbArc
 50
322.5979155501
 51
37.4020844499
  0
ARC
  5
17A
100
AcDbEntity
  8
0
  6
CONTINUOUS
 62
         7
100
AcDbCircle
 10
465.2994485684
 20
210.9637539767
 30
0.0
 40
10.7
100
AcDbArc
 50
142.5979155501
 51
217.4020844499
  0
LINE
  5
17B
100
AcDbEntity
  8
0
  6
CONTINUOUS
 62
         7
100
AcDbLine
 10
484.2994485684
 20
223.4637539767
 30
0.0
 11
482.7994485684
 21
224.9637539767
 31
0.0
  0
LINE
  5
17C
100
AcDbEntity
  8
0
  6
CONTINUOUS
 62
         7
100
AcDbLine
 10
484.2994485684
 20
198.4637539767
 30
0.0
 11
484.2994485684
 21
223.4637539767
 31
0.0
  0
LINE
  5
17D
100
AcDbEntity
  8
0
  6
CONTINUOUS
 62
         7
100
AcDbLine
 10
482.7994485684
 20
196.9637539767
 30
0.0
 11
484.2994485684
 21
198.4637539767
 31
0.0
  0
LINE
  5
17E
100
AcDbEntity
  8
0
  6
CONTINUOUS
 62
         7
100
AcDbLine
 10
447.7994485684
 20
196.9637539767
 30
0.0
 11
482.7994485684
 21
196.9637539767
 31
0.0
  0
LINE
  5
17F
100
AcDbEntity
  8
0
  6
CONTINUOUS
 62
         7
100
AcDbLine
 10
446.2994485684
 20
198.4637539767
 30
0.0
 11
447.7994485684
 21
196.9637539767
 31
0.0
  0
LINE
  5
180
100
AcDbEntity
  8
0
  6
CONTINUOUS
 62
         7
100
AcDbLine
 10
446.2994485684
 20
223.4637539767
 30
0.0
 11
446.2994485684
 21
198.4637539767
 31
0.0
  0
LINE
  5
181
100
AcDbEntity
  8
0
  6
CONTINUOUS
 62
         7
100
AcDbLine
 10
447.7994485684
 20
224.9637539767
 30
0.0
 11
446.2994485684
 21
223.4637539767
 31
0.0
  0
LINE
  5
182
100
AcDbEntity
  8
0
  6
CONTINUOUS
 62
         7
100
AcDbLine
 10
482.7994485684
 20
224.9637539767
 30
0.0
 11
447.7994485684
 21
224.9637539767
 31
0.0
  0
LINE
  5
183
100
AcDbEntity
  8
0
  6
CONTINUOUS
 62
         7
100
AcDbLine
 10
486.2994485684
 20
216.9637539767
 30
0.0
 11
486.2994485684
 21
204.9637539767
 31
0.0
  0
ENDSEC
  0
SECTION
  2
OBJECTS
  0
DICTIONARY
  5
19
100
AcDbDictionary
  3
ACAD_GROUP
350
1A
  3
ACAD_MLINESTYLE
350
1B
  0
DICTIONARY
  5
1A
102
{ACAD_REACTORS
330
19
102
}
100
AcDbDictionary
  0
DICTIONARY
  5
1B
102
{ACAD_REACTORS
330
19
102
}
100
AcDbDictionary
  3
STANDARD
350
1C
  0
MLINESTYLE
  5
1C
102
{ACAD_REACTORS
330
1B
102
}
100
AcDbMlineStyle
  2
STANDARD
 70
         0
  3

 62
         0
 51
90.0
 52
90.0
 71
         2
 49
0.5
 62
       256
  6
BYLAYER
 49
-0.5
 62
       256
  6
BYLAYER
  0
ENDSEC
  0
EOF
