  0
SECTION
  2
HEADER
  9
$ACADVER
  1
AC1002
  9
$INSBASE
 10
0.0
 20
0.0
  9
$EXTMIN
 10
-370.8736
 20
-254.5585
  9
$EXTMAX
 10
370.8736
 20
254.5585
  9
$LIMMIN
 10
0.0
 20
0.0
  9
$LIMMAX
 10
12.0
 20
9.0
  9
$VIEWCTR
 10
28.6093211
 20
0.0
  9
$VIEWSIZE
 40
509.117
  9
$SNAPMODE
 70
     0
  9
$SNAPUNIT
 10
1.0
 20
1.0
  9
$SNAPBASE
 10
0.0
 20
0.0
  9
$SNAPANG
 50
0.0
  9
$SNAPSTYLE
 70
     0
  9
$SNAPISOPAIR
 70
     0
  9
$GRIDMODE
 70
     0
  9
$GRIDUNIT
 10
0.0
 20
0.0
  9
$ORTHOMODE
 70
     0
  9
$REGENMODE
 70
     1
  9
$FILLMODE
 70
     1
  9
$QTEXTMODE
 70
     0
  9
$DRAGMODE
 70
     2
  9
$LTSCALE
 40
1.0
  9
$OSMODE
 70
     0
  9
$ATTMODE
 70
     1
  9
$TEXTSIZE
 40
0.2
  9
$TRACEWID
 40
0.05
  9
$TEXTSTYLE
  7
AAA
  9
$CLAYER
  8
0
  9
$CELTYPE
  6
BYLAYER
  9
$CECOLOR
 62
   256
  9
$DIMSCALE
 40
1.0
  9
$DIMASZ
 40
0.18
  9
$DIMEXO
 40
0.0625
  9
$DIMDLI
 40
0.38
  9
$DIMRND
 40
0.0
  9
$DIMDLE
 40
0.0
  9
$DIMEXE
 40
0.18
  9
$DIMTP
 40
0.0
  9
$DIMTM
 40
0.0
  9
$DIMTXT
 40
0.18
  9
$DIMCEN
 40
0.09
  9
$DIMTSZ
 40
0.0
  9
$DIMTOL
 70
     0
  9
$DIMLIM
 70
     0
  9
$DIMTIH
 70
     1
  9
$DIMTOH
 70
     1
  9
$DIMSE1
 70
     0
  9
$DIMSE2
 70
     0
  9
$DIMTAD
 70
     0
  9
$DIMZIN
 70
     0
  9
$DIMBLK
  1

  9
$LUNITS
 70
     2
  9
$LUPREC
 70
     4
  9
$AXISMODE
 70
     0
  9
$AXISUNIT
 10
0.0
 20
0.0
  9
$SKETCHINC
 40
0.1
  9
$FILLETRAD
 40
0.0
  9
$AUNITS
 70
     0
  9
$AUPREC
 70
     0
  9
$MENU
  1
ACAD
  9
$ELEVATION
 40
0.0
  9
$THICKNESS
 40
0.0
  9
$VIEWDIR
 10
0.0
 20
0.0
 30
1.0
  9
$LIMCHECK
 70
     0
  9
$BLIPMODE
 70
     1
  9
$CHAMFERA
 40
0.0
  9
$CHAMFERB
 40
0.0
  9
$FASTZOOM
 70
     1
  9
$SKPOLY
 70
     0
  9
$TDCREATE
 40
2447804.4572569941
  9
$TDUPDATE
 40
2447804.4572569941
  9
$TDINDWG
 40
0.0012037037
  9
$TDUSRTIMER
 40
0.0012037037
  9
$USRTIMER
 70
     1
  9
$ANGBASE
 50
0.0
  9
$ANGDIR
 70
     0
  9
$PDMODE
 70
     0
  9
$PDSIZE
 40
0.0
  9
$PLINEWID
 40
0.0
  9
$COORDS
 70
     0
  9
$USERI1
 70
     0
  9
$USERI2
 70
     0
  9
$USERI3
 70
     0
  9
$USERI4
 70
     0
  9
$USERI5
 70
     0
  9
$USERR1
 40
0.0
  9
$USERR2
 40
0.0
  9
$USERR3
 40
0.0
  9
$USERR4
 40
0.0
  9
$USERR5
 40
0.0
  0
ENDSEC
  0
SECTION
  2
TABLES
  0
TABLE
  2
LTYPE
 70
     5
  0
LTYPE
  2
CONTINUOUS
 70
    64
  3
SOLID
 72
    65
 73
     0
 40
0.0
  0
LTYPE
  2
DASHED
 70
    64
  3
DASHED
 72
    65
 73
     2
 40
0.75
 49
0.5
 49
-0.25
  0
LTYPE
  2
CENTER
 70
    64
  3
CENTER
 72
    65
 73
     4
 40
2.0
 49
1.25
 49
-0.25
 49
0.25
 49
-0.25
  0
LTYPE
  2
PHANTOM
 70
    64
  3
PHANTOM
 72
    65
 73
     6
 40
2.5
 49
1.25
 49
-0.25
 49
0.25
 49
-0.25
 49
0.25
 49
-0.25
  0
ENDTAB
  0
TABLE
  2
LAYER
 70
     1
  0
LAYER
  2
0
 70
    64
 62
     7
  6
CONTINUOUS
  0
ENDTAB
  0
TABLE
  2
STYLE
 70
     2
  0
STYLE
  2
AAA
 70
     0
 40
0.0
 41
1.0
 50
0.0
 71
     0
 42
0.2
  3
TXT
  4

  0
STYLE
  2
STANDARD
 70
    64
 40
0.0
 41
1.0
 50
0.0
 71
     0
 42
0.2
  3
TXT
  4
BIGFONT
  0
ENDTAB
  0
TABLE
  2
VIEW
 70
     0
  0
ENDTAB
  0
ENDSEC
  0
SECTION
  2
BLOCKS
  0
ENDSEC
  0
SECTION
  2
ENTITIES
  0
POINT
  8
0
  6
CONTINUOUS
 62
     7
 10
-285.4368
 20
0.0
  0
POINT
  8
0
  6
CONTINUOUS
 62
     7
 10
-254.4368
 20
0.0
  0
POINT
  8
0
  6
CONTINUOUS
 62
     7
 10
-120.0
 20
0.0
  0
POINT
  8
0
  6
CONTINUOUS
 62
     7
 10
103.0
 20
0.0
  0
POINT
  8
0
  6
CONTINUOUS
 62
     7
 10
-120.0
 20
127.2792
  0
POINT
  8
0
  6
CONTINUOUS
 62
     7
 10
103.0
 20
127.2792
  0
POINT
  8
0
  6
CONTINUOUS
 62
     7
 10
250.0
 20
0.0
  0
POINT
  8
0
  6
CONTINUOUS
 62
     7
 10
281.0
 20
0.0
  0
POINT
  8
0
  6
CONTINUOUS
 62
     7
 10
-100.0
 20
-180.9189
  0
POINT
  8
0
  6
CONTINUOUS
 62
     7
 10
-90.5
 20
-180.9189
  0
POINT
  8
0
  6
CONTINUOUS
 62
     7
 10
0.0
 20
-180.9189
  0
POINT
  8
0
  6
CONTINUOUS
 62
     7
 10
8.0
 20
-180.9189
  0
LINE
  8
0
  6
CONTINUOUS
 62
     7
 10
218.3292
 20
-225.9564
 11
370.8736
 21
-225.9564
  0
LINE
  8
0
  6
CONTINUOUS
 62
     7
 10
-218.3292
 20
225.9564
 11
-218.3292
 21
254.5585
  0
LINE
  8
0
  6
CONTINUOUS
 62
     7
 10
-370.8736
 20
225.9564
 11
-218.3292
 21
225.9564
  0
LINE
  8
0
  6
CONTINUOUS
 62
     7
 10
-370.8736
 20
254.5585
 11
370.8736
 21
254.5585
  0
LINE
  8
0
  6
CONTINUOUS
 62
     7
 10
-370.8736
 20
-254.5585
 11
370.8736
 21
-254.5585
  0
LINE
  8
0
  6
CONTINUOUS
 62
     7
 10
370.8736
 20
254.5585
 11
370.8736
 21
-254.5585
  0
LINE
  8
0
  6
CONTINUOUS
 62
     7
 10
-370.8736
 20
-254.5585
 11
-370.8736
 21
254.5585
  0
LINE
  8
0
  6
CONTINUOUS
 62
     7
 10
218.3292
 20
-225.9564
 11
218.3292
 21
-254.5585
  0
LINE
  8
0
  6
CONTINUOUS
 62
     7
 10
218.3292
 20
254.5585
 11
218.3292
 21
225.9564
  0
LINE
  8
0
  6
CONTINUOUS
 62
     7
 10
218.3292
 20
225.9564
 11
370.8736
 21
225.9564
  0
LINE
  8
0
  6
CONTINUOUS
 62
     7
 10
258.3816
 20
-232.8337
 11
258.3816
 21
-236.1516
  0
LINE
  8
0
  6
CONTINUOUS
 62
     7
 10
258.3816
 20
-236.1516
 11
270.8235
 21
-236.1516
  0
LINE
  8
0
  6
CONTINUOUS
 62
     7
 10
258.3816
 20
-249.1465
 11
275.2473
 21
-249.1465
  0
LINE
  8
0
  6
CONTINUOUS
 62
     7
 10
258.3816
 20
-245.8286
 11
270.8235
 21
-245.8286
  0
LINE
  8
0
  6
CONTINUOUS
 62
     7
 10
258.3816
 20
-232.8337
 11
273.0354
 21
-232.8337
  0
LINE
  8
0
  6
CONTINUOUS
 62
     7
 10
270.8235
 20
-236.1516
 11
270.8235
 21
-245.8286
  0
LINE
  8
0
  6
CONTINUOUS
 62
     7
 10
275.2473
 20
-235.0457
 11
275.2473
 21
-249.1465
  0
LINE
  8
0
  6
CONTINUOUS
 62
     7
 10
258.3816
 20
-245.8286
 11
258.3816
 21
-249.1465
  0
LINE
  8
0
  6
CONTINUOUS
 62
     7
 10
293.4954
 20
-236.1516
 11
293.4954
 21
-246.9346
  0
LINE
  8
0
  6
CONTINUOUS
 62
     7
 10
277.7357
 20
-232.8337
 11
277.7357
 21
-236.1516
  0
LINE
  8
0
  6
CONTINUOUS
 62
     7
 10
293.9378
 20
-232.585
 11
295.5138
 21
-232.585
  0
LINE
  8
0
  6
CONTINUOUS
 62
     7
 10
293.9378
 20
-230.373
 11
295.5138
 21
-230.373
  0
LINE
  8
0
  6
CONTINUOUS
 62
     7
 10
295.5138
 20
-230.373
 11
295.5138
 21
-232.585
  0
LINE
  8
0
  6
CONTINUOUS
 62
     7
 10
293.9378
 20
-230.373
 11
293.9378
 21
-232.585
  0
LINE
  8
0
  6
CONTINUOUS
 62
     7
 10
293.1083
 20
-230.373
 11
293.1083
 21
-232.585
  0
LINE
  8
0
  6
CONTINUOUS
 62
     7
 10
282.7661
 20
-230.373
 11
286.2009
 21
-230.373
  0
LINE
  8
0
  6
CONTINUOUS
 62
     7
 10
285.5413
 20
-232.8335
 11
286.2006
 21
-230.3727
  0
LINE
  8
0
  6
CONTINUOUS
 62
     7
 10
282.1067
 20
-232.8337
 11
282.766
 21
-230.373
  0
LINE
  8
0
  6
CONTINUOUS
 62
     7
 10
285.5416
 20
-232.8337
 11
290.1776
 21
-232.8337
  0
LINE
  8
0
  6
CONTINUOUS
 62
     7
 10
284.6526
 20
-236.1516
 11
289.0716
 21
-236.1516
  0
LINE
  8
0
  6
CONTINUOUS
 62
     7
 10
286.6429
 20
-249.1465
 11
291.2836
 21
-249.1465
  0
LINE
  8
0
  6
CONTINUOUS
 62
     7
 10
285.7537
 20
-245.8286
 11
286.6427
 21
-249.1463
  0
LINE
  8
0
  6
CONTINUOUS
 62
     7
 10
285.7538
 20
-245.8286
 11
289.0716
 21
-245.8286
  0
LINE
  8
0
  6
CONTINUOUS
 62
     7
 10
281.1707
 20
-249.1466
 11
284.6527
 21
-236.1517
  0
LINE
  8
0
  6
CONTINUOUS
 62
     7
 10
277.7357
 20
-236.1516
 11
281.2177
 21
-236.1516
  0
LINE
  8
0
  6
CONTINUOUS
 62
     7
 10
277.7354
 20
-249.1462
 11
281.2175
 21
-236.1513
  0
LINE
  8
0
  6
CONTINUOUS
 62
     7
 10
277.7357
 20
-249.1465
 11
281.1706
 21
-249.1465
  0
LINE
  8
0
  6
CONTINUOUS
 62
     7
 10
277.7357
 20
-232.8337
 11
282.1067
 21
-232.8337
  0
LINE
  8
0
  6
CONTINUOUS
 62
     7
 10
289.0716
 20
-236.1516
 11
289.0716
 21
-245.8286
  0
LINE
  8
0
  6
CONTINUOUS
 62
     7
 10
291.5323
 20
-230.373
 11
293.1083
 21
-230.373
  0
LINE
  8
0
  6
CONTINUOUS
 62
     7
 10
291.5323
 20
-232.585
 11
293.1083
 21
-232.585
  0
LINE
  8
0
  6
CONTINUOUS
 62
     7
 10
291.5323
 20
-230.373
 11
291.5323
 21
-232.585
  0
LINE
  8
0
  6
CONTINUOUS
 62
     7
 10
301.5135
 20
-230.373
 11
305.9373
 21
-230.373
  0
LINE
  8
0
  6
CONTINUOUS
 62
     7
 10
308.3423
 20
-240.1951
 11
311.2962
 21
-238.8176
  0
LINE
  8
0
  6
CONTINUOUS
 62
     7
 10
305.9373
 20
-242.7344
 11
305.9373
 21
-249.1465
  0
LINE
  8
0
  6
CONTINUOUS
 62
     7
 10
301.5135
 20
-243.379
 11
301.5135
 21
-249.1465
  0
LINE
  8
0
  6
CONTINUOUS
 62
     7
 10
305.9373
 20
-232.8337
 11
310.3611
 21
-232.8337
  0
LINE
  8
0
  6
CONTINUOUS
 62
     7
 10
305.9373
 20
-230.373
 11
305.9373
 21
-232.8337
  0
LINE
  8
0
  6
CONTINUOUS
 62
     7
 10
301.5135
 20
-230.373
 11
301.5135
 21
-232.8337
  0
LINE
  8
0
  6
CONTINUOUS
 62
     7
 10
312.573
 20
-235.0457
 11
312.573
 21
-236.8128
  0
LINE
  8
0
  6
CONTINUOUS
 62
     7
 10
308.3424
 20
-240.195
 11
312.5734
 21
-242.168
  0
LINE
  8
0
  6
CONTINUOUS
 62
     7
 10
305.9373
 20
-242.7343
 11
312.5731
 21
-245.8286
  0
LINE
  8
0
  6
CONTINUOUS
 62
     7
 10
296.2603
 20
-242.1678
 11
296.2603
 21
-245.8286
  0
LINE
  8
0
  6
CONTINUOUS
 62
     7
 10
296.2607
 20
-242.1682
 11
309.1626
 21
-236.1519
  0
LINE
  8
0
  6
CONTINUOUS
 62
     7
 10
296.2603
 20
-245.8286
 11
301.5136
 21
-243.3789
  0
LINE
  8
0
  6
CONTINUOUS
 62
     7
 10
312.573
 20
-242.1678
 11
312.573
 21
-245.8286
  0
LINE
  8
0
  6
CONTINUOUS
 62
     7
 10
296.2603
 20
-232.8337
 11
296.2603
 21
-236.1516
  0
LINE
  8
0
  6
CONTINUOUS
 62
     7
 10
301.5135
 20
-249.1465
 11
305.9373
 21
-249.1465
  0
LINE
  8
0
  6
CONTINUOUS
 62
     7
 10
296.2603
 20
-236.1516
 11
309.1621
 21
-236.1516
  0
LINE
  8
0
  6
CONTINUOUS
 62
     7
 10
296.2603
 20
-232.8337
 11
301.5135
 21
-232.8337
  0
LINE
  8
0
  6
CONTINUOUS
 62
     7
 10
327.504
 20
-236.4047
 11
328.73
 21
-235.9171
  0
LINE
  8
0
  6
CONTINUOUS
 62
     7
 10
327.5034
 20
-236.4044
 11
327.5034
 21
-249.1465
  0
LINE
  8
0
  6
CONTINUOUS
 62
     7
 10
323.0795
 20
-249.1465
 11
327.5034
 21
-249.1465
  0
LINE
  8
0
  6
CONTINUOUS
 62
     7
 10
313.9553
 20
-241.7925
 11
323.0794
 21
-238.1637
  0
LINE
  8
0
  6
CONTINUOUS
 62
     7
 10
313.9555
 20
-238.222
 11
326.8062
 21
-233.1111
  0
LINE
  8
0
  6
CONTINUOUS
 62
     7
 10
323.0795
 20
-238.1638
 11
323.0795
 21
-249.1465
  0
LINE
  8
0
  6
CONTINUOUS
 62
     7
 10
327.5034
 20
-231.3684
 11
327.5034
 21
-232.0834
  0
LINE
  8
0
  6
CONTINUOUS
 62
     7
 10
330.8211
 20
-231.3684
 11
330.8211
 21
-232.8338
  0
LINE
  8
0
  6
CONTINUOUS
 62
     7
 10
313.9554
 20
-238.2219
 11
313.9554
 21
-241.7925
  0
LINE
  8
0
  6
CONTINUOUS
 62
     7
 10
327.5034
 20
-231.3684
 11
330.8211
 21
-231.3684
  0
LINE
  8
0
  6
CONTINUOUS
 62
     2
 10
-78.0
 20
-31.0
 11
-78.0
 21
-65.80496
  0
LINE
  8
0
  6
CONTINUOUS
 62
     2
 10
-78.00005
 20
-63.80486
 11
-75.00004
 21
-63.00101
  0
LINE
  8
0
  6
CONTINUOUS
 62
     2
 10
-77.99994
 20
-63.80484
 11
-74.99994
 21
-64.60869
  0
LINE
  8
0
  6
CONTINUOUS
 62
     2
 10
-77.99989
 20
-63.80493
 11
103.0
 21
-63.80493
  0
LINE
  8
0
  6
CONTINUOUS
 62
     2
 10
103.0
 20
-24.0
 11
103.0
 21
-65.80496
  0
LINE
  8
0
  6
CONTINUOUS
 62
     2
 10
103.0
 20
-63.80499
 11
99.99999
 21
-63.00115
  0
LINE
  8
0
  6
CONTINUOUS
 62
     2
 10
102.9999
 20
-63.80472
 11
99.99992
 21
-64.60857
  0
LINE
  8
0
  6
CONTINUOUS
 62
     7
 10
-152.0
 20
6.188
 11
-152.0
 21
-6.188
  0
LINE
  8
0
  6
CONTINUOUS
 62
     7
 10
-129.0
 20
7.0
 11
-129.0
 21
-7.0
  0
LINE
  8
0
  6
CONTINUOUS
 62
     7
 10
-152.0
 20
6.18799
 11
-151.188
 21
6.99999
  0
LINE
  8
0
  6
CONTINUOUS
 62
     7
 10
-152.0
 20
-6.18801
 11
-151.188
 21
-7.00001
  0
LINE
  8
0
  6
CONTINUOUS
 62
     7
 10
-151.188
 20
7.0
 11
-151.188
 21
-7.0
  0
LINE
  8
0
  6
CONTINUOUS
 62
     7
 10
-129.0
 20
6.188
 11
-127.5936
 21
7.0
  0
LINE
  8
0
  6
CONTINUOUS
 62
     7
 10
-129.0
 20
-6.188
 11
-127.5936
 21
-7.0
  0
LINE
  8
0
  6
CONTINUOUS
 62
     7
 10
-127.0
 20
-7.0
 11
-127.0
 21
7.0
  0
LINE
  8
0
  6
CONTINUOUS
 62
     7
 10
-127.0
 20
6.99999
 11
-126.0
 21
7.99999
  0
LINE
  8
0
  6
CONTINUOUS
 62
     7
 10
-127.0
 20
-7.0
 11
-126.0
 21
-7.99999
  0
LINE
  8
0
  6
CONTINUOUS
 62
     7
 10
-126.0
 20
3.87298
 11
-126.0
 21
8.0
  0
LINE
  8
0
  6
CONTINUOUS
 62
     7
 10
-122.0
 20
-3.87298
 11
-122.0
 21
3.87298
  0
LINE
  8
0
  6
CONTINUOUS
 62
     7
 10
-126.0
 20
3.87298
 11
-122.0
 21
3.87298
  0
LINE
  8
0
  6
CONTINUOUS
 62
     7
 10
-126.0
 20
-3.87298
 11
-122.0
 21
-3.87298
  0
LINE
  8
0
  6
CONTINUOUS
 62
     7
 10
-126.0
 20
3.873
 11
-122.0
 21
-3.87297
  0
LINE
  8
0
  6
CONTINUOUS
 62
     7
 10
-122.0
 20
3.873
 11
-126.0
 21
-3.87297
  0
LINE
  8
0
  6
CONTINUOUS
 62
     7
 10
-126.0
 20
-8.0
 11
-126.0
 21
-3.87298
  0
LINE
  8
0
  6
CONTINUOUS
 62
     7
 10
-126.0
 20
8.0
 11
-120.0
 21
8.0
  0
LINE
  8
0
  6
CONTINUOUS
 62
     7
 10
-126.0
 20
-8.0
 11
-120.0
 21
-8.0
  0
LINE
  8
0
  6
CONTINUOUS
 62
     7
 10
-152.0
 20
6.188
 11
-129.0
 21
6.188
  0
LINE
  8
0
  6
CONTINUOUS
 62
     7
 10
-151.188
 20
7.0
 11
-127.0
 21
7.0
  0
LINE
  8
0
  6
CONTINUOUS
 62
     7
 10
-152.0
 20
-6.188
 11
-129.0
 21
-6.188
  0
LINE
  8
0
  6
CONTINUOUS
 62
     7
 10
-151.188
 20
-7.0
 11
-127.0
 21
-7.0
  0
LINE
  8
0
  6
CONTINUOUS
 62
     7
 10
72.0
 20
26.0
 11
72.0
 21
0.0
  0
LINE
  8
0
  6
CONTINUOUS
 62
     7
 10
71.0
 20
26.0
 11
71.0
 21
0.0
  0
LINE
  8
0
  6
CONTINUOUS
 62
     7
 10
70.0
 20
26.0
 11
70.0
 21
0.0
  0
LINE
  8
0
  6
CONTINUOUS
 62
     7
 10
72.0
 20
-26.0
 11
72.0
 21
0.0
  0
LINE
  8
0
  6
CONTINUOUS
 62
     7
 10
71.0
 20
-26.0
 11
71.0
 21
0.0
  0
LINE
  8
0
  6
CONTINUOUS
 62
     7
 10
70.0
 20
-26.0
 11
70.0
 21
0.0
  0
LINE
  8
0
  6
CONTINUOUS
 62
     7
 10
69.0
 20
26.0
 11
-6.39221
 21
26.0
  0
LINE
  8
0
  6
CONTINUOUS
 62
     7
 10
69.0
 20
-26.0
 11
-20.32558
 21
-26.0
  0
LINE
  8
0
  6
CENTER
 62
     2
 10
-154.0
 20
0.0
 11
105.0
 21
0.0
  0
LINE
  8
0
  6
CONTINUOUS
 62
     7
 10
-10.53332
 20
26.0
 11
-74.0
 21
26.0
  0
LINE
  8
0
  6
CONTINUOUS
 62
     7
 10
-24.46669
 20
-26.0
 11
-74.0
 21
-26.0
  0
LINE
  8
0
  6
CONTINUOUS
 62
     7
 10
-120.0
 20
16.0
 11
-120.0
 21
-16.0
  0
LINE
  8
0
  6
CONTINUOUS
 62
     7
 10
-100.0
 20
31.0
 11
-78.0
 21
31.0
  0
LINE
  8
0
  6
CONTINUOUS
 62
     7
 10
-100.0
 20
-31.0
 11
-78.0
 21
-31.0
  0
LINE
  8
0
  6
CONTINUOUS
 62
     7
 10
-100.0
 20
28.33726
 11
-78.0
 21
28.33726
  0
LINE
  8
0
  6
CONTINUOUS
 62
     7
 10
-100.0
 20
-28.33726
 11
-78.0
 21
-28.33726
  0
LINE
  8
0
  6
CONTINUOUS
 62
     7
 10
-100.0
 20
31.0
 11
-100.0
 21
-31.0
  0
LINE
  8
0
  6
CONTINUOUS
 62
     7
 10
-119.5
 20
16.5
 11
-103.5
 21
16.5
  0
LINE
  8
0
  6
CONTINUOUS
 62
     7
 10
-119.5
 20
-16.5
 11
-103.5
 21
-16.5
  0
LINE
  8
0
  6
CONTINUOUS
 62
     7
 10
-119.5
 20
16.5
 11
-119.5
 21
-16.5
  0
LINE
  8
0
  6
CONTINUOUS
 62
     7
 10
-120.0
 20
16.0
 11
-119.5
 21
16.49999
  0
LINE
  8
0
  6
CONTINUOUS
 62
     7
 10
-120.0
 20
-15.99999
 11
-119.5
 21
-16.49999
  0
LINE
  8
0
  6
CONTINUOUS
 62
     7
 10
-103.0
 20
17.0
 11
-103.0
 21
-17.0
  0
LINE
  8
0
  6
CONTINUOUS
 62
     7
 10
-103.0
 20
17.0
 11
-100.0
 21
17.0
  0
LINE
  8
0
  6
CONTINUOUS
 62
     7
 10
-103.0
 20
-17.0
 11
-100.0
 21
-17.0
  0
LINE
  8
0
  6
CONTINUOUS
 62
     7
 10
-103.5
 20
-16.5
 11
-103.0
 21
-17.0
  0
LINE
  8
0
  6
CONTINUOUS
 62
     7
 10
-103.5
 20
16.49999
 11
-103.0
 21
16.99999
  0
LINE
  8
0
  6
CONTINUOUS
 62
     7
 10
-103.5
 20
16.5
 11
-103.5
 21
-16.5
  0
LINE
  8
0
  6
CONTINUOUS
 62
     7
 10
-78.0
 20
31.0
 11
-78.0
 21
-31.0
  0
LINE
  8
0
  6
CONTINUOUS
 62
     7
 10
-77.0
 20
26.0
 11
-77.0
 21
-26.0
  0
LINE
  8
0
  6
CONTINUOUS
 62
     7
 10
-76.0
 20
26.0
 11
-76.0
 21
-26.0
  0
LINE
  8
0
  6
CONTINUOUS
 62
     7
 10
-75.0
 20
26.0
 11
-75.0
 21
-26.0
  0
LINE
  8
0
  6
CONTINUOUS
 62
     7
 10
-74.0
 20
26.0
 11
-74.0
 21
-26.0
  0
LINE
  8
0
  6
CONTINUOUS
 62
     7
 10
-77.0
 20
26.0
 11
-78.0
 21
26.0
  0
LINE
  8
0
  6
CONTINUOUS
 62
     7
 10
-75.0
 20
26.0
 11
-76.0
 21
26.0
  0
LINE
  8
0
  6
CONTINUOUS
 62
     7
 10
-75.0
 20
25.0
 11
-74.0
 21
26.0
  0
LINE
  8
0
  6
CONTINUOUS
 62
     7
 10
-77.0
 20
25.0
 11
-76.0
 21
26.0
  0
LINE
  8
0
  6
CONTINUOUS
 62
     7
 10
-77.0
 20
-26.0
 11
-78.0
 21
-26.0
  0
LINE
  8
0
  6
CONTINUOUS
 62
     7
 10
-75.0
 20
-26.0
 11
-76.0
 21
-26.0
  0
LINE
  8
0
  6
CONTINUOUS
 62
     7
 10
-75.0
 20
-25.0
 11
-74.0
 21
-26.0
  0
LINE
  8
0
  6
CONTINUOUS
 62
     7
 10
-77.0
 20
-25.0
 11
-76.0
 21
-26.0
  0
LINE
  8
0
  6
CONTINUOUS
 62
     7
 10
69.0
 20
26.0
 11
69.0
 21
0.0
  0
LINE
  8
0
  6
CONTINUOUS
 62
     7
 10
69.0
 20
-26.0
 11
69.0
 21
0.0
  0
LINE
  8
0
  6
CONTINUOUS
 62
     7
 10
68.99999
 20
-25.99998
 11
70.0
 21
-24.99998
  0
LINE
  8
0
  6
CONTINUOUS
 62
     7
 10
70.99998
 20
-25.99999
 11
71.99998
 21
-24.99999
  0
LINE
  8
0
  6
CONTINUOUS
 62
     7
 10
68.99998
 20
25.99999
 11
70.0
 21
24.99998
  0
LINE
  8
0
  6
CONTINUOUS
 62
     7
 10
70.99998
 20
25.99998
 11
71.99998
 21
24.99998
  0
LINE
  8
0
  6
CONTINUOUS
 62
     7
 10
70.0
 20
26.0
 11
71.0
 21
26.0
  0
LINE
  8
0
  6
CONTINUOUS
 62
     7
 10
70.0
 20
-26.0
 11
71.0
 21
-26.0
  0
LINE
  8
0
  6
PHANTOM
 62
     2
 10
-24.46666
 20
-26.00001
 11
-10.53329
 21
26.0
  0
LINE
  8
0
  6
PHANTOM
 62
     2
 10
-20.32557
 20
-26.0
 11
-6.39221
 21
26.0
  0
LINE
  8
0
  6
CENTER
 62
     2
 10
-88.0
 20
33.0
 11
-88.0
 21
-33.37208
  0
LINE
  8
0
  6
CONTINUOUS
 62
     7
 10
103.0
 20
24.00001
 11
103.0
 21
-24.0
  0
LINE
  8
0
  6
CONTINUOUS
 62
     7
 10
101.0
 20
26.0
 11
101.0
 21
21.23676
  0
LINE
  8
0
  6
CONTINUOUS
 62
     7
 10
95.0
 20
21.23676
 11
95.0
 21
-21.23676
  0
LINE
  8
0
  6
CONTINUOUS
 62
     7
 10
72.0
 20
26.0
 11
101.0
 21
26.0
  0
LINE
  8
0
  6
CONTINUOUS
 62
     7
 10
72.0
 20
-26.0
 11
101.0
 21
-26.0
  0
LINE
  8
0
  6
DASHED
 62
     7
 10
-93.5
 20
30.0
 11
-82.5
 21
30.0
  0
LINE
  8
0
  6
DASHED
 62
     7
 10
-81.50001
 20
30.99999
 11
-81.68407
 21
22.7163
  0
LINE
  8
0
  6
DASHED
 62
     7
 10
-82.5
 20
30.00001
 11
-81.5
 21
31.00002
  0
LINE
  8
0
  6
DASHED
 62
     7
 10
-94.30907
 20
22.40867
 11
-94.49998
 21
30.99999
  0
LINE
  8
0
  6
DASHED
 62
     7
 10
-94.49998
 20
30.99998
 11
-93.49998
 21
29.99998
  0
LINE
  8
0
  6
DASHED
 62
     7
 10
-93.5
 20
30.0
 11
-93.5
 21
20.625
  0
LINE
  8
0
  6
DASHED
 62
     7
 10
-82.5
 20
30.0
 11
-82.5
 21
20.75
  0
LINE
  8
0
  6
CONTINUOUS
 62
     7
 10
88.0
 20
2.88675
 11
88.0
 21
-2.88675
  0
LINE
  8
0
  6
CONTINUOUS
 62
     7
 10
78.0
 20
2.88675
 11
78.0
 21
-2.88675
  0
LINE
  8
0
  6
CONTINUOUS
 62
     7
 10
78.00001
 20
-2.88673
 11
83.00001
 21
-5.77348
  0
LINE
  8
0
  6
CONTINUOUS
 62
     7
 10
77.99997
 20
2.88681
 11
82.99997
 21
5.77356
  0
LINE
  8
0
  6
CONTINUOUS
 62
     7
 10
88.00003
 20
-2.88682
 11
83.00003
 21
-5.77356
  0
LINE
  8
0
  6
CONTINUOUS
 62
     7
 10
88.00002
 20
2.88675
 11
83.0
 21
5.77351
  0
LINE
  8
0
  6
CONTINUOUS
 62
     7
 10
-83.0
 20
2.88675
 11
-83.0
 21
-2.88675
  0
LINE
  8
0
  6
CONTINUOUS
 62
     7
 10
-93.0
 20
2.88675
 11
-93.0
 21
-2.88675
  0
LINE
  8
0
  6
CONTINUOUS
 62
     7
 10
-93.0
 20
-2.88676
 11
-88.0
 21
-5.77351
  0
LINE
  8
0
  6
CONTINUOUS
 62
     7
 10
-92.99998
 20
2.88676
 11
-87.99999
 21
5.77351
  0
LINE
  8
0
  6
CONTINUOUS
 62
     7
 10
-83.00001
 20
-2.88677
 11
-88.00001
 21
-5.77352
  0
LINE
  8
0
  6
CONTINUOUS
 62
     7
 10
-82.99999
 20
2.88676
 11
-87.99999
 21
5.77351
  0
LINE
  8
0
  6
CENTER
 62
     2
 10
83.0
 20
7.5
 11
83.0
 21
-7.5
  0
LINE
  8
0
  6
CONTINUOUS
 62
     7
 10
103.0
 20
-24.0
 11
101.0
 21
-26.0
  0
LINE
  8
0
  6
CONTINUOUS
 62
     7
 10
101.0
 20
25.99998
 11
103.0
 21
24.0
  0
LINE
  8
0
  6
CONTINUOUS
 62
     7
 10
95.0
 20
21.23676
 11
103.0
 21
21.23676
  0
LINE
  8
0
  6
CONTINUOUS
 62
     7
 10
95.0
 20
-21.23676
 11
103.0
 21
-21.23676
  0
LINE
  8
0
  6
CONTINUOUS
 62
     7
 10
101.0
 20
-26.0
 11
101.0
 21
-21.23676
  0
LINE
  8
0
  6
CONTINUOUS
 62
     7
 10
103.0
 20
-21.23678
 11
94.99998
 21
21.23674
  0
LINE
  8
0
  6
CONTINUOUS
 62
     7
 10
103.0
 20
21.23675
 11
94.99997
 21
-21.23677
  0
LINE
  8
0
  6
CONTINUOUS
 62
     7
 10
-90.44949
 20
0.5
 11
-85.55051
 21
0.5
  0
LINE
  8
0
  6
CONTINUOUS
 62
     7
 10
-90.44949
 20
-0.5
 11
-85.55051
 21
-0.5
  0
LINE
  8
0
  6
CONTINUOUS
 62
     7
 10
80.55051
 20
0.5
 11
85.44949
 21
0.5
  0
LINE
  8
0
  6
CONTINUOUS
 62
     7
 10
80.55051
 20
-0.5
 11
85.44949
 21
-0.5
  0
LINE
  8
0
  6
DASHED
 62
     7
 10
-94.30907
 20
-22.40867
 11
-94.49998
 21
-30.99999
  0
LINE
  8
0
  6
DASHED
 62
     7
 10
-93.5
 20
-30.0
 11
-93.5
 21
-20.625
  0
LINE
  8
0
  6
DASHED
 62
     7
 10
-93.5
 20
-30.0
 11
-82.5
 21
-30.0
  0
LINE
  8
0
  6
DASHED
 62
     7
 10
-82.5
 20
-30.0
 11
-82.5
 21
-20.75
  0
LINE
  8
0
  6
DASHED
 62
     7
 10
-81.5
 20
-30.99999
 11
-81.68407
 21
-22.7163
  0
LINE
  8
0
  6
DASHED
 62
     7
 10
-94.49998
 20
-30.99998
 11
-93.49998
 21
-29.99998
  0
LINE
  8
0
  6
DASHED
 62
     7
 10
-82.5
 20
-30.0
 11
-81.5
 21
-31.00001
  0
LINE
  8
0
  6
CONTINUOUS
 62
     7
 10
-152.0
 20
133.4673
 11
-152.0
 21
121.0912
  0
LINE
  8
0
  6
CONTINUOUS
 62
     7
 10
-129.0
 20
134.2792
 11
-129.0
 21
120.2792
  0
LINE
  8
0
  6
CONTINUOUS
 62
     7
 10
-152.0
 20
133.4672
 11
-151.188
 21
134.2792
  0
LINE
  8
0
  6
CONTINUOUS
 62
     7
 10
-152.0
 20
121.0912
 11
-151.188
 21
120.2792
  0
LINE
  8
0
  6
CONTINUOUS
 62
     7
 10
-151.188
 20
134.2792
 11
-151.188
 21
120.2792
  0
LINE
  8
0
  6
CONTINUOUS
 62
     7
 10
-129.0
 20
133.4673
 11
-127.5936
 21
134.2793
  0
LINE
  8
0
  6
CONTINUOUS
 62
     7
 10
-129.0
 20
121.0913
 11
-127.5936
 21
120.2793
  0
LINE
  8
0
  6
CONTINUOUS
 62
     7
 10
-127.0
 20
120.2792
 11
-127.0
 21
134.2792
  0
LINE
  8
0
  6
CONTINUOUS
 62
     7
 10
-126.0
 20
120.2792
 11
-126.0
 21
134.2792
  0
LINE
  8
0
  6
CONTINUOUS
 62
     7
 10
-121.0
 20
119.2792
 11
-120.0
 21
119.2792
  0
LINE
  8
0
  6
CONTINUOUS
 62
     7
 10
-152.0
 20
133.4673
 11
-129.0
 21
133.4673
  0
LINE
  8
0
  6
CONTINUOUS
 62
     7
 10
-151.188
 20
134.2792
 11
-122.0
 21
134.2792
  0
LINE
  8
0
  6
CONTINUOUS
 62
     7
 10
-152.0
 20
121.0912
 11
-129.0
 21
121.0912
  0
LINE
  8
0
  6
CONTINUOUS
 62
     7
 10
-151.188
 20
120.2792
 11
-122.0
 21
120.2792
  0
LINE
  8
0
  6
CONTINUOUS
 62
     7
 10
72.0
 20
153.2792
 11
72.0
 21
127.2792
  0
LINE
  8
0
  6
CONTINUOUS
 62
     7
 10
71.0
 20
153.2792
 11
71.0
 21
127.2792
  0
LINE
  8
0
  6
CONTINUOUS
 62
     7
 10
70.0
 20
153.2792
 11
70.0
 21
127.2792
  0
LINE
  8
0
  6
CONTINUOUS
 62
     7
 10
72.0
 20
101.2792
 11
72.0
 21
127.2792
  0
LINE
  8
0
  6
CONTINUOUS
 62
     7
 10
71.0
 20
101.2792
 11
71.0
 21
127.2792
  0
LINE
  8
0
  6
CONTINUOUS
 62
     7
 10
70.0
 20
101.2792
 11
70.0
 21
127.2792
  0
LINE
  8
0
  6
CONTINUOUS
 62
     7
 10
69.0
 20
153.2792
 11
-6.39221
 21
153.2792
  0
LINE
  8
0
  6
CONTINUOUS
 62
     7
 10
69.0
 20
101.2792
 11
-20.32558
 21
101.2792
  0
LINE
  8
0
  6
CENTER
 62
     2
 10
-154.0
 20
127.2792
 11
105.0
 21
127.2792
  0
LINE
  8
0
  6
CONTINUOUS
 62
     7
 10
-10.53332
 20
153.2792
 11
-74.0
 21
153.2792
  0
LINE
  8
0
  6
CONTINUOUS
 62
     7
 10
-24.46669
 20
101.2792
 11
-74.0
 21
101.2792
  0
LINE
  8
0
  6
CONTINUOUS
 62
     7
 10
-120.0
 20
143.2792
 11
-120.0
 21
111.2792
  0
LINE
  8
0
  6
CONTINUOUS
 62
     7
 10
-100.0
 20
158.2792
 11
-78.0
 21
158.2792
  0
LINE
  8
0
  6
CONTINUOUS
 62
     7
 10
-100.0
 20
96.27924
 11
-78.0
 21
96.27924
  0
LINE
  8
0
  6
DASHED
 62
     7
 10
103.0
 20
120.7791
 11
94.71623
 21
120.9632
  0
LINE
  8
0
  6
DASHED
 62
     7
 10
102.0
 20
121.7792
 11
103.0
 21
120.7792
  0
LINE
  8
0
  6
DASHED
 62
     7
 10
94.40866
 20
133.5883
 11
103.0
 21
133.7792
  0
LINE
  8
0
  6
DASHED
 62
     7
 10
102.9999
 20
133.7793
 11
101.9999
 21
132.7793
  0
LINE
  8
0
  6
DASHED
 62
     7
 10
102.0
 20
132.7792
 11
92.625
 21
132.7792
  0
LINE
  8
0
  6
DASHED
 62
     7
 10
102.0
 20
121.7792
 11
92.75
 21
121.7792
  0
LINE
  8
0
  6
CONTINUOUS
 62
     7
 10
103.0
 20
142.2792
 11
103.0
 21
112.2792
  0
LINE
  8
0
  6
CONTINUOUS
 62
     7
 10
95.0
 20
153.2792
 11
95.0
 21
142.2792
  0
LINE
  8
0
  6
CONTINUOUS
 62
     7
 10
95.0
 20
142.2792
 11
103.0
 21
142.2792
  0
LINE
  8
0
  6
CONTINUOUS
 62
     7
 10
95.0
 20
112.2792
 11
103.0
 21
112.2792
  0
LINE
  8
0
  6
CONTINUOUS
 62
     7
 10
101.0
 20
142.2792
 11
101.0
 21
112.2792
  0
LINE
  8
0
  6
CONTINUOUS
 62
     7
 10
95.0
 20
112.2792
 11
95.0
 21
101.2792
  0
LINE
  8
0
  6
CONTINUOUS
 62
     7
 10
72.0
 20
153.2792
 11
95.0
 21
153.2792
  0
LINE
  8
0
  6
CONTINUOUS
 62
     7
 10
72.0
 20
101.2792
 11
95.0
 21
101.2792
  0
LINE
  8
0
  6
CENTER
 62
     2
 10
83.0
 20
106.2792
 11
83.0
 21
92.67924
  0
LINE
  8
0
  6
CONTINUOUS
 62
     7
 10
-100.0
 20
155.6165
 11
-78.0
 21
155.6165
  0
LINE
  8
0
  6
CONTINUOUS
 62
     7
 10
-100.0
 20
98.94199
 11
-78.0
 21
98.94199
  0
LINE
  8
0
  6
CONTINUOUS
 62
     7
 10
-100.0
 20
158.2792
 11
-100.0
 21
96.27924
  0
LINE
  8
0
  6
CONTINUOUS
 62
     7
 10
-119.5
 20
143.7792
 11
-103.5
 21
143.7792
  0
LINE
  8
0
  6
CONTINUOUS
 62
     7
 10
-119.5
 20
110.7792
 11
-103.5
 21
110.7792
  0
LINE
  8
0
  6
CONTINUOUS
 62
     7
 10
-119.5
 20
143.7792
 11
-119.5
 21
110.7792
  0
LINE
  8
0
  6
CONTINUOUS
 62
     7
 10
-120.0
 20
143.2792
 11
-119.5
 21
143.7792
  0
LINE
  8
0
  6
CONTINUOUS
 62
     7
 10
-120.0
 20
111.2792
 11
-119.5
 21
110.7792
  0
LINE
  8
0
  6
CONTINUOUS
 62
     7
 10
-103.0
 20
144.2792
 11
-103.0
 21
110.2792
  0
LINE
  8
0
  6
CONTINUOUS
 62
     7
 10
-103.0
 20
144.2792
 11
-100.0
 21
144.2792
  0
LINE
  8
0
  6
CONTINUOUS
 62
     7
 10
-103.0
 20
110.2792
 11
-100.0
 21
110.2792
  0
LINE
  8
0
  6
CONTINUOUS
 62
     7
 10
-103.5
 20
110.7792
 11
-103.0
 21
110.2792
  0
LINE
  8
0
  6
CONTINUOUS
 62
     7
 10
-103.5
 20
143.7792
 11
-103.0
 21
144.2792
  0
LINE
  8
0
  6
CONTINUOUS
 62
     7
 10
-103.5
 20
143.7792
 11
-103.5
 21
110.7792
  0
LINE
  8
0
  6
CONTINUOUS
 62
     7
 10
-78.0
 20
158.2792
 11
-78.0
 21
96.27924
  0
LINE
  8
0
  6
CENTER
 62
     2
 10
-88.0
 20
138.0698
 11
-88.0
 21
87.67924
  0
LINE
  8
0
  6
CONTINUOUS
 62
     7
 10
-77.0
 20
153.2792
 11
-77.0
 21
101.2792
  0
LINE
  8
0
  6
CONTINUOUS
 62
     7
 10
-76.0
 20
153.2792
 11
-76.0
 21
101.2792
  0
LINE
  8
0
  6
CONTINUOUS
 62
     7
 10
-75.0
 20
153.2792
 11
-75.0
 21
101.2792
  0
LINE
  8
0
  6
CONTINUOUS
 62
     7
 10
-74.0
 20
153.2792
 11
-74.0
 21
101.2792
  0
LINE
  8
0
  6
CONTINUOUS
 62
     7
 10
-77.0
 20
153.2792
 11
-78.0
 21
153.2792
  0
LINE
  8
0
  6
CONTINUOUS
 62
     7
 10
-75.0
 20
153.2792
 11
-76.0
 21
153.2792
  0
LINE
  8
0
  6
CONTINUOUS
 62
     7
 10
-74.99998
 20
152.2792
 11
-73.99998
 21
153.2792
  0
LINE
  8
0
  6
CONTINUOUS
 62
     7
 10
-76.99998
 20
152.2792
 11
-75.99998
 21
153.2792
  0
LINE
  8
0
  6
CONTINUOUS
 62
     7
 10
-77.0
 20
101.2792
 11
-78.0
 21
101.2792
  0
LINE
  8
0
  6
CONTINUOUS
 62
     7
 10
-75.0
 20
101.2792
 11
-76.0
 21
101.2792
  0
LINE
  8
0
  6
CONTINUOUS
 62
     7
 10
-75.0
 20
102.2792
 11
-74.00002
 21
101.2792
  0
LINE
  8
0
  6
CONTINUOUS
 62
     7
 10
-77.00001
 20
102.2792
 11
-76.0
 21
101.2792
  0
LINE
  8
0
  6
CONTINUOUS
 62
     7
 10
69.0
 20
153.2792
 11
69.0
 21
127.2792
  0
LINE
  8
0
  6
CONTINUOUS
 62
     7
 10
69.0
 20
101.2792
 11
69.0
 21
127.2792
  0
LINE
  8
0
  6
CONTINUOUS
 62
     7
 10
68.99996
 20
101.2793
 11
69.99996
 21
102.2793
  0
LINE
  8
0
  6
CONTINUOUS
 62
     7
 10
70.99998
 20
101.2793
 11
71.99999
 21
102.2793
  0
LINE
  8
0
  6
CONTINUOUS
 62
     7
 10
68.99994
 20
153.2792
 11
69.99995
 21
152.2792
  0
LINE
  8
0
  6
CONTINUOUS
 62
     7
 10
70.99994
 20
153.2792
 11
71.99994
 21
152.2792
  0
LINE
  8
0
  6
CONTINUOUS
 62
     7
 10
70.0
 20
153.2792
 11
71.0
 21
153.2792
  0
LINE
  8
0
  6
CONTINUOUS
 62
     7
 10
70.0
 20
101.2792
 11
71.0
 21
101.2792
  0
LINE
  8
0
  6
PHANTOM
 62
     2
 10
-24.46666
 20
101.2792
 11
-10.53329
 21
153.2793
  0
LINE
  8
0
  6
PHANTOM
 62
     2
 10
-20.32553
 20
101.2792
 11
-6.39217
 21
153.2792
  0
LINE
  8
0
  6
DASHED
 62
     7
 10
102.0
 20
132.7792
 11
102.0
 21
121.7792
  0
LINE
  8
0
  6
CONTINUOUS
 62
     7
 10
-122.0
 20
120.2792
 11
-121.0
 21
119.2792
  0
LINE
  8
0
  6
CONTINUOUS
 62
     7
 10
-122.0
 20
134.2793
 11
-121.0
 21
135.2793
  0
LINE
  8
0
  6
CONTINUOUS
 62
     7
 10
-121.0
 20
135.2792
 11
-120.0
 21
135.2792
  0
LINE
  8
0
  6
CONTINUOUS
 62
     7
 10
-94.25
 20
95.47925
 11
-81.75
 21
95.47925
  0
LINE
  8
0
  6
CONTINUOUS
 62
     7
 10
-81.75
 20
96.27925
 11
-81.75
 21
95.47925
  0
LINE
  8
0
  6
CONTINUOUS
 62
     7
 10
-94.25
 20
96.27925
 11
-94.25
 21
95.47925
  0
LINE
  8
0
  6
CONTINUOUS
 62
     7
 10
-93.0
 20
91.87924
 11
-83.0
 21
91.87924
  0
LINE
  8
0
  6
CONTINUOUS
 62
     7
 10
-83.0
 20
95.47925
 11
-83.0
 21
91.87924
  0
LINE
  8
0
  6
CONTINUOUS
 62
     7
 10
-93.0
 20
95.47925
 11
-93.0
 21
91.87924
  0
LINE
  8
0
  6
CONTINUOUS
 62
     7
 10
-90.0
 20
89.67924
 11
-86.0
 21
89.67924
  0
LINE
  8
0
  6
CONTINUOUS
 62
     7
 10
-86.0
 20
89.67924
 11
-85.5
 21
89.96792
  0
LINE
  8
0
  6
CONTINUOUS
 62
     7
 10
-90.50001
 20
89.96789
 11
-90.00002
 21
89.67921
  0
LINE
  8
0
  6
CONTINUOUS
 62
     7
 10
-85.5
 20
91.87924
 11
-85.5
 21
89.96793
  0
LINE
  8
0
  6
CONTINUOUS
 62
     7
 10
-90.5
 20
91.87924
 11
-90.5
 21
89.96793
  0
LINE
  8
0
  6
CONTINUOUS
 62
     7
 10
-90.5
 20
89.96793
 11
-85.5
 21
89.96793
  0
LINE
  8
0
  6
CONTINUOUS
 62
     7
 10
-85.933
 20
91.87924
 11
-85.933
 21
89.71793
  0
LINE
  8
0
  6
CONTINUOUS
 62
     7
 10
-90.067
 20
91.87924
 11
-90.067
 21
89.71793
  0
LINE
  8
0
  6
CONTINUOUS
 62
     7
 10
-88.0
 20
95.04623
 11
-88.0
 21
92.31226
  0
LINE
  8
0
  6
CONTINUOUS
 62
     7
 10
76.75
 20
100.4792
 11
89.25
 21
100.4792
  0
LINE
  8
0
  6
CONTINUOUS
 62
     7
 10
89.25
 20
101.2793
 11
89.25
 21
100.4792
  0
LINE
  8
0
  6
CONTINUOUS
 62
     7
 10
76.75
 20
101.2793
 11
76.75
 21
100.4792
  0
LINE
  8
0
  6
CONTINUOUS
 62
     7
 10
78.0
 20
96.87924
 11
88.0
 21
96.87924
  0
LINE
  8
0
  6
CONTINUOUS
 62
     7
 10
88.0
 20
100.4792
 11
88.0
 21
96.87924
  0
LINE
  8
0
  6
CONTINUOUS
 62
     7
 10
78.0
 20
100.4792
 11
78.0
 21
96.87924
  0
LINE
  8
0
  6
CONTINUOUS
 62
     7
 10
81.0
 20
94.67924
 11
85.0
 21
94.67924
  0
LINE
  8
0
  6
CONTINUOUS
 62
     7
 10
84.99998
 20
94.67924
 11
85.49999
 21
94.96793
  0
LINE
  8
0
  6
CONTINUOUS
 62
     7
 10
80.49995
 20
94.96783
 11
80.99994
 21
94.67917
  0
LINE
  8
0
  6
CONTINUOUS
 62
     7
 10
85.5
 20
96.87924
 11
85.5
 21
94.96793
  0
LINE
  8
0
  6
CONTINUOUS
 62
     7
 10
80.5
 20
96.87924
 11
80.5
 21
94.96793
  0
LINE
  8
0
  6
CONTINUOUS
 62
     7
 10
80.5
 20
94.96793
 11
85.5
 21
94.96793
  0
LINE
  8
0
  6
CONTINUOUS
 62
     7
 10
85.067
 20
96.87924
 11
85.067
 21
94.71793
  0
LINE
  8
0
  6
CONTINUOUS
 62
     7
 10
80.933
 20
96.87924
 11
80.933
 21
94.71793
  0
LINE
  8
0
  6
CONTINUOUS
 62
     7
 10
83.0
 20
100.0462
 11
83.0
 21
97.31226
  0
LINE
  8
0
  6
CENTER
 62
     2
 10
-318.4368
 20
0.0
 11
-245.8368
 21
0.0
  0
LINE
  8
0
  6
CONTINUOUS
 62
     7
 10
-253.6368
 20
6.25
 11
-253.6368
 21
-6.25
  0
LINE
  8
0
  6
CONTINUOUS
 62
     7
 10
-254.4368
 20
6.25
 11
-253.6368
 21
6.25
  0
LINE
  8
0
  6
CONTINUOUS
 62
     7
 10
-254.4368
 20
-6.25
 11
-253.6368
 21
-6.25
  0
LINE
  8
0
  6
CONTINUOUS
 62
     7
 10
-250.0368
 20
5.0
 11
-250.0368
 21
-5.0
  0
LINE
  8
0
  6
CONTINUOUS
 62
     7
 10
-247.8368
 20
2.0
 11
-247.8368
 21
0.5
  0
LINE
  8
0
  6
CONTINUOUS
 62
     7
 10
-250.0368
 20
-2.5
 11
-248.1255
 21
-2.5
  0
LINE
  8
0
  6
CONTINUOUS
 62
     7
 10
-250.0368
 20
2.5
 11
-248.1255
 21
2.5
  0
LINE
  8
0
  6
CONTINUOUS
 62
     7
 10
-248.1256
 20
2.49998
 11
-247.8369
 21
1.99998
  0
LINE
  8
0
  6
CONTINUOUS
 62
     7
 10
-248.1254
 20
-2.49997
 11
-247.8367
 21
-1.99998
  0
LINE
  8
0
  6
CONTINUOUS
 62
     7
 10
-248.1255
 20
-2.5
 11
-248.1255
 21
-0.5
  0
LINE
  8
0
  6
CONTINUOUS
 62
     7
 10
-249.3368
 20
0.5
 11
-249.3368
 21
-0.5
  0
LINE
  8
0
  6
CONTINUOUS
 62
     7
 10
-249.3368
 20
0.5
 11
-247.8368
 21
0.5
  0
LINE
  8
0
  6
CONTINUOUS
 62
     7
 10
-249.3368
 20
-0.5
 11
-247.8368
 21
-0.5
  0
LINE
  8
0
  6
CONTINUOUS
 62
     7
 10
-248.1255
 20
0.5
 11
-248.1255
 21
2.5
  0
LINE
  8
0
  6
CONTINUOUS
 62
     7
 10
-247.8368
 20
-0.5
 11
-247.8368
 21
-2.0
  0
LINE
  8
0
  6
CONTINUOUS
 62
     7
 10
-250.0368
 20
-2.09999
 11
-247.8945
 21
-2.09999
  0
LINE
  8
0
  6
CONTINUOUS
 62
     7
 10
-250.0368
 20
2.10001
 11
-247.8945
 21
2.10001
  0
LINE
  8
0
  6
CENTER
 62
     2
 10
-285.4368
 20
-33.0
 11
-285.4368
 21
33.0
  0
LINE
  8
0
  6
DASHED
 62
     7
 10
-290.9368
 20
30.0
 11
-279.9368
 21
30.0
  0
LINE
  8
0
  6
DASHED
 62
     7
 10
-291.9368
 20
30.99995
 11
-290.9368
 21
29.99996
  0
LINE
  8
0
  6
DASHED
 62
     7
 10
-279.9368
 20
30.0
 11
-278.9368
 21
31.0
  0
LINE
  8
0
  6
DASHED
 62
     7
 10
-291.7458
 20
22.40868
 11
-291.9366
 21
30.99998
  0
LINE
  8
0
  6
DASHED
 62
     7
 10
-290.9368
 20
30.0
 11
-290.9368
 21
20.625
  0
LINE
  8
0
  6
DASHED
 62
     7
 10
-279.9368
 20
30.0
 11
-279.9368
 21
20.75
  0
LINE
  8
0
  6
DASHED
 62
     7
 10
-278.9367
 20
30.99999
 11
-279.1208
 21
22.71631
  0
LINE
  8
0
  6
CONTINUOUS
 62
     7
 10
-316.4368
 20
-28.33725
 11
-316.4368
 21
28.33726
  0
LINE
  8
0
  6
CONTINUOUS
 62
     7
 10
-254.4368
 20
-28.33725
 11
-254.4368
 21
28.33726
  0
LINE
  8
0
  6
CONTINUOUS
 62
     7
 10
-313.774
 20
31.0
 11
-257.0995
 21
31.0
  0
LINE
  8
0
  6
CONTINUOUS
 62
     7
 10
-313.774
 20
-31.0
 11
-257.0995
 21
-31.0
  0
LINE
  8
0
  6
DASHED
 62
     7
 10
-291.9367
 20
-31.0
 11
-291.7527
 21
-22.71628
  0
LINE
  8
0
  6
DASHED
 62
     7
 10
-290.9367
 20
-29.99997
 11
-291.9367
 21
-30.99998
  0
LINE
  8
0
  6
DASHED
 62
     7
 10
-279.1279
 20
-22.40872
 11
-278.937
 21
-31.00003
  0
LINE
  8
0
  6
DASHED
 62
     7
 10
-278.9368
 20
-30.99996
 11
-279.9368
 21
-29.99995
  0
LINE
  8
0
  6
DASHED
 62
     7
 10
-279.9368
 20
-30.0
 11
-279.9368
 21
-20.625
  0
LINE
  8
0
  6
DASHED
 62
     7
 10
-290.9368
 20
-30.0
 11
-290.9368
 21
-20.75
  0
LINE
  8
0
  6
DASHED
 62
     7
 10
-279.9368
 20
-30.0
 11
-290.9368
 21
-30.0
  0
LINE
  8
0
  6
CENTER
 62
     2
 10
-314.4368
 20
-24.0
 11
-304.4368
 21
-24.0
  0
LINE
  8
0
  6
CENTER
 62
     2
 10
-314.4368
 20
24.0
 11
-304.4368
 21
24.0
  0
LINE
  8
0
  6
CENTER
 62
     2
 10
-266.4368
 20
-24.0
 11
-256.4368
 21
-24.0
  0
LINE
  8
0
  6
CENTER
 62
     2
 10
-266.4368
 20
24.0
 11
-256.4368
 21
24.0
  0
LINE
  8
0
  6
CENTER
 62
     2
 10
-261.4368
 20
-29.0
 11
-261.4368
 21
-19.0
  0
LINE
  8
0
  6
CENTER
 62
     2
 10
-261.4368
 20
19.0
 11
-261.4368
 21
29.0
  0
LINE
  8
0
  6
CENTER
 62
     2
 10
-309.4368
 20
-29.0
 11
-309.4368
 21
-19.0
  0
LINE
  8
0
  6
CENTER
 62
     2
 10
-309.4368
 20
19.0
 11
-309.4368
 21
29.0
  0
LINE
  8
0
  6
CONTINUOUS
 62
     7
 10
-278.4368
 20
-3.87299
 11
-278.4368
 21
3.87298
  0
LINE
  8
0
  6
CONTINUOUS
 62
     7
 10
-292.4368
 20
-3.87299
 11
-292.4368
 21
3.87298
  0
LINE
  8
0
  6
CONTINUOUS
 62
     7
 10
-253.1902
 20
-5.77351
 11
-250.4834
 21
-5.77351
  0
LINE
  8
0
  6
CONTINUOUS
 62
     7
 10
-253.1902
 20
-2.88676
 11
-250.4834
 21
-2.88676
  0
LINE
  8
0
  6
CONTINUOUS
 62
     7
 10
-253.1902
 20
2.88676
 11
-250.4834
 21
2.88676
  0
LINE
  8
0
  6
CONTINUOUS
 62
     7
 10
-253.1902
 20
5.77351
 11
-250.4834
 21
5.77351
  0
LINE
  8
0
  6
CONTINUOUS
 62
     7
 10
-250.4834
 20
-5.77352
 11
-250.0368
 21
-5.0
  0
LINE
  8
0
  6
CONTINUOUS
 62
     7
 10
-250.4834
 20
5.77353
 11
-250.0368
 21
5.0
  0
LINE
  8
0
  6
CONTINUOUS
 62
     7
 10
-253.1902
 20
-5.7735
 11
-253.6367
 21
-4.99998
  0
LINE
  8
0
  6
CONTINUOUS
 62
     7
 10
-253.1902
 20
5.7735
 11
-253.6368
 21
4.99999
  0
LINE
  8
0
  6
CENTER
 62
     2
 10
283.0
 20
0.0
 11
210.4
 21
0.0
  0
LINE
  8
0
  6
CENTER
 62
     2
 10
250.0
 20
33.0
 11
250.0
 21
-33.0
  0
LINE
  8
0
  6
CONTINUOUS
 62
     7
 10
281.0
 20
28.33725
 11
281.0
 21
-28.33725
  0
LINE
  8
0
  6
CONTINUOUS
 62
     7
 10
219.0
 20
28.33725
 11
219.0
 21
-28.33725
  0
LINE
  8
0
  6
CONTINUOUS
 62
     7
 10
278.3372
 20
-31.0
 11
221.6628
 21
-31.0
  0
LINE
  8
0
  6
CONTINUOUS
 62
     7
 10
278.3372
 20
31.0
 11
221.6628
 21
31.0
  0
LINE
  8
0
  6
CENTER
 62
     2
 10
279.0
 20
24.0
 11
269.0
 21
24.0
  0
LINE
  8
0
  6
CENTER
 62
     2
 10
279.0
 20
-24.0
 11
269.0
 21
-24.0
  0
LINE
  8
0
  6
CENTER
 62
     2
 10
231.0
 20
24.0
 11
221.0
 21
24.0
  0
LINE
  8
0
  6
CENTER
 62
     2
 10
231.0
 20
-24.0
 11
221.0
 21
-24.0
  0
LINE
  8
0
  6
CENTER
 62
     2
 10
226.0
 20
29.0
 11
226.0
 21
19.0
  0
LINE
  8
0
  6
CENTER
 62
     2
 10
226.0
 20
-19.0
 11
226.0
 21
-29.0
  0
LINE
  8
0
  6
CENTER
 62
     2
 10
274.0
 20
29.0
 11
274.0
 21
19.0
  0
LINE
  8
0
  6
CENTER
 62
     2
 10
274.0
 20
-19.0
 11
274.0
 21
-29.0
  0
LINE
  8
0
  6
CONTINUOUS
 62
     7
 10
235.0
 20
-21.23676
 11
235.0
 21
21.23676
  0
LINE
  8
0
  6
CONTINUOUS
 62
     7
 10
265.0
 20
-21.23676
 11
265.0
 21
21.23676
  0
LINE
  8
0
  6
CONTINUOUS
 62
     7
 10
218.2
 20
-6.25001
 11
218.2
 21
6.24999
  0
LINE
  8
0
  6
CONTINUOUS
 62
     7
 10
219.0
 20
-6.25
 11
218.2
 21
-6.25
  0
LINE
  8
0
  6
CONTINUOUS
 62
     7
 10
219.0
 20
6.25
 11
218.2
 21
6.25
  0
LINE
  8
0
  6
CONTINUOUS
 62
     7
 10
214.6
 20
-5.00001
 11
214.6
 21
4.99999
  0
LINE
  8
0
  6
CONTINUOUS
 62
     7
 10
212.4
 20
-2.00001
 11
212.4
 21
-0.50001
  0
LINE
  8
0
  6
CONTINUOUS
 62
     7
 10
214.6
 20
2.5
 11
212.6887
 21
2.5
  0
LINE
  8
0
  6
CONTINUOUS
 62
     7
 10
214.6
 20
-2.5
 11
212.6887
 21
-2.5
  0
LINE
  8
0
  6
CONTINUOUS
 62
     7
 10
212.689
 20
-2.49985
 11
212.4003
 21
-1.99984
  0
LINE
  8
0
  6
CONTINUOUS
 62
     7
 10
212.6885
 20
2.50006
 11
212.3998
 21
2.00005
  0
LINE
  8
0
  6
CONTINUOUS
 62
     7
 10
212.6887
 20
2.49999
 11
212.6887
 21
0.49999
  0
LINE
  8
0
  6
CONTINUOUS
 62
     7
 10
213.9
 20
-0.50001
 11
213.9
 21
0.49999
  0
LINE
  8
0
  6
CONTINUOUS
 62
     7
 10
213.9
 20
-0.5
 11
212.4
 21
-0.5
  0
LINE
  8
0
  6
CONTINUOUS
 62
     7
 10
213.9
 20
0.5
 11
212.4
 21
0.5
  0
LINE
  8
0
  6
CONTINUOUS
 62
     7
 10
212.6887
 20
-0.50001
 11
212.6887
 21
-2.50001
  0
LINE
  8
0
  6
CONTINUOUS
 62
     7
 10
212.4
 20
0.49999
 11
212.4
 21
1.99999
  0
LINE
  8
0
  6
CONTINUOUS
 62
     7
 10
214.6
 20
2.09999
 11
212.4577
 21
2.09999
  0
LINE
  8
0
  6
CONTINUOUS
 62
     7
 10
214.6
 20
-2.10001
 11
212.4577
 21
-2.10001
  0
LINE
  8
0
  6
CONTINUOUS
 62
     7
 10
217.7534
 20
5.77351
 11
215.0466
 21
5.77351
  0
LINE
  8
0
  6
CONTINUOUS
 62
     7
 10
217.7534
 20
2.88676
 11
215.0466
 21
2.88676
  0
LINE
  8
0
  6
CONTINUOUS
 62
     7
 10
217.7534
 20
-2.88676
 11
215.0466
 21
-2.88676
  0
LINE
  8
0
  6
CONTINUOUS
 62
     7
 10
217.7534
 20
-5.77351
 11
215.0466
 21
-5.77351
  0
LINE
  8
0
  6
CONTINUOUS
 62
     7
 10
215.0466
 20
5.77347
 11
214.6
 21
4.99996
  0
LINE
  8
0
  6
CONTINUOUS
 62
     7
 10
215.0465
 20
-5.77358
 11
214.5999
 21
-5.00007
  0
LINE
  8
0
  6
CONTINUOUS
 62
     7
 10
217.7532
 20
5.77342
 11
218.1998
 21
4.99991
  0
LINE
  8
0
  6
CONTINUOUS
 62
     7
 10
217.7534
 20
-5.77352
 11
218.2
 21
-4.99999
  0
LINE
  8
0
  6
CONTINUOUS
 62
     7
 10
-109.5
 20
-186.4037
 11
-100.0
 21
-191.8885
  0
LINE
  8
0
  6
CONTINUOUS
 62
     7
 10
-109.5
 20
-175.4341
 11
-109.5
 21
-186.4037
  0
LINE
  8
0
  6
CONTINUOUS
 62
     7
 10
-109.4999
 20
-175.4341
 11
-99.99995
 21
-169.9493
  0
LINE
  8
0
  6
CONTINUOUS
 62
     7
 10
-100.0
 20
-169.9492
 11
-90.50001
 21
-175.434
  0
LINE
  8
0
  6
CONTINUOUS
 62
     7
 10
-90.5
 20
-175.434
 11
-90.5
 21
-186.4037
  0
LINE
  8
0
  6
CONTINUOUS
 62
     7
 10
-99.99995
 20
-191.8885
 11
-90.49996
 21
-186.4037
  0
LINE
  8
0
  6
CENTER
 62
     2
 10
-112.5
 20
-180.9189
 11
-87.5
 21
-180.9189
  0
LINE
  8
0
  6
CENTER
 62
     2
 10
-100.0
 20
-168.4189
 11
-100.0
 21
-193.4189
  0
LINE
  8
0
  6
CONTINUOUS
 62
     7
 10
0.84846
 20
-169.9492
 11
7.15145
 21
-169.9492
  0
LINE
  8
0
  6
CONTINUOUS
 62
     7
 10
0.84846
 20
-191.8885
 11
7.15149
 21
-191.8885
  0
LINE
  8
0
  6
CONTINUOUS
 62
     7
 10
0.84845
 20
-169.9492
 11
0.0
 21
-171.4188
  0
LINE
  8
0
  6
CONTINUOUS
 62
     7
 10
7.15146
 20
-169.9492
 11
8.0
 21
-171.4189
  0
LINE
  8
0
  6
CONTINUOUS
 62
     7
 10
7.15149
 20
-191.8885
 11
8.0
 21
-190.4189
  0
LINE
  8
0
  6
CONTINUOUS
 62
     7
 10
0.0
 20
-190.4189
 11
0.0
 21
-171.4188
  0
LINE
  8
0
  6
CONTINUOUS
 62
     7
 10
0.0
 20
-190.4189
 11
0.84846
 21
-191.8885
  0
LINE
  8
0
  6
CONTINUOUS
 62
     7
 10
0.84848
 20
-186.4037
 11
7.15149
 21
-186.4037
  0
LINE
  8
0
  6
CONTINUOUS
 62
     7
 10
0.84848
 20
-175.434
 11
7.15149
 21
-175.434
  0
LINE
  8
0
  6
CONTINUOUS
 62
     7
 10
8.0
 20
-190.4189
 11
8.0
 21
-171.4189
  0
LINE
  8
0
  6
CENTER
 62
     2
 10
-2.00002
 20
-180.9189
 11
9.99998
 21
-180.9189
  0
ARC
  8
0
  6
CONTINUOUS
 62
     7
 10
273.0354
 20
-235.0457
 40
2.21188
 50
0.0
 51
89.99999
  0
ARC
  8
0
  6
CONTINUOUS
 62
     7
 10
291.2836
 20
-246.9346
 40
2.2119
 50
270.0
 51
0.0
  0
ARC
  8
0
  6
CONTINUOUS
 62
     7
 10
290.1776
 20
-236.1516
 40
3.31784
 50
0.0
 51
89.99999
  0
ARC
  8
0
  6
CONTINUOUS
 62
     7
 10
310.3611
 20
-236.8128
 40
2.21189
 50
295.0
 51
0.0
  0
ARC
  8
0
  6
CONTINUOUS
 62
     7
 10
310.3611
 20
-235.0457
 40
2.21188
 50
0.0
 51
89.99999
  0
ARC
  8
0
  6
CONTINUOUS
 62
     7
 10
327.5034
 20
-232.8338
 40
3.31784
 50
291.6884
 51
0.0
  0
ARC
  8
0
  6
CONTINUOUS
 62
     7
 10
326.3973
 20
-232.0834
 40
1.10595
 50
291.689
 51
0.0
  0
CIRCLE
  8
0
  6
CONTINUOUS
 62
     7
 10
83.0
 20
0.0
 40
6.25
  0
CIRCLE
  8
0
  6
CONTINUOUS
 62
     7
 10
83.0
 20
0.0
 40
5.0
  0
ARC
  8
0
  6
CONTINUOUS
 62
     7
 10
83.0
 20
0.0
 40
2.067
 50
13.99849
 51
166.0015
  0
CIRCLE
  8
0
  6
CONTINUOUS
 62
     7
 10
83.0
 20
0.0
 40
2.5
  0
ARC
  8
0
  6
CONTINUOUS
 62
     7
 10
-88.0
 20
0.0
 40
2.067
 50
13.99849
 51
166.0015
  0
CIRCLE
  8
0
  6
CONTINUOUS
 62
     7
 10
-88.0
 20
0.0
 40
2.5
  0
CIRCLE
  8
0
  6
CONTINUOUS
 62
     7
 10
-88.0
 20
0.0
 40
6.25
  0
CIRCLE
  8
0
  6
CONTINUOUS
 62
     7
 10
-88.0
 20
0.0
 40
5.0
  0
ARC
  8
0
  6
CONTINUOUS
 62
     7
 10
-88.0
 20
0.0
 40
2.067
 50
193.9985
 51
346.0015
  0
ARC
  8
0
  6
CONTINUOUS
 62
     7
 10
83.0
 20
0.0
 40
2.067
 50
193.9985
 51
346.0015
  0
ARC
  8
0
  6
CONTINUOUS
 62
     7
 10
-119.0
 20
0.0
 40
8.0
 50
151.045
 51
208.955
  0
ARC
  8
0
  6
CONTINUOUS
 62
     7
 10
-129.0
 20
0.0
 40
7.99999
 50
331.045
 51
28.95505
  0
CIRCLE
  8
0
  6
CONTINUOUS
 62
     7
 10
-88.0
 20
127.2792
 40
5.50001
  0
CIRCLE
  8
0
  6
CONTINUOUS
 62
     7
 10
-88.0
 20
127.2792
 40
6.50003
  0
ARC
  8
0
  6
CONTINUOUS
 62
     7
 10
-90.5
 20
88.04576
 40
7.43349
 50
70.34742
 51
109.6526
  0
ARC
  8
0
  6
CONTINUOUS
 62
     7
 10
-90.5
 20
99.31273
 40
7.43349
 50
250.3474
 51
289.6525
  0
ARC
  8
0
  6
CONTINUOUS
 62
     7
 10
-85.5
 20
88.04576
 40
7.43349
 50
70.34737
 51
109.6525
  0
ARC
  8
0
  6
CONTINUOUS
 62
     7
 10
-85.5
 20
99.31273
 40
7.43348
 50
250.3475
 51
289.6526
  0
ARC
  8
0
  6
CONTINUOUS
 62
     7
 10
80.5
 20
93.04576
 40
7.43349
 50
70.34742
 51
109.6526
  0
ARC
  8
0
  6
CONTINUOUS
 62
     7
 10
80.5
 20
104.3127
 40
7.43349
 50
250.3474
 51
289.6525
  0
ARC
  8
0
  6
CONTINUOUS
 62
     7
 10
85.5
 20
93.04576
 40
7.43349
 50
70.34737
 51
109.6525
  0
ARC
  8
0
  6
CONTINUOUS
 62
     7
 10
85.5
 20
104.3127
 40
7.43348
 50
250.3475
 51
289.6526
  0
CIRCLE
  8
0
  6
CONTINUOUS
 62
     7
 10
-285.4368
 20
0.0
 40
7.0
  0
CIRCLE
  8
0
  6
CONTINUOUS
 62
     7
 10
-285.4368
 20
0.0
 40
6.188
  0
ARC
  8
0
  6
CONTINUOUS
 62
     7
 10
-285.4368
 20
0.0
 40
42.0
 50
132.4306
 51
137.5694
  0
ARC
  8
0
  6
CONTINUOUS
 62
     7
 10
-285.4368
 20
0.0
 40
42.0
 50
42.43059
 51
47.56941
  0
ARC
  8
0
  6
CONTINUOUS
 62
     7
 10
-285.4368
 20
0.0
 40
42.00001
 50
312.4305
 51
317.5694
  0
ARC
  8
0
  6
CONTINUOUS
 62
     7
 10
-285.4368
 20
0.0
 40
41.99999
 50
222.4306
 51
227.5695
  0
CIRCLE
  8
0
  6
CONTINUOUS
 62
     7
 10
-309.4368
 20
-24.0
 40
3.3
  0
CIRCLE
  8
0
  6
CONTINUOUS
 62
     7
 10
-309.4368
 20
24.0
 40
3.3
  0
CIRCLE
  8
0
  6
CONTINUOUS
 62
     7
 10
-261.4368
 20
24.0
 40
3.3
  0
CIRCLE
  8
0
  6
CONTINUOUS
 62
     7
 10
-261.4368
 20
-24.0
 40
3.3
  0
CIRCLE
  8
0
  6
CONTINUOUS
 62
     7
 10
-285.4368
 20
0.0
 40
16.0
  0
CIRCLE
  8
0
  6
CONTINUOUS
 62
     7
 10
-285.4368
 20
0.0
 40
16.5
  0
CIRCLE
  8
0
  6
CONTINUOUS
 62
     7
 10
-285.4368
 20
0.0
 40
17.0
  0
CIRCLE
  8
0
  6
CONTINUOUS
 62
     7
 10
-285.4368
 20
0.0
 40
8.0
  0
ARC
  8
0
  6
CONTINUOUS
 62
     7
 10
-259.5901
 20
0.0
 40
9.55331
 50
342.4117
 51
17.58822
  0
ARC
  8
0
  6
CONTINUOUS
 62
     7
 10
-252.5926
 20
4.33013
 40
2.55578
 50
325.6151
 51
0.0
  0
ARC
  8
0
  6
CONTINUOUS
 62
     7
 10
-252.5926
 20
-4.33014
 40
2.55579
 50
359.9999
 51
34.38482
  0
ARC
  8
0
  6
CONTINUOUS
 62
     7
 10
-251.081
 20
-4.33014
 40
2.55578
 50
145.6152
 51
180.0
  0
ARC
  8
0
  6
CONTINUOUS
 62
     7
 10
-244.0835
 20
0.0
 40
9.55331
 50
162.4117
 51
197.5882
  0
ARC
  8
0
  6
CONTINUOUS
 62
     7
 10
-251.081
 20
4.33013
 40
2.55579
 50
180.0
 51
214.3848
  0
ARC
  8
0
  6
CONTINUOUS
 62
     7
 10
250.0
 20
0.0
 40
41.99999
 50
312.4306
 51
317.5694
  0
ARC
  8
0
  6
CONTINUOUS
 62
     7
 10
250.0
 20
0.0
 40
42.0
 50
222.4306
 51
227.5694
  0
ARC
  8
0
  6
CONTINUOUS
 62
     7
 10
250.0
 20
0.0
 40
42.0
 50
132.4306
 51
137.5694
  0
ARC
  8
0
  6
CONTINUOUS
 62
     7
 10
250.0
 20
0.0
 40
42.00001
 50
42.4306
 51
47.56943
  0
CIRCLE
  8
0
  6
CONTINUOUS
 62
     7
 10
274.0
 20
24.0
 40
3.3
  0
CIRCLE
  8
0
  6
CONTINUOUS
 62
     7
 10
274.0
 20
-24.0
 40
3.3
  0
CIRCLE
  8
0
  6
CONTINUOUS
 62
     7
 10
226.0
 20
-24.0
 40
3.3
  0
CIRCLE
  8
0
  6
CONTINUOUS
 62
     7
 10
226.0
 20
24.0
 40
3.3
  0
CIRCLE
  8
0
  6
CONTINUOUS
 62
     7
 10
250.0
 20
0.0
 40
5.5
  0
CIRCLE
  8
0
  6
CONTINUOUS
 62
     7
 10
250.0
 20
0.0
 40
6.50002
  0
CIRCLE
  8
0
  6
CONTINUOUS
 62
     7
 10
250.0
 20
0.0
 40
26.0
  0
ARC
  8
0
  6
CONTINUOUS
 62
     7
 10
250.0
 20
0.0
 40
24.00001
 50
231.3178
 51
308.6822
  0
ARC
  8
0
  6
CONTINUOUS
 62
     7
 10
250.0
 20
0.0
 40
24.0
 50
51.31781
 51
128.6822
  0
ARC
  8
0
  6
CONTINUOUS
 62
     7
 10
224.1533
 20
-0.00001
 40
9.55331
 50
162.4118
 51
197.5882
  0
ARC
  8
0
  6
CONTINUOUS
 62
     7
 10
217.1558
 20
-4.33014
 40
2.55578
 50
145.6151
 51
180.0
  0
ARC
  8
0
  6
CONTINUOUS
 62
     7
 10
217.1558
 20
4.33013
 40
2.55579
 50
179.9999
 51
214.3848
  0
ARC
  8
0
  6
CONTINUOUS
 62
     7
 10
215.6442
 20
4.33013
 40
2.55578
 50
325.6151
 51
0.00003
  0
ARC
  8
0
  6
CONTINUOUS
 62
     7
 10
208.6467
 20
0.0
 40
9.55331
 50
342.4117
 51
17.58821
  0
ARC
  8
0
  6
CONTINUOUS
 62
     7
 10
215.6442
 20
-4.33014
 40
2.55579
 50
360.0
 51
34.38483
  0
CIRCLE
  8
0
  6
CONTINUOUS
 62
     7
 10
-100.0
 20
-180.9189
 40
9.5
  0
CIRCLE
  8
0
  6
CONTINUOUS
 62
     7
 10
-100.0
 20
-180.9189
 40
7.0
  0
CIRCLE
  8
0
  6
CONTINUOUS
 62
     7
 10
-100.0
 20
-180.9189
 40
6.0
  0
ARC
  8
0
  6
CONTINUOUS
 62
     7
 10
4.85629
 20
-172.6916
 40
4.85629
 50
180.0
 51
214.3824
  0
ARC
  8
0
  6
CONTINUOUS
 62
     7
 10
18.15248
 20
-180.9189
 40
18.15248
 50
162.4131
 51
197.5869
  0
ARC
  8
0
  6
CONTINUOUS
 62
     7
 10
4.85629
 20
-189.1461
 40
4.85629
 50
145.6175
 51
180.0
  0
ARC
  8
0
  6
CONTINUOUS
 62
     7
 10
3.14371
 20
-172.6916
 40
4.85628
 50
325.6177
 51
0.0
  0
ARC
  8
0
  6
CONTINUOUS
 62
     7
 10
-10.15248
 20
-180.9189
 40
18.15248
 50
342.4131
 51
17.58698
  0
ARC
  8
0
  6
CONTINUOUS
 62
     7
 10
3.14371
 20
-189.1461
 40
4.85629
 50
0.0
 51
34.38247
  0
TEXT
  8
0
  6
CONTINUOUS
 62
     7
 10
-350.9787
 20
200.5946
 40
8.5
  1
MODEL : DAB 50*ST-4(100)
 41
0.8
  7
STANDARD
  0
TEXT
  8
0
  6
CONTINUOUS
 62
     7
 10
229.0661
 20
236.2625
 40
8.5
  1
DATE : AUG ,1989
 41
0.8
  7
STANDARD
  0
TEXT
  8
0
  6
CONTINUOUS
 62
     7
 10
-362.9299
 20
235.5575
 40
10.0
  1
SLIM BLOCK CYL
 41
0.8
  7
STANDARD
  0
TEXT
  8
0
  6
CONTINUOUS
 62
     7
 10
-137.15
 20
-124.2089
 40
7.0
  1
ROD NUT(M14)
 41
0.8
  7
STANDARD
  0
TEXT
  8
0
  6
CONTINUOUS
 62
     7
 10
-10.82995
 20
-61.09493
 40
7.0
  1
CATALOG
 41
0.8
  7
STANDARD
  0
ENDSEC
  0
EOF
