  0
SECTION
  2
HEADER
  9
$ACADVER
  1
AC1002
  9
$INSBASE
 10
0.0
 20
0.0
  9
$EXTMIN
 10
-262.2472
 20
-180.0
  9
$EXTMAX
 10
262.2472
 20
180.0
  9
$LIMMIN
 10
0.0
 20
0.0
  9
$LIMMAX
 10
12.0
 20
9.0
  9
$VIEWCTR
 10
20.22981726
 20
0.0
  9
$VIEWSIZE
 40
360.0
  9
$SNAPMODE
 70
     0
  9
$SNAPUNIT
 10
1.0
 20
1.0
  9
$SNAPBASE
 10
0.0
 20
0.0
  9
$SNAPANG
 50
0.0
  9
$SNAPSTYLE
 70
     0
  9
$SNAPISOPAIR
 70
     0
  9
$GRIDMODE
 70
     0
  9
$GRIDUNIT
 10
0.0
 20
0.0
  9
$ORTHOMODE
 70
     0
  9
$REGENMODE
 70
     1
  9
$FILLMODE
 70
     1
  9
$QTEXTMODE
 70
     0
  9
$DRAGMODE
 70
     2
  9
$LTSCALE
 40
1.0
  9
$OSMODE
 70
     0
  9
$ATTMODE
 70
     1
  9
$TEXTSIZE
 40
0.2
  9
$TRACEWID
 40
0.05
  9
$TEXTSTYLE
  7
AAA
  9
$CLAYER
  8
0
  9
$CELTYPE
  6
BYLAYER
  9
$CECOLOR
 62
   256
  9
$DIMSCALE
 40
1.0
  9
$DIMASZ
 40
0.18
  9
$DIMEXO
 40
0.0625
  9
$DIMDLI
 40
0.38
  9
$DIMRND
 40
0.0
  9
$DIMDLE
 40
0.0
  9
$DIMEXE
 40
0.18
  9
$DIMTP
 40
0.0
  9
$DIMTM
 40
0.0
  9
$DIMTXT
 40
0.18
  9
$DIMCEN
 40
0.09
  9
$DIMTSZ
 40
0.0
  9
$DIMTOL
 70
     0
  9
$DIMLIM
 70
     0
  9
$DIMTIH
 70
     1
  9
$DIMTOH
 70
     1
  9
$DIMSE1
 70
     0
  9
$DIMSE2
 70
     0
  9
$DIMTAD
 70
     0
  9
$DIMZIN
 70
     0
  9
$DIMBLK
  1

  9
$LUNITS
 70
     2
  9
$LUPREC
 70
     4
  9
$AXISMODE
 70
     0
  9
$AXISUNIT
 10
0.0
 20
0.0
  9
$SKETCHINC
 40
0.1
  9
$FILLETRAD
 40
0.0
  9
$AUNITS
 70
     0
  9
$AUPREC
 70
     0
  9
$MENU
  1
ACAD
  9
$ELEVATION
 40
0.0
  9
$THICKNESS
 40
0.0
  9
$VIEWDIR
 10
0.0
 20
0.0
 30
1.0
  9
$LIMCHECK
 70
     0
  9
$BLIPMODE
 70
     1
  9
$CHAMFERA
 40
0.0
  9
$CHAMFERB
 40
0.0
  9
$FASTZOOM
 70
     1
  9
$SKPOLY
 70
     0
  9
$TDCREATE
 40
2447804.4083912533
  9
$TDUPDATE
 40
2447804.4083912533
  9
$TDINDWG
 40
0.0006365741
  9
$TDUSRTIMER
 40
0.0006365741
  9
$USRTIMER
 70
     1
  9
$ANGBASE
 50
0.0
  9
$ANGDIR
 70
     0
  9
$PDMODE
 70
     0
  9
$PDSIZE
 40
0.0
  9
$PLINEWID
 40
0.0
  9
$COORDS
 70
     0
  9
$USERI1
 70
     0
  9
$USERI2
 70
     0
  9
$USERI3
 70
     0
  9
$USERI4
 70
     0
  9
$USERI5
 70
     0
  9
$USERR1
 40
0.0
  9
$USERR2
 40
0.0
  9
$USERR3
 40
0.0
  9
$USERR4
 40
0.0
  9
$USERR5
 40
0.0
  0
ENDSEC
  0
SECTION
  2
TABLES
  0
TABLE
  2
LTYPE
 70
     5
  0
LTYPE
  2
CONTINUOUS
 70
    64
  3
SOLID
 72
    65
 73
     0
 40
0.0
  0
LTYPE
  2
DASHED
 70
    64
  3
DASHED
 72
    65
 73
     2
 40
0.75
 49
0.5
 49
-0.25
  0
LTYPE
  2
CENTER
 70
    64
  3
CENTER
 72
    65
 73
     4
 40
2.0
 49
1.25
 49
-0.25
 49
0.25
 49
-0.25
  0
LTYPE
  2
PHANTOM
 70
    64
  3
PHANTOM
 72
    65
 73
     6
 40
2.5
 49
1.25
 49
-0.25
 49
0.25
 49
-0.25
 49
0.25
 49
-0.25
  0
ENDTAB
  0
TABLE
  2
LAYER
 70
     1
  0
LAYER
  2
0
 70
    64
 62
     7
  6
CONTINUOUS
  0
ENDTAB
  0
TABLE
  2
STYLE
 70
     2
  0
STYLE
  2
AAA
 70
     0
 40
0.0
 41
1.0
 50
0.0
 71
     0
 42
0.2
  3
TXT
  4

  0
STYLE
  2
STANDARD
 70
    64
 40
0.0
 41
1.0
 50
0.0
 71
     0
 42
0.2
  3
TXT
  4
BIGFONT
  0
ENDTAB
  0
TABLE
  2
VIEW
 70
     0
  0
ENDTAB
  0
ENDSEC
  0
SECTION
  2
BLOCKS
  0
ENDSEC
  0
SECTION
  2
ENTITIES
  0
POINT
  8
0
  6
CONTINUOUS
 62
     7
 10
-211.3657
 20
-10.0
  0
POINT
  8
0
  6
CONTINUOUS
 62
     7
 10
-177.3657
 20
-10.0
  0
POINT
  8
0
  6
CONTINUOUS
 62
     7
 10
-86.5
 20
-10.0
  0
POINT
  8
0
  6
CONTINUOUS
 62
     7
 10
103.5
 20
-10.0
  0
POINT
  8
0
  6
CONTINUOUS
 62
     7
 10
-86.5
 20
94.8
  0
POINT
  8
0
  6
CONTINUOUS
 62
     7
 10
103.5
 20
94.8
  0
POINT
  8
0
  6
CONTINUOUS
 62
     7
 10
197.3657
 20
-10.0
  0
POINT
  8
0
  6
CONTINUOUS
 62
     7
 10
231.3657
 20
-10.0
  0
POINT
  8
0
  6
CONTINUOUS
 62
     7
 10
-6.5
 20
-130.0001
  0
POINT
  8
0
  6
CONTINUOUS
 62
     7
 10
1.5
 20
-130.0001
  0
POINT
  8
0
  6
CONTINUOUS
 62
     7
 10
-66.5
 20
-130.0001
  0
POINT
  8
0
  6
CONTINUOUS
 62
     7
 10
-57.0
 20
-130.0001
  0
LINE
  8
0
  6
CONTINUOUS
 62
     7
 10
-262.2472
 20
-180.0
 11
-262.2472
 21
180.0
  0
LINE
  8
0
  6
CONTINUOUS
 62
     7
 10
262.2472
 20
180.0
 11
262.2472
 21
-180.0
  0
LINE
  8
0
  6
CONTINUOUS
 62
     7
 10
-262.2472
 20
-180.0
 11
262.2472
 21
-180.0
  0
LINE
  8
0
  6
CONTINUOUS
 62
     7
 10
-262.2472
 20
180.0
 11
262.2472
 21
180.0
  0
LINE
  8
0
  6
CONTINUOUS
 62
     7
 10
-262.2472
 20
159.7753
 11
-154.382
 21
159.7753
  0
LINE
  8
0
  6
CONTINUOUS
 62
     7
 10
-154.382
 20
159.7753
 11
-154.382
 21
180.0
  0
LINE
  8
0
  6
CONTINUOUS
 62
     7
 10
154.382
 20
-159.7753
 11
262.2472
 21
-159.7753
  0
LINE
  8
0
  6
CONTINUOUS
 62
     7
 10
182.7034
 20
-164.6383
 11
193.0652
 21
-164.6383
  0
LINE
  8
0
  6
CONTINUOUS
 62
     7
 10
182.7034
 20
-173.8271
 11
191.5012
 21
-173.8271
  0
LINE
  8
0
  6
CONTINUOUS
 62
     7
 10
182.7034
 20
-176.1732
 11
194.6293
 21
-176.1732
  0
LINE
  8
0
  6
CONTINUOUS
 62
     7
 10
182.7034
 20
-166.9844
 11
191.5012
 21
-166.9844
  0
LINE
  8
0
  6
CONTINUOUS
 62
     7
 10
182.7034
 20
-164.6383
 11
182.7034
 21
-166.9844
  0
LINE
  8
0
  6
CONTINUOUS
 62
     7
 10
194.6293
 20
-166.2024
 11
194.6293
 21
-176.1732
  0
LINE
  8
0
  6
CONTINUOUS
 62
     7
 10
191.5012
 20
-166.9844
 11
191.5012
 21
-173.8271
  0
LINE
  8
0
  6
CONTINUOUS
 62
     7
 10
196.3888
 20
-164.6383
 11
196.3888
 21
-166.9844
  0
LINE
  8
0
  6
CONTINUOUS
 62
     7
 10
207.5326
 20
-166.9844
 11
207.5326
 21
-174.6092
  0
LINE
  8
0
  6
CONTINUOUS
 62
     7
 10
204.4045
 20
-166.9844
 11
204.4045
 21
-173.8271
  0
LINE
  8
0
  6
CONTINUOUS
 62
     7
 10
182.7034
 20
-173.8271
 11
182.7034
 21
-176.1732
  0
LINE
  8
0
  6
CONTINUOUS
 62
     7
 10
196.3888
 20
-164.6383
 11
199.4796
 21
-164.6383
  0
LINE
  8
0
  6
CONTINUOUS
 62
     7
 10
196.3888
 20
-176.1732
 11
198.8176
 21
-176.1732
  0
LINE
  8
0
  6
CONTINUOUS
 62
     7
 10
196.3887
 20
-176.1731
 11
198.8509
 21
-166.9843
  0
LINE
  8
0
  6
CONTINUOUS
 62
     7
 10
196.3888
 20
-166.9844
 11
198.8509
 21
-166.9844
  0
LINE
  8
0
  6
CONTINUOUS
 62
     7
 10
198.8178
 20
-176.1733
 11
201.2799
 21
-166.9845
  0
LINE
  8
0
  6
CONTINUOUS
 62
     7
 10
202.0584
 20
-173.8271
 11
204.4045
 21
-173.8271
  0
LINE
  8
0
  6
CONTINUOUS
 62
     7
 10
202.0584
 20
-173.8271
 11
202.6869
 21
-176.1731
  0
LINE
  8
0
  6
CONTINUOUS
 62
     7
 10
202.6871
 20
-176.1732
 11
205.9686
 21
-176.1732
  0
LINE
  8
0
  6
CONTINUOUS
 62
     7
 10
201.2798
 20
-166.9844
 11
204.4045
 21
-166.9844
  0
LINE
  8
0
  6
CONTINUOUS
 62
     7
 10
201.9084
 20
-164.6383
 11
205.1865
 21
-164.6383
  0
LINE
  8
0
  6
CONTINUOUS
 62
     7
 10
199.4796
 20
-164.6384
 11
199.9458
 21
-162.8984
  0
LINE
  8
0
  6
CONTINUOUS
 62
     7
 10
201.9082
 20
-164.6382
 11
202.3744
 21
-162.8982
  0
LINE
  8
0
  6
CONTINUOUS
 62
     7
 10
209.4877
 20
-164.6383
 11
213.2023
 21
-164.6383
  0
LINE
  8
0
  6
CONTINUOUS
 62
     7
 10
209.4877
 20
-166.9844
 11
218.6106
 21
-166.9844
  0
LINE
  8
0
  6
CONTINUOUS
 62
     7
 10
213.2023
 20
-176.1732
 11
216.3303
 21
-176.1732
  0
LINE
  8
0
  6
CONTINUOUS
 62
     7
 10
209.4877
 20
-164.6383
 11
209.4877
 21
-166.9844
  0
LINE
  8
0
  6
CONTINUOUS
 62
     7
 10
221.0225
 20
-171.2385
 11
221.0225
 21
-173.8271
  0
LINE
  8
0
  6
CONTINUOUS
 62
     7
 10
209.4875
 20
-173.827
 11
213.2022
 21
-172.0948
  0
LINE
  8
0
  6
CONTINUOUS
 62
     7
 10
209.4879
 20
-171.2387
 11
218.6108
 21
-166.9846
  0
LINE
  8
0
  6
CONTINUOUS
 62
     7
 10
209.4877
 20
-171.2385
 11
209.4877
 21
-173.8271
  0
LINE
  8
0
  6
CONTINUOUS
 62
     7
 10
216.3302
 20
-171.6391
 11
221.0225
 21
-173.827
  0
LINE
  8
0
  6
CONTINUOUS
 62
     7
 10
218.0311
 20
-169.8436
 11
221.0228
 21
-171.2387
  0
LINE
  8
0
  6
CONTINUOUS
 62
     7
 10
221.0225
 20
-166.2024
 11
221.0225
 21
-167.4519
  0
LINE
  8
0
  6
CONTINUOUS
 62
     7
 10
213.2023
 20
-162.8984
 11
213.2023
 21
-164.6383
  0
LINE
  8
0
  6
CONTINUOUS
 62
     7
 10
216.3303
 20
-162.8984
 11
216.3303
 21
-164.6383
  0
LINE
  8
0
  6
CONTINUOUS
 62
     7
 10
216.3303
 20
-164.6383
 11
219.4585
 21
-164.6383
  0
LINE
  8
0
  6
CONTINUOUS
 62
     7
 10
213.2023
 20
-172.095
 11
213.2023
 21
-176.1732
  0
LINE
  8
0
  6
CONTINUOUS
 62
     7
 10
216.3303
 20
-171.6392
 11
216.3303
 21
-176.1732
  0
LINE
  8
0
  6
CONTINUOUS
 62
     7
 10
218.031
 20
-169.8436
 11
220.1197
 21
-168.8696
  0
LINE
  8
0
  6
CONTINUOUS
 62
     7
 10
231.5798
 20
-163.6022
 11
233.9258
 21
-163.6022
  0
LINE
  8
0
  6
CONTINUOUS
 62
     7
 10
222.0001
 20
-168.4483
 11
222.0001
 21
-170.9731
  0
LINE
  8
0
  6
CONTINUOUS
 62
     7
 10
233.9258
 20
-163.6022
 11
233.9258
 21
-164.6383
  0
LINE
  8
0
  6
CONTINUOUS
 62
     7
 10
231.5798
 20
-163.6022
 11
231.5798
 21
-164.1077
  0
LINE
  8
0
  6
CONTINUOUS
 62
     7
 10
228.4517
 20
-168.4072
 11
228.4517
 21
-176.1732
  0
LINE
  8
0
  6
CONTINUOUS
 62
     7
 10
222.0001
 20
-168.4484
 11
231.0869
 21
-164.8345
  0
LINE
  8
0
  6
CONTINUOUS
 62
     7
 10
222.0001
 20
-170.9732
 11
228.4518
 21
-168.4073
  0
LINE
  8
0
  6
CONTINUOUS
 62
     7
 10
228.4517
 20
-176.1732
 11
231.5798
 21
-176.1732
  0
LINE
  8
0
  6
CONTINUOUS
 62
     7
 10
231.5798
 20
-167.1632
 11
231.5798
 21
-176.1732
  0
LINE
  8
0
  6
CONTINUOUS
 62
     7
 10
231.5801
 20
-167.1633
 11
232.4471
 21
-166.8185
  0
LINE
  8
0
  6
CONTINUOUS
 62
     7
 10
199.7572
 20
-162.8984
 11
202.3746
 21
-162.8984
  0
LINE
  8
0
  6
CONTINUOUS
 62
     7
 10
206.2618
 20
-162.8984
 11
207.2589
 21
-162.8984
  0
LINE
  8
0
  6
CONTINUOUS
 62
     7
 10
213.2023
 20
-162.8984
 11
216.3303
 21
-162.8984
  0
LINE
  8
0
  6
CONTINUOUS
 62
     7
 10
206.2618
 20
-164.4624
 11
207.2589
 21
-164.4624
  0
LINE
  8
0
  6
CONTINUOUS
 62
     7
 10
206.2618
 20
-162.8984
 11
206.2618
 21
-164.4624
  0
LINE
  8
0
  6
CONTINUOUS
 62
     7
 10
207.2589
 20
-162.8984
 11
207.2589
 21
-164.4624
  0
LINE
  8
0
  6
CONTINUOUS
 62
     7
 10
207.8454
 20
-162.8984
 11
207.8454
 21
-164.4624
  0
LINE
  8
0
  6
CONTINUOUS
 62
     7
 10
208.9598
 20
-162.8984
 11
208.9598
 21
-164.4624
  0
LINE
  8
0
  6
CONTINUOUS
 62
     7
 10
207.8454
 20
-162.8984
 11
208.9598
 21
-162.8984
  0
LINE
  8
0
  6
CONTINUOUS
 62
     7
 10
207.8454
 20
-164.4624
 11
208.9598
 21
-164.4624
  0
LINE
  8
0
  6
CONTINUOUS
 62
     7
 10
154.382
 20
159.7753
 11
262.2472
 21
159.7753
  0
LINE
  8
0
  6
CONTINUOUS
 62
     7
 10
154.382
 20
180.0
 11
154.382
 21
159.7753
  0
LINE
  8
0
  6
CONTINUOUS
 62
     7
 10
154.382
 20
-159.7753
 11
154.382
 21
-180.0
  0
LINE
  8
0
  6
CONTINUOUS
 62
     2
 10
-56.5
 20
-32.19504
 11
-56.5
 21
-57.0
  0
LINE
  8
0
  6
CONTINUOUS
 62
     2
 10
103.5
 20
-29.57703
 11
103.5
 21
-57.0
  0
LINE
  8
0
  6
CONTINUOUS
 62
     2
 10
103.4999
 20
-54.99978
 11
100.4999
 21
-55.80363
  0
LINE
  8
0
  6
CONTINUOUS
 62
     2
 10
103.5
 20
-55.00001
 11
100.5
 21
-54.19617
  0
LINE
  8
0
  6
CONTINUOUS
 62
     2
 10
-56.50002
 20
-54.99992
 11
-53.50001
 21
-54.19606
  0
LINE
  8
0
  6
CONTINUOUS
 62
     2
 10
-56.49995
 20
-54.9999
 11
-53.49995
 21
-55.80375
  0
LINE
  8
0
  6
CONTINUOUS
 62
     2
 10
-56.4999
 20
-54.99997
 11
103.5
 21
-54.99997
  0
LINE
  8
0
  6
CONTINUOUS
 62
     7
 10
-94.5
 20
-3.0
 11
-94.5
 21
-17.0
  0
LINE
  8
0
  6
CONTINUOUS
 62
     7
 10
-92.5
 20
-17.0
 11
-92.5
 21
-3.0
  0
LINE
  8
0
  6
CONTINUOUS
 62
     7
 10
-92.49998
 20
-3.0
 11
-91.49998
 21
-2.0
  0
LINE
  8
0
  6
CONTINUOUS
 62
     7
 10
-92.49999
 20
-17.0
 11
-91.49998
 21
-18.0
  0
LINE
  8
0
  6
CONTINUOUS
 62
     7
 10
-91.5
 20
-6.12702
 11
-91.5
 21
-2.0
  0
LINE
  8
0
  6
CONTINUOUS
 62
     7
 10
-91.5
 20
-6.12702
 11
-87.5
 21
-6.12702
  0
LINE
  8
0
  6
CONTINUOUS
 62
     7
 10
-91.5
 20
-13.87299
 11
-87.5
 21
-13.87299
  0
LINE
  8
0
  6
CONTINUOUS
 62
     7
 10
-91.50006
 20
-6.12701
 11
-87.50003
 21
-13.87298
  0
LINE
  8
0
  6
CONTINUOUS
 62
     7
 10
-87.5
 20
-6.12702
 11
-91.5
 21
-13.87299
  0
LINE
  8
0
  6
CONTINUOUS
 62
     7
 10
-91.5
 20
-18.0
 11
-91.5
 21
-13.87299
  0
LINE
  8
0
  6
CONTINUOUS
 62
     7
 10
-91.5
 20
-2.0
 11
-86.5
 21
-2.0
  0
LINE
  8
0
  6
CONTINUOUS
 62
     7
 10
-91.5
 20
-18.0
 11
-86.5
 21
-18.0
  0
LINE
  8
0
  6
CONTINUOUS
 62
     7
 10
-116.5
 20
-17.0
 11
-92.5
 21
-17.0
  0
LINE
  8
0
  6
CONTINUOUS
 62
     7
 10
-116.5
 20
-3.0
 11
-92.5
 21
-3.0
  0
LINE
  8
0
  6
CONTINUOUS
 62
     7
 10
-86.5
 20
6.0
 11
-86.5
 21
-26.0
  0
LINE
  8
0
  6
CONTINUOUS
 62
     7
 10
-86.0
 20
6.5
 11
-86.0
 21
-26.5
  0
LINE
  8
0
  6
CONTINUOUS
 62
     7
 10
-86.0
 20
6.5
 11
-76.0
 21
6.5
  0
LINE
  8
0
  6
CONTINUOUS
 62
     7
 10
-86.0
 20
-26.5
 11
-76.0
 21
-26.5
  0
LINE
  8
0
  6
CONTINUOUS
 62
     7
 10
-86.49999
 20
6.0
 11
-86.0
 21
6.49999
  0
LINE
  8
0
  6
CONTINUOUS
 62
     7
 10
-86.5
 20
-25.99999
 11
-86.0
 21
-26.5
  0
LINE
  8
0
  6
CONTINUOUS
 62
     7
 10
-75.5
 20
7.0
 11
-72.5
 21
7.0
  0
LINE
  8
0
  6
CONTINUOUS
 62
     7
 10
-75.5
 20
-27.0
 11
-72.5
 21
-27.0
  0
LINE
  8
0
  6
CONTINUOUS
 62
     7
 10
-75.5
 20
7.0
 11
-75.5
 21
-27.0
  0
LINE
  8
0
  6
CONTINUOUS
 62
     7
 10
-76.0
 20
6.5
 11
-75.49999
 21
7.0
  0
LINE
  8
0
  6
CONTINUOUS
 62
     7
 10
-75.99999
 20
-26.5
 11
-75.49999
 21
-27.0
  0
LINE
  8
0
  6
CONTINUOUS
 62
     7
 10
-75.99999
 20
6.49999
 11
-75.49999
 21
6.99999
  0
LINE
  8
0
  6
CONTINUOUS
 62
     7
 10
-76.0
 20
-26.5
 11
-76.0
 21
6.5
  0
LINE
  8
0
  6
CONTINUOUS
 62
     7
 10
-87.50008
 20
-13.87299
 11
-87.50008
 21
-6.12702
  0
LINE
  8
0
  6
CONTINUOUS
 62
     7
 10
-72.5
 20
12.0
 11
-72.5
 21
-32.0
  0
LINE
  8
0
  6
CONTINUOUS
 62
     7
 10
-72.5
 20
-30.20248
 11
-56.5
 21
-30.20248
  0
LINE
  8
0
  6
CONTINUOUS
 62
     7
 10
-72.5
 20
-32.0
 11
-56.5
 21
-32.0
  0
LINE
  8
0
  6
CONTINUOUS
 62
     7
 10
-72.5
 20
10.20248
 11
-56.5
 21
10.20248
  0
LINE
  8
0
  6
CONTINUOUS
 62
     7
 10
-72.5
 20
12.0
 11
-56.5
 21
12.0
  0
LINE
  8
0
  6
CONTINUOUS
 62
     7
 10
-56.5
 20
12.0
 11
-56.5
 21
-32.0
  0
LINE
  8
0
  6
CENTER
 62
     2
 10
-64.5
 20
-19.05015
 11
-64.5
 21
14.0
  0
LINE
  8
0
  6
CONTINUOUS
 62
     7
 10
-56.5
 20
10.8
 11
-55.5
 21
10.8
  0
LINE
  8
0
  6
CONTINUOUS
 62
     7
 10
-56.5
 20
-30.8
 11
-55.5
 21
-30.8
  0
LINE
  8
0
  6
CONTINUOUS
 62
     7
 10
-55.5
 20
10.8
 11
-55.5
 21
-30.8
  0
LINE
  8
0
  6
CONTINUOUS
 62
     7
 10
-54.5
 20
10.8
 11
-54.5
 21
-30.8
  0
LINE
  8
0
  6
CONTINUOUS
 62
     7
 10
-54.5
 20
10.8
 11
-54.5
 21
-30.8
  0
LINE
  8
0
  6
CONTINUOUS
 62
     7
 10
-53.5
 20
10.8
 11
-53.5
 21
-30.8
  0
LINE
  8
0
  6
CONTINUOUS
 62
     7
 10
-52.5
 20
10.8
 11
-52.5
 21
-30.8
  0
LINE
  8
0
  6
CONTINUOUS
 62
     7
 10
-53.5
 20
9.8
 11
-52.49999
 21
10.8
  0
LINE
  8
0
  6
CONTINUOUS
 62
     7
 10
-55.5
 20
9.79999
 11
-54.5
 21
10.8
  0
LINE
  8
0
  6
CONTINUOUS
 62
     7
 10
-54.5
 20
10.8
 11
-53.5
 21
10.8
  0
LINE
  8
0
  6
CONTINUOUS
 62
     7
 10
-55.5
 20
-29.8
 11
-54.5
 21
-30.8
  0
LINE
  8
0
  6
CONTINUOUS
 62
     7
 10
-53.5
 20
-29.8
 11
-52.5
 21
-30.8
  0
LINE
  8
0
  6
CONTINUOUS
 62
     7
 10
-54.5
 20
-30.8
 11
-53.5
 21
-30.8
  0
LINE
  8
0
  6
CONTINUOUS
 62
     7
 10
88.5
 20
10.8
 11
88.5
 21
-30.8
  0
LINE
  8
0
  6
CONTINUOUS
 62
     7
 10
87.5
 20
10.8
 11
87.5
 21
-30.8
  0
LINE
  8
0
  6
CONTINUOUS
 62
     7
 10
102.5
 20
10.8
 11
90.5
 21
10.8
  0
LINE
  8
0
  6
CONTINUOUS
 62
     7
 10
102.5
 20
-30.8
 11
90.5
 21
-30.8
  0
LINE
  8
0
  6
CONTINUOUS
 62
     7
 10
-52.5
 20
10.8
 11
1.57335
 21
10.8
  0
LINE
  8
0
  6
CONTINUOUS
 62
     7
 10
-52.5
 20
-30.8
 11
-9.57334
 21
-30.8
  0
LINE
  8
0
  6
CONTINUOUS
 62
     7
 10
102.5
 20
-27.65333
 11
102.5
 21
-30.8
  0
LINE
  8
0
  6
CENTER
 62
     2
 10
-119.5
 20
-10.0
 11
105.5
 21
-10.0
  0
LINE
  8
0
  6
CONTINUOUS
 62
     7
 10
-117.5
 20
-4.0
 11
-94.5
 21
-4.0
  0
LINE
  8
0
  6
CONTINUOUS
 62
     7
 10
-117.5
 20
-16.0
 11
-94.5
 21
-16.0
  0
LINE
  8
0
  6
CONTINUOUS
 62
     7
 10
-116.5
 20
-3.0
 11
-116.5
 21
-17.0
  0
LINE
  8
0
  6
CONTINUOUS
 62
     7
 10
-116.5
 20
-3.0
 11
-117.5
 21
-4.0
  0
LINE
  8
0
  6
CONTINUOUS
 62
     7
 10
-117.5
 20
-4.0
 11
-117.5
 21
-16.0
  0
LINE
  8
0
  6
CONTINUOUS
 62
     7
 10
-117.5
 20
-16.0
 11
-116.5
 21
-17.00001
  0
LINE
  8
0
  6
CONTINUOUS
 62
     7
 10
-94.49999
 20
-4.0
 11
-92.76794
 21
-3.0
  0
LINE
  8
0
  6
CONTINUOUS
 62
     7
 10
-94.49999
 20
-15.99999
 11
-92.76794
 21
-17.0
  0
LINE
  8
0
  6
CONTINUOUS
 62
     7
 10
89.5
 20
10.8
 11
89.5
 21
-30.8
  0
LINE
  8
0
  6
CONTINUOUS
 62
     7
 10
90.5
 20
10.8
 11
90.5
 21
-30.8
  0
LINE
  8
0
  6
CONTINUOUS
 62
     7
 10
89.5
 20
10.79999
 11
90.5
 21
9.79998
  0
LINE
  8
0
  6
CONTINUOUS
 62
     7
 10
87.49992
 20
10.79994
 11
88.49992
 21
9.79994
  0
LINE
  8
0
  6
CONTINUOUS
 62
     7
 10
88.5
 20
10.8
 11
89.5
 21
10.8
  0
LINE
  8
0
  6
CONTINUOUS
 62
     7
 10
88.5
 20
-30.8
 11
89.5
 21
-30.8
  0
LINE
  8
0
  6
CONTINUOUS
 62
     7
 10
87.49998
 20
-30.79999
 11
88.49998
 21
-29.79998
  0
LINE
  8
0
  6
CONTINUOUS
 62
     7
 10
89.49998
 20
-30.79999
 11
90.49998
 21
-29.79999
  0
LINE
  8
0
  6
CONTINUOUS
 62
     7
 10
-5.43224
 20
-30.8
 11
87.5
 21
-30.8
  0
LINE
  8
0
  6
CONTINUOUS
 62
     7
 10
5.71445
 20
10.8
 11
87.5
 21
10.8
  0
LINE
  8
0
  6
CONTINUOUS
 62
     7
 10
103.5
 20
9.8
 11
103.5
 21
-29.8
  0
LINE
  8
0
  6
CONTINUOUS
 62
     7
 10
97.5
 20
7.65333
 11
97.5
 21
-27.65333
  0
LINE
  8
0
  6
DASHED
 62
     7
 10
-59.49998
 20
12.0
 11
-60.49998
 21
11.0
  0
LINE
  8
0
  6
DASHED
 62
     7
 10
-69.49998
 20
11.99999
 11
-68.49998
 21
10.99999
  0
LINE
  8
0
  6
DASHED
 62
     7
 10
-60.49999
 20
11.0
 11
-68.5
 21
11.0
  0
LINE
  8
0
  6
DASHED
 62
     7
 10
-68.5
 20
11.0
 11
-68.5
 21
5.775
  0
LINE
  8
0
  6
DASHED
 62
     7
 10
-69.5
 20
12.0
 11
-69.1812
 21
5.91681
  0
LINE
  8
0
  6
DASHED
 62
     7
 10
-60.5
 20
11.0
 11
-60.5
 21
5.775
  0
LINE
  8
0
  6
DASHED
 62
     7
 10
-59.50001
 20
12.0
 11
-59.81879
 21
5.91682
  0
LINE
  8
0
  6
PHANTOM
 62
     2
 10
-9.57331
 20
-30.8
 11
1.57338
 21
10.8
  0
LINE
  8
0
  6
PHANTOM
 62
     2
 10
-5.43223
 20
-30.8
 11
5.71446
 21
10.79999
  0
LINE
  8
0
  6
CONTINUOUS
 62
     7
 10
97.5
 20
7.65333
 11
103.5
 21
7.65333
  0
LINE
  8
0
  6
CONTINUOUS
 62
     7
 10
97.5
 20
-27.65333
 11
103.5
 21
-27.65333
  0
LINE
  8
0
  6
CONTINUOUS
 62
     7
 10
103.5
 20
-29.79997
 11
102.4999
 21
-30.79996
  0
LINE
  8
0
  6
CONTINUOUS
 62
     7
 10
102.5
 20
10.8
 11
103.5
 21
9.79999
  0
LINE
  8
0
  6
CONTINUOUS
 62
     7
 10
102.5
 20
7.65333
 11
102.5
 21
10.8
  0
LINE
  8
0
  6
CONTINUOUS
 62
     7
 10
103.5
 20
-27.65333
 11
97.49998
 21
7.65333
  0
LINE
  8
0
  6
CONTINUOUS
 62
     7
 10
103.5
 20
7.65333
 11
97.49998
 21
-27.65333
  0
LINE
  8
0
  6
CONTINUOUS
 62
     7
 10
-94.5
 20
101.8
 11
-94.5
 21
87.8
  0
LINE
  8
0
  6
CONTINUOUS
 62
     7
 10
-92.5
 20
87.8
 11
-92.5
 21
101.8
  0
LINE
  8
0
  6
CONTINUOUS
 62
     7
 10
-91.5
 20
87.8
 11
-91.5
 21
101.8
  0
LINE
  8
0
  6
CONTINUOUS
 62
     7
 10
-116.5
 20
87.8
 11
-87.50008
 21
87.8
  0
LINE
  8
0
  6
CONTINUOUS
 62
     7
 10
-116.5
 20
101.8
 11
-87.50007
 21
101.8
  0
LINE
  8
0
  6
CONTINUOUS
 62
     7
 10
-86.5
 20
110.8
 11
-86.5
 21
78.8
  0
LINE
  8
0
  6
CONTINUOUS
 62
     7
 10
-86.0
 20
111.3
 11
-86.0
 21
78.3
  0
LINE
  8
0
  6
CONTINUOUS
 62
     7
 10
-86.0
 20
111.3
 11
-76.0
 21
111.3
  0
LINE
  8
0
  6
CONTINUOUS
 62
     7
 10
-86.0
 20
78.3
 11
-76.0
 21
78.3
  0
LINE
  8
0
  6
CONTINUOUS
 62
     7
 10
-86.49999
 20
110.8
 11
-85.99999
 21
111.3
  0
LINE
  8
0
  6
CONTINUOUS
 62
     7
 10
-86.5
 20
78.8
 11
-86.0
 21
78.29999
  0
LINE
  8
0
  6
CONTINUOUS
 62
     7
 10
-75.5
 20
111.8
 11
-72.5
 21
111.8
  0
LINE
  8
0
  6
CONTINUOUS
 62
     7
 10
-75.5
 20
77.8
 11
-72.5
 21
77.8
  0
LINE
  8
0
  6
CONTINUOUS
 62
     7
 10
-75.5
 20
111.8
 11
-75.5
 21
77.8
  0
LINE
  8
0
  6
CONTINUOUS
 62
     7
 10
-75.99999
 20
111.3
 11
-75.49999
 21
111.8
  0
LINE
  8
0
  6
CONTINUOUS
 62
     7
 10
-76.00001
 20
78.29997
 11
-75.50001
 21
77.79998
  0
LINE
  8
0
  6
CONTINUOUS
 62
     7
 10
-75.99999
 20
111.3
 11
-75.49999
 21
111.8
  0
LINE
  8
0
  6
CONTINUOUS
 62
     7
 10
-76.0
 20
78.3
 11
-76.0
 21
111.3
  0
LINE
  8
0
  6
CONTINUOUS
 62
     7
 10
-72.5
 20
128.8
 11
-72.5
 21
60.8
  0
LINE
  8
0
  6
CONTINUOUS
 62
     7
 10
-72.5
 20
62.59752
 11
-56.5
 21
62.59752
  0
LINE
  8
0
  6
CONTINUOUS
 62
     7
 10
-72.5
 20
60.8
 11
-56.5
 21
60.8
  0
LINE
  8
0
  6
CONTINUOUS
 62
     7
 10
-72.5
 20
127.0025
 11
-56.5
 21
127.0025
  0
LINE
  8
0
  6
CONTINUOUS
 62
     7
 10
-72.5
 20
128.8
 11
-56.5
 21
128.8
  0
LINE
  8
0
  6
CONTINUOUS
 62
     7
 10
-56.5
 20
128.8
 11
-56.5
 21
60.8
  0
LINE
  8
0
  6
CENTER
 62
     2
 10
-64.5
 20
103.8502
 11
-64.5
 21
58.8
  0
LINE
  8
0
  6
CONTINUOUS
 62
     7
 10
-56.5
 20
115.6
 11
-55.5
 21
115.6
  0
LINE
  8
0
  6
CONTINUOUS
 62
     7
 10
-56.5
 20
74.0
 11
-55.5
 21
74.0
  0
LINE
  8
0
  6
CONTINUOUS
 62
     7
 10
-55.5
 20
115.6
 11
-55.5
 21
74.0
  0
LINE
  8
0
  6
CONTINUOUS
 62
     7
 10
-54.5
 20
115.6
 11
-54.5
 21
74.0
  0
LINE
  8
0
  6
CONTINUOUS
 62
     7
 10
-54.5
 20
115.6
 11
-54.5
 21
74.0
  0
LINE
  8
0
  6
CONTINUOUS
 62
     7
 10
-53.5
 20
115.6
 11
-53.5
 21
74.0
  0
LINE
  8
0
  6
CONTINUOUS
 62
     7
 10
-52.5
 20
115.6
 11
-52.5
 21
74.0
  0
LINE
  8
0
  6
CONTINUOUS
 62
     7
 10
-53.49999
 20
114.6
 11
-52.49999
 21
115.6
  0
LINE
  8
0
  6
CONTINUOUS
 62
     7
 10
-55.5
 20
114.6
 11
-54.5
 21
115.6
  0
LINE
  8
0
  6
CONTINUOUS
 62
     7
 10
-54.5
 20
115.6
 11
-53.5
 21
115.6
  0
LINE
  8
0
  6
CONTINUOUS
 62
     7
 10
-55.5
 20
75.0
 11
-54.5
 21
74.0
  0
LINE
  8
0
  6
CONTINUOUS
 62
     7
 10
-53.5
 20
75.0
 11
-52.5
 21
74.0
  0
LINE
  8
0
  6
CONTINUOUS
 62
     7
 10
-54.5
 20
74.0
 11
-53.5
 21
74.0
  0
LINE
  8
0
  6
CONTINUOUS
 62
     7
 10
88.5
 20
115.6
 11
88.5
 21
74.0
  0
LINE
  8
0
  6
CONTINUOUS
 62
     7
 10
87.5
 20
115.6
 11
87.5
 21
74.0
  0
LINE
  8
0
  6
CONTINUOUS
 62
     7
 10
97.5
 20
115.6
 11
90.5
 21
115.6
  0
LINE
  8
0
  6
CONTINUOUS
 62
     7
 10
97.5
 20
74.0
 11
90.5
 21
74.0
  0
LINE
  8
0
  6
CONTINUOUS
 62
     7
 10
-52.5
 20
115.6
 11
1.57335
 21
115.6
  0
LINE
  8
0
  6
CONTINUOUS
 62
     7
 10
-52.5
 20
74.0
 11
-9.57334
 21
74.0
  0
LINE
  8
0
  6
CONTINUOUS
 62
     7
 10
102.5
 20
105.8
 11
102.5
 21
83.8
  0
LINE
  8
0
  6
CONTINUOUS
 62
     7
 10
97.5
 20
105.8
 11
103.5
 21
105.8
  0
LINE
  8
0
  6
CONTINUOUS
 62
     7
 10
97.5
 20
83.8
 11
103.5
 21
83.8
  0
LINE
  8
0
  6
CENTER
 62
     2
 10
-119.5
 20
94.8
 11
105.5
 21
94.8
  0
LINE
  8
0
  6
CONTINUOUS
 62
     7
 10
-117.5
 20
100.8
 11
-94.5
 21
100.8
  0
LINE
  8
0
  6
CONTINUOUS
 62
     7
 10
-117.5
 20
88.8
 11
-94.5
 21
88.8
  0
LINE
  8
0
  6
CONTINUOUS
 62
     7
 10
-116.5
 20
101.8
 11
-116.5
 21
87.8
  0
LINE
  8
0
  6
CONTINUOUS
 62
     7
 10
-116.5
 20
101.8
 11
-117.5
 21
100.8
  0
LINE
  8
0
  6
CONTINUOUS
 62
     7
 10
-117.5
 20
100.8
 11
-117.5
 21
88.8
  0
LINE
  8
0
  6
CONTINUOUS
 62
     7
 10
-117.5
 20
88.8
 11
-116.5
 21
87.8
  0
LINE
  8
0
  6
CONTINUOUS
 62
     7
 10
-94.49998
 20
100.8
 11
-92.76794
 21
101.8
  0
LINE
  8
0
  6
CONTINUOUS
 62
     7
 10
-94.5
 20
88.8
 11
-92.76795
 21
87.79999
  0
LINE
  8
0
  6
CONTINUOUS
 62
     7
 10
89.5
 20
115.6
 11
89.5
 21
74.0
  0
LINE
  8
0
  6
CONTINUOUS
 62
     7
 10
90.5
 20
115.6
 11
90.5
 21
74.0
  0
LINE
  8
0
  6
CONTINUOUS
 62
     7
 10
89.49998
 20
115.6
 11
90.49998
 21
114.6
  0
LINE
  8
0
  6
CONTINUOUS
 62
     7
 10
87.49985
 20
115.5999
 11
88.49984
 21
114.5999
  0
LINE
  8
0
  6
CONTINUOUS
 62
     7
 10
88.5
 20
115.6
 11
89.5
 21
115.6
  0
LINE
  8
0
  6
CONTINUOUS
 62
     7
 10
88.5
 20
74.0
 11
89.5
 21
74.0
  0
LINE
  8
0
  6
CONTINUOUS
 62
     7
 10
87.49998
 20
74.00002
 11
88.49998
 21
75.00002
  0
LINE
  8
0
  6
CONTINUOUS
 62
     7
 10
89.49996
 20
74.00001
 11
90.49996
 21
75.00001
  0
LINE
  8
0
  6
CONTINUOUS
 62
     7
 10
-5.43224
 20
74.0
 11
87.5
 21
74.0
  0
LINE
  8
0
  6
CONTINUOUS
 62
     7
 10
5.71445
 20
115.6
 11
87.5
 21
115.6
  0
LINE
  8
0
  6
CONTINUOUS
 62
     7
 10
103.5
 20
105.8
 11
103.5
 21
83.8
  0
LINE
  8
0
  6
CONTINUOUS
 62
     7
 10
97.5
 20
115.6
 11
97.5
 21
105.8
  0
LINE
  8
0
  6
CONTINUOUS
 62
     7
 10
97.5
 20
83.8
 11
97.5
 21
74.0
  0
LINE
  8
0
  6
DASHED
 62
     7
 10
-59.49998
 20
60.80001
 11
-60.49999
 21
61.80001
  0
LINE
  8
0
  6
DASHED
 62
     7
 10
-69.49998
 20
60.80001
 11
-68.49998
 21
61.80001
  0
LINE
  8
0
  6
DASHED
 62
     7
 10
-60.49999
 20
61.80001
 11
-68.5
 21
61.80001
  0
LINE
  8
0
  6
DASHED
 62
     7
 10
-68.5
 20
61.80001
 11
-68.5
 21
67.02501
  0
LINE
  8
0
  6
DASHED
 62
     7
 10
-69.5
 20
60.80001
 11
-69.1812
 21
66.88319
  0
LINE
  8
0
  6
DASHED
 62
     7
 10
-60.5
 20
61.80001
 11
-60.5
 21
67.025
  0
LINE
  8
0
  6
DASHED
 62
     7
 10
-59.50002
 20
60.8
 11
-59.8188
 21
66.88318
  0
LINE
  8
0
  6
PHANTOM
 62
     2
 10
-9.57331
 20
74.00001
 11
1.57338
 21
115.6
  0
LINE
  8
0
  6
DASHED
 62
     7
 10
103.5
 20
99.80001
 11
102.5
 21
98.80001
  0
LINE
  8
0
  6
DASHED
 62
     7
 10
96.37482
 20
99.42663
 11
103.5
 21
99.80004
  0
LINE
  8
0
  6
DASHED
 62
     7
 10
96.52309
 20
90.16566
 11
103.5
 21
89.80002
  0
LINE
  8
0
  6
DASHED
 62
     7
 10
102.5
 20
98.8
 11
96.0
 21
98.8
  0
LINE
  8
0
  6
DASHED
 62
     7
 10
102.5
 20
90.8
 11
96.0
 21
90.8
  0
LINE
  8
0
  6
DASHED
 62
     7
 10
102.5001
 20
90.80006
 11
103.5001
 21
89.80007
  0
LINE
  8
0
  6
PHANTOM
 62
     2
 10
-5.4322
 20
73.99999
 11
5.71449
 21
115.6
  0
LINE
  8
0
  6
CONTINUOUS
 62
     7
 10
-87.50008
 20
87.80002
 11
-86.50008
 21
86.80002
  0
LINE
  8
0
  6
CONTINUOUS
 62
     7
 10
-87.5001
 20
101.8
 11
-86.5001
 21
102.8
  0
LINE
  8
0
  6
CENTER
 62
     2
 10
-247.3657
 20
-10.0
 11
-175.3657
 21
-10.0
  0
LINE
  8
0
  6
CONTINUOUS
 62
     7
 10
-243.5682
 20
-32.0
 11
-179.1632
 21
-32.0
  0
LINE
  8
0
  6
CONTINUOUS
 62
     7
 10
-243.5682
 20
12.0
 11
-179.1632
 21
12.0
  0
LINE
  8
0
  6
CONTINUOUS
 62
     7
 10
-245.3657
 20
-29.10498
 11
-245.3657
 21
9.10497
  0
LINE
  8
0
  6
CONTINUOUS
 62
     7
 10
-177.3657
 20
-29.10498
 11
-177.3657
 21
9.10497
  0
LINE
  8
0
  6
CENTER
 62
     2
 10
-211.3657
 20
-34.0
 11
-211.3657
 21
14.0
  0
LINE
  8
0
  6
DASHED
 62
     7
 10
-216.3658
 20
12.0
 11
-215.3658
 21
11.0
  0
LINE
  8
0
  6
DASHED
 62
     7
 10
-206.3657
 20
11.99999
 11
-207.3657
 21
10.99999
  0
LINE
  8
0
  6
DASHED
 62
     7
 10
-215.3658
 20
11.0
 11
-207.3657
 21
11.0
  0
LINE
  8
0
  6
DASHED
 62
     7
 10
-207.3657
 20
11.0
 11
-207.3657
 21
7.275
  0
LINE
  8
0
  6
DASHED
 62
     7
 10
-206.3658
 20
12.0
 11
-206.5999
 21
7.53261
  0
LINE
  8
0
  6
DASHED
 62
     7
 10
-215.3657
 20
11.0
 11
-215.3657
 21
7.375
  0
LINE
  8
0
  6
DASHED
 62
     7
 10
-216.3658
 20
12.00001
 11
-216.1317
 21
7.53262
  0
LINE
  8
0
  6
DASHED
 62
     7
 10
-177.3657
 20
-5.00001
 11
-178.3657
 21
-6.00003
  0
LINE
  8
0
  6
DASHED
 62
     7
 10
-177.3657
 20
-14.99999
 11
-178.3657
 21
-13.99999
  0
LINE
  8
0
  6
DASHED
 62
     7
 10
-178.3657
 20
-6.0
 11
-178.3657
 21
-14.00006
  0
LINE
  8
0
  6
DASHED
 62
     7
 10
-178.3657
 20
-14.0
 11
-183.5907
 21
-14.0
  0
LINE
  8
0
  6
DASHED
 62
     7
 10
-177.3657
 20
-15.0001
 11
-183.4489
 21
-14.68125
  0
LINE
  8
0
  6
DASHED
 62
     7
 10
-178.3657
 20
-6.0
 11
-183.5907
 21
-6.0
  0
LINE
  8
0
  6
DASHED
 62
     7
 10
-177.3657
 20
-4.99997
 11
-183.4489
 21
-5.31882
  0
LINE
  8
0
  6
CENTER
 62
     2
 10
-185.3657
 20
-2.5
 11
-185.3657
 21
10.5
  0
LINE
  8
0
  6
CENTER
 62
     2
 10
-237.3657
 20
-30.5
 11
-237.3657
 21
-17.5
  0
LINE
  8
0
  6
CENTER
 62
     2
 10
-243.8657
 20
-24.0
 11
-230.8657
 21
-24.0
  0
LINE
  8
0
  6
CENTER
 62
     2
 10
-191.8657
 20
4.0
 11
-178.8657
 21
4.0
  0
LINE
  8
0
  6
CONTINUOUS
 62
     7
 10
-204.3657
 20
-13.87296
 11
-204.3657
 21
-6.12704
  0
LINE
  8
0
  6
CONTINUOUS
 62
     7
 10
-218.3657
 20
-13.87296
 11
-218.3657
 21
-6.12704
  0
LINE
  8
0
  6
CENTER
 62
     2
 10
161.3657
 20
-10.0
 11
233.3657
 21
-10.0
  0
LINE
  8
0
  6
CONTINUOUS
 62
     7
 10
165.1632
 20
-32.0
 11
229.5682
 21
-32.0
  0
LINE
  8
0
  6
CONTINUOUS
 62
     7
 10
165.1632
 20
12.0
 11
229.5682
 21
12.0
  0
LINE
  8
0
  6
CONTINUOUS
 62
     7
 10
163.3657
 20
-29.10498
 11
163.3657
 21
9.10497
  0
LINE
  8
0
  6
CONTINUOUS
 62
     7
 10
231.3657
 20
-29.10498
 11
231.3657
 21
9.10497
  0
LINE
  8
0
  6
CENTER
 62
     2
 10
197.3657
 20
-34.0
 11
197.3657
 21
14.0
  0
LINE
  8
0
  6
CENTER
 62
     2
 10
171.3657
 20
-2.5
 11
171.3657
 21
10.5
  0
LINE
  8
0
  6
CENTER
 62
     2
 10
223.3657
 20
-30.5
 11
223.3657
 21
-17.5
  0
LINE
  8
0
  6
CENTER
 62
     2
 10
229.8657
 20
-24.0
 11
216.8657
 21
-24.0
  0
LINE
  8
0
  6
CENTER
 62
     2
 10
177.8657
 20
4.0
 11
164.8657
 21
4.0
  0
LINE
  8
0
  6
CONTINUOUS
 62
     7
 10
208.3657
 20
-27.65333
 11
208.3657
 21
7.65333
  0
LINE
  8
0
  6
CONTINUOUS
 62
     7
 10
186.3657
 20
-27.65333
 11
186.3657
 21
7.65333
  0
LINE
  8
0
  6
CONTINUOUS
 62
     7
 10
-76.00002
 20
-135.4849
 11
-66.50002
 21
-140.9697
  0
LINE
  8
0
  6
CONTINUOUS
 62
     7
 10
-76.0
 20
-124.5152
 11
-76.0
 21
-135.4849
  0
LINE
  8
0
  6
CONTINUOUS
 62
     7
 10
-75.99994
 20
-124.5153
 11
-66.49995
 21
-119.0305
  0
LINE
  8
0
  6
CONTINUOUS
 62
     7
 10
-66.49999
 20
-119.0304
 11
-57.0
 21
-124.5152
  0
LINE
  8
0
  6
CONTINUOUS
 62
     7
 10
-57.0
 20
-124.5152
 11
-57.0
 21
-135.4849
  0
LINE
  8
0
  6
CONTINUOUS
 62
     7
 10
-66.49996
 20
-140.9697
 11
-56.99997
 21
-135.4849
  0
LINE
  8
0
  6
CENTER
 62
     2
 10
-79.0
 20
-130.0001
 11
-54.0
 21
-130.0001
  0
LINE
  8
0
  6
CENTER
 62
     2
 10
-66.5
 20
-117.5001
 11
-66.5
 21
-142.5001
  0
LINE
  8
0
  6
CONTINUOUS
 62
     7
 10
-5.65154
 20
-119.0304
 11
0.65145
 21
-119.0304
  0
LINE
  8
0
  6
CONTINUOUS
 62
     7
 10
-5.65153
 20
-140.9697
 11
0.65149
 21
-140.9697
  0
LINE
  8
0
  6
CONTINUOUS
 62
     7
 10
-5.65154
 20
-119.0304
 11
-6.49999
 21
-120.5
  0
LINE
  8
0
  6
CONTINUOUS
 62
     7
 10
0.65146
 20
-119.0304
 11
1.5
 21
-120.5001
  0
LINE
  8
0
  6
CONTINUOUS
 62
     7
 10
0.65149
 20
-140.9697
 11
1.50001
 21
-139.5
  0
LINE
  8
0
  6
CONTINUOUS
 62
     7
 10
-6.5
 20
-139.5001
 11
-6.5
 21
-120.5
  0
LINE
  8
0
  6
CONTINUOUS
 62
     7
 10
-6.5
 20
-139.5001
 11
-5.65154
 21
-140.9697
  0
LINE
  8
0
  6
CONTINUOUS
 62
     7
 10
-5.65152
 20
-135.4849
 11
0.65149
 21
-135.4849
  0
LINE
  8
0
  6
CONTINUOUS
 62
     7
 10
-5.65152
 20
-124.5152
 11
0.65149
 21
-124.5152
  0
LINE
  8
0
  6
CONTINUOUS
 62
     7
 10
1.5
 20
-139.5
 11
1.5
 21
-120.5001
  0
LINE
  8
0
  6
CENTER
 62
     2
 10
-8.50001
 20
-130.0001
 11
3.49999
 21
-130.0001
  0
ARC
  8
0
  6
CONTINUOUS
 62
     7
 10
193.0652
 20
-166.2024
 40
1.56404
 50
0.0
 51
89.99999
  0
ARC
  8
0
  6
CONTINUOUS
 62
     7
 10
205.9686
 20
-174.6092
 40
1.56404
 50
270.0
 51
0.0
  0
ARC
  8
0
  6
CONTINUOUS
 62
     7
 10
205.1865
 20
-166.9844
 40
2.34607
 50
0.0
 51
89.99999
  0
ARC
  8
0
  6
CONTINUOUS
 62
     7
 10
219.4585
 20
-166.2024
 40
1.56404
 50
0.0
 51
89.99999
  0
ARC
  8
0
  6
CONTINUOUS
 62
     7
 10
219.4585
 20
-167.4519
 40
1.56405
 50
295.0
 51
0.0
  0
ARC
  8
0
  6
CONTINUOUS
 62
     7
 10
231.5798
 20
-164.6383
 40
2.34607
 50
291.6882
 51
0.0
  0
ARC
  8
0
  6
CONTINUOUS
 62
     7
 10
230.7978
 20
-164.1077
 40
0.78203
 50
291.688
 51
0.0
  0
CIRCLE
  8
0
  6
CONTINUOUS
 62
     7
 10
-64.5
 20
-10.0
 40
5.0
  0
CIRCLE
  8
0
  6
CONTINUOUS
 62
     7
 10
-64.5
 20
-10.0
 40
4.0
  0
CIRCLE
  8
0
  6
CONTINUOUS
 62
     7
 10
-64.5
 20
-10.0
 40
1.75
  0
ARC
  8
0
  6
CONTINUOUS
 62
     7
 10
-84.5
 20
-10.0
 40
8.0
 50
151.045
 51
208.955
  0
ARC
  8
0
  6
CONTINUOUS
 62
     7
 10
-94.49945
 20
-10.0
 40
7.99945
 50
331.0428
 51
28.95722
  0
CIRCLE
  8
0
  6
CONTINUOUS
 62
     7
 10
-64.5
 20
94.8
 40
1.75
  0
CIRCLE
  8
0
  6
CONTINUOUS
 62
     7
 10
-64.5
 20
94.8
 40
4.0
  0
CIRCLE
  8
0
  6
CONTINUOUS
 62
     7
 10
-64.5
 20
94.8
 40
5.0
  0
CIRCLE
  8
0
  6
CONTINUOUS
 62
     7
 10
-211.3657
 20
-10.0
 40
7.0
  0
ARC
  8
0
  6
CONTINUOUS
 62
     7
 10
-211.3657
 20
-10.0
 40
39.0
 50
145.66
 51
150.6679
  0
ARC
  8
0
  6
CONTINUOUS
 62
     7
 10
-211.3657
 20
-10.0
 40
39.00001
 50
29.33204
 51
34.33993
  0
ARC
  8
0
  6
CONTINUOUS
 62
     7
 10
-211.3657
 20
-10.0
 40
38.99999
 50
325.66
 51
330.6679
  0
ARC
  8
0
  6
CONTINUOUS
 62
     7
 10
-211.3657
 20
-10.0
 40
39.00001
 50
209.3321
 51
214.34
  0
CIRCLE
  8
0
  6
CONTINUOUS
 62
     7
 10
-237.3657
 20
-24.0
 40
4.5
  0
CIRCLE
  8
0
  6
CONTINUOUS
 62
     7
 10
-185.3657
 20
4.0
 40
4.5
  0
CIRCLE
  8
0
  6
CONTINUOUS
 62
     7
 10
-211.3657
 20
-10.0
 40
6.0
  0
CIRCLE
  8
0
  6
CONTINUOUS
 62
     7
 10
-211.3657
 20
-10.0
 40
16.0
  0
CIRCLE
  8
0
  6
CONTINUOUS
 62
     7
 10
-211.3657
 20
-10.0
 40
16.5
  0
CIRCLE
  8
0
  6
CONTINUOUS
 62
     7
 10
-211.3657
 20
-10.0
 40
17.0
  0
CIRCLE
  8
0
  6
CONTINUOUS
 62
     7
 10
-211.3657
 20
-10.0
 40
8.0
  0
ARC
  8
0
  6
CONTINUOUS
 62
     7
 10
197.3657
 20
-10.0
 40
39.0
 50
145.66
 51
150.6679
  0
ARC
  8
0
  6
CONTINUOUS
 62
     7
 10
197.3657
 20
-10.0
 40
39.00001
 50
29.33204
 51
34.33993
  0
ARC
  8
0
  6
CONTINUOUS
 62
     7
 10
197.3657
 20
-10.0
 40
38.99999
 50
325.66
 51
330.6679
  0
ARC
  8
0
  6
CONTINUOUS
 62
     7
 10
197.3657
 20
-10.0
 40
39.00001
 50
209.3321
 51
214.34
  0
CIRCLE
  8
0
  6
CONTINUOUS
 62
     7
 10
223.3657
 20
-24.0
 40
4.5
  0
CIRCLE
  8
0
  6
CONTINUOUS
 62
     7
 10
171.3657
 20
4.0
 40
4.5
  0
CIRCLE
  8
0
  6
CONTINUOUS
 62
     7
 10
197.3657
 20
-10.0
 40
1.75
  0
CIRCLE
  8
0
  6
CONTINUOUS
 62
     7
 10
197.3657
 20
-10.0
 40
4.0
  0
CIRCLE
  8
0
  6
CONTINUOUS
 62
     7
 10
197.3657
 20
-10.0
 40
5.0
  0
CIRCLE
  8
0
  6
CONTINUOUS
 62
     7
 10
197.3657
 20
-10.0
 40
20.8
  0
ARC
  8
0
  6
CONTINUOUS
 62
     7
 10
197.3657
 20
-10.0
 40
19.8
 50
56.25101
 51
123.749
  0
ARC
  8
0
  6
CONTINUOUS
 62
     7
 10
197.3657
 20
-10.0
 40
19.8
 50
236.251
 51
303.749
  0
CIRCLE
  8
0
  6
CONTINUOUS
 62
     7
 10
-66.5
 20
-130.0001
 40
9.5
  0
CIRCLE
  8
0
  6
CONTINUOUS
 62
     7
 10
-66.5
 20
-130.0001
 40
7.0
  0
CIRCLE
  8
0
  6
CONTINUOUS
 62
     7
 10
-66.5
 20
-130.0001
 40
6.0
  0
ARC
  8
0
  6
CONTINUOUS
 62
     7
 10
-1.64371
 20
-121.7728
 40
4.85629
 50
180.0
 51
214.3824
  0
ARC
  8
0
  6
CONTINUOUS
 62
     7
 10
11.65248
 20
-130.0001
 40
18.15248
 50
162.413
 51
197.5869
  0
ARC
  8
0
  6
CONTINUOUS
 62
     7
 10
-1.64371
 20
-138.2273
 40
4.85629
 50
145.6175
 51
180.0
  0
ARC
  8
0
  6
CONTINUOUS
 62
     7
 10
-3.35629
 20
-121.7728
 40
4.85629
 50
325.6176
 51
0.00009
  0
ARC
  8
0
  6
CONTINUOUS
 62
     7
 10
-16.65248
 20
-130.0001
 40
18.15248
 50
342.4131
 51
17.58696
  0
ARC
  8
0
  6
CONTINUOUS
 62
     7
 10
-3.35629
 20
-138.2273
 40
4.85629
 50
0.0
 51
34.38247
  0
TEXT
  8
0
  6
CONTINUOUS
 62
     7
 10
-93.03571
 20
-82.35006
 40
5.0
  1
ROD NUT(M14)
 41
0.8
  7
STANDARD
  0
TEXT
  8
0
  6
CONTINUOUS
 62
     7
 10
161.9774
 20
167.0677
 40
6.0
  1
DATE : AUG ,1989
 41
0.8
  7
STANDARD
  0
TEXT
  8
0
  6
CONTINUOUS
 62
     7
 10
-256.1446
 20
166.5977
 40
7.0
  1
SLIM BLOCK CYL
 41
0.8
  7
STANDARD
  0
TEXT
  8
0
  6
CONTINUOUS
 62
     7
 10
-254.3972
 20
141.4853
 40
7.0
  1
MODEL : DAB 40*ST-4(100)
 41
0.8
  7
STANDARD
  0
TEXT
  8
0
  6
CONTINUOUS
 62
     7
 10
6.83543
 20
-52.34997
 40
5.0
  1
CATALOG
 41
0.8
  7
STANDARD
  0
ENDSEC
  0
EOF
