  0
SECTION
  2
HEADER
  9
$ACADVER
  1
AC1002
  9
$INSBASE
 10
0.0
 20
0.0
  9
$EXTMIN
 10
-262.2472
 20
-180.0
  9
$EXTMAX
 10
262.2472
 20
180.0
  9
$LIMMIN
 10
0.0
 20
0.0
  9
$LIMMAX
 10
12.0
 20
9.0
  9
$VIEWCTR
 10
20.22981726
 20
0.0
  9
$VIEWSIZE
 40
360.0
  9
$SNAPMODE
 70
     0
  9
$SNAPUNIT
 10
1.0
 20
1.0
  9
$SNAPBASE
 10
0.0
 20
0.0
  9
$SNAPANG
 50
0.0
  9
$SNAPSTYLE
 70
     0
  9
$SNAPISOPAIR
 70
     0
  9
$GRIDMODE
 70
     0
  9
$GRIDUNIT
 10
0.0
 20
0.0
  9
$ORTHOMODE
 70
     0
  9
$REGENMODE
 70
     1
  9
$FILLMODE
 70
     1
  9
$QTEXTMODE
 70
     0
  9
$DRAGMODE
 70
     2
  9
$LTSCALE
 40
1.0
  9
$OSMODE
 70
     0
  9
$ATTMODE
 70
     1
  9
$TEXTSIZE
 40
0.2
  9
$TRACEWID
 40
0.05
  9
$TEXTSTYLE
  7
AAA
  9
$CLAYER
  8
0
  9
$CELTYPE
  6
BYLAYER
  9
$CECOLOR
 62
   256
  9
$DIMSCALE
 40
1.0
  9
$DIMASZ
 40
0.18
  9
$DIMEXO
 40
0.0625
  9
$DIMDLI
 40
0.38
  9
$DIMRND
 40
0.0
  9
$DIMDLE
 40
0.0
  9
$DIMEXE
 40
0.18
  9
$DIMTP
 40
0.0
  9
$DIMTM
 40
0.0
  9
$DIMTXT
 40
0.18
  9
$DIMCEN
 40
0.09
  9
$DIMTSZ
 40
0.0
  9
$DIMTOL
 70
     0
  9
$DIMLIM
 70
     0
  9
$DIMTIH
 70
     1
  9
$DIMTOH
 70
     1
  9
$DIMSE1
 70
     0
  9
$DIMSE2
 70
     0
  9
$DIMTAD
 70
     0
  9
$DIMZIN
 70
     0
  9
$DIMBLK
  1

  9
$LUNITS
 70
     2
  9
$LUPREC
 70
     4
  9
$AXISMODE
 70
     0
  9
$AXISUNIT
 10
0.0
 20
0.0
  9
$SKETCHINC
 40
0.1
  9
$FILLETRAD
 40
0.0
  9
$AUNITS
 70
     0
  9
$AUPREC
 70
     0
  9
$MENU
  1
ACAD
  9
$ELEVATION
 40
0.0
  9
$THICKNESS
 40
0.0
  9
$VIEWDIR
 10
0.0
 20
0.0
 30
1.0
  9
$LIMCHECK
 70
     0
  9
$BLIPMODE
 70
     1
  9
$CHAMFERA
 40
0.0
  9
$CHAMFERB
 40
0.0
  9
$FASTZOOM
 70
     1
  9
$SKPOLY
 70
     0
  9
$TDCREATE
 40
2447798.7076389386
  9
$TDUPDATE
 40
2447798.7076389386
  9
$TDINDWG
 40
0.0013310185
  9
$TDUSRTIMER
 40
0.0013310185
  9
$USRTIMER
 70
     1
  9
$ANGBASE
 50
0.0
  9
$ANGDIR
 70
     0
  9
$PDMODE
 70
     0
  9
$PDSIZE
 40
0.0
  9
$PLINEWID
 40
0.0
  9
$COORDS
 70
     0
  9
$USERI1
 70
     0
  9
$USERI2
 70
     0
  9
$USERI3
 70
     0
  9
$USERI4
 70
     0
  9
$USERI5
 70
     0
  9
$USERR1
 40
0.0
  9
$USERR2
 40
0.0
  9
$USERR3
 40
0.0
  9
$USERR4
 40
0.0
  9
$USERR5
 40
0.0
  0
ENDSEC
  0
SECTION
  2
TABLES
  0
TABLE
  2
LTYPE
 70
     4
  0
LTYPE
  2
CONTINUOUS
 70
    64
  3
SOLID
 72
    65
 73
     0
 40
0.0
  0
LTYPE
  2
DASHED
 70
    64
  3
DASHED
 72
    65
 73
     2
 40
0.75
 49
0.5
 49
-0.25
  0
LTYPE
  2
CENTER
 70
    64
  3
CENTER
 72
    65
 73
     4
 40
2.0
 49
1.25
 49
-0.25
 49
0.25
 49
-0.25
  0
LTYPE
  2
PHANTOM
 70
    64
  3
PHANTOM
 72
    65
 73
     6
 40
2.5
 49
1.25
 49
-0.25
 49
0.25
 49
-0.25
 49
0.25
 49
-0.25
  0
ENDTAB
  0
TABLE
  2
LAYER
 70
     1
  0
LAYER
  2
0
 70
    64
 62
     7
  6
CONTINUOUS
  0
ENDTAB
  0
TABLE
  2
STYLE
 70
     2
  0
STYLE
  2
AAA
 70
     0
 40
0.0
 41
1.0
 50
0.0
 71
     0
 42
0.2
  3
TXT
  4

  0
STYLE
  2
STANDARD
 70
    64
 40
0.0
 41
1.0
 50
0.0
 71
     0
 42
0.2
  3
TXT
  4
BIGFONT
  0
ENDTAB
  0
TABLE
  2
VIEW
 70
     0
  0
ENDTAB
  0
ENDSEC
  0
SECTION
  2
BLOCKS
  0
ENDSEC
  0
SECTION
  2
ENTITIES
  0
POINT
  8
0
  6
CONTINUOUS
 62
     7
 10
-206.3657
 20
-10.0
  0
POINT
  8
0
  6
CONTINUOUS
 62
     7
 10
-187.3657
 20
-10.0
  0
POINT
  8
0
  6
CONTINUOUS
 62
     7
 10
-61.5
 20
-10.0
  0
POINT
  8
0
  6
CONTINUOUS
 62
     7
 10
119.5
 20
-10.0
  0
POINT
  8
0
  6
CONTINUOUS
 62
     7
 10
-61.5
 20
94.8
  0
POINT
  8
0
  6
CONTINUOUS
 62
     7
 10
119.5
 20
94.8
  0
POINT
  8
0
  6
CONTINUOUS
 62
     7
 10
192.3657
 20
-10.0
  0
POINT
  8
0
  6
CONTINUOUS
 62
     7
 10
211.3657
 20
-10.0
  0
POINT
  8
0
  6
CONTINUOUS
 62
     7
 10
-1.5
 20
-130.0001
  0
POINT
  8
0
  6
CONTINUOUS
 62
     7
 10
3.5
 20
-130.0001
  0
POINT
  8
0
  6
CONTINUOUS
 62
     7
 10
-61.5
 20
-130.0001
  0
POINT
  8
0
  6
CONTINUOUS
 62
     7
 10
-55.5
 20
-130.0001
  0
LINE
  8
0
  6
CONTINUOUS
 62
     7
 10
-262.2472
 20
-180.0
 11
-262.2472
 21
180.0
  0
LINE
  8
0
  6
CONTINUOUS
 62
     7
 10
262.2472
 20
180.0
 11
262.2472
 21
-180.0
  0
LINE
  8
0
  6
CONTINUOUS
 62
     7
 10
-262.2472
 20
-180.0
 11
262.2472
 21
-180.0
  0
LINE
  8
0
  6
CONTINUOUS
 62
     7
 10
-262.2472
 20
180.0
 11
262.2472
 21
180.0
  0
LINE
  8
0
  6
CONTINUOUS
 62
     7
 10
-262.2472
 20
159.7753
 11
-154.382
 21
159.7753
  0
LINE
  8
0
  6
CONTINUOUS
 62
     7
 10
-154.382
 20
159.7753
 11
-154.382
 21
180.0
  0
LINE
  8
0
  6
CONTINUOUS
 62
     7
 10
154.382
 20
-159.7753
 11
262.2472
 21
-159.7753
  0
LINE
  8
0
  6
CONTINUOUS
 62
     7
 10
182.7034
 20
-164.6383
 11
193.0652
 21
-164.6383
  0
LINE
  8
0
  6
CONTINUOUS
 62
     7
 10
182.7034
 20
-173.8271
 11
191.5012
 21
-173.8271
  0
LINE
  8
0
  6
CONTINUOUS
 62
     7
 10
182.7034
 20
-176.1732
 11
194.6293
 21
-176.1732
  0
LINE
  8
0
  6
CONTINUOUS
 62
     7
 10
182.7034
 20
-166.9844
 11
191.5012
 21
-166.9844
  0
LINE
  8
0
  6
CONTINUOUS
 62
     7
 10
182.7034
 20
-164.6383
 11
182.7034
 21
-166.9844
  0
LINE
  8
0
  6
CONTINUOUS
 62
     7
 10
194.6293
 20
-166.2024
 11
194.6293
 21
-176.1732
  0
LINE
  8
0
  6
CONTINUOUS
 62
     7
 10
191.5012
 20
-166.9844
 11
191.5012
 21
-173.8271
  0
LINE
  8
0
  6
CONTINUOUS
 62
     7
 10
196.3888
 20
-164.6383
 11
196.3888
 21
-166.9844
  0
LINE
  8
0
  6
CONTINUOUS
 62
     7
 10
207.5326
 20
-166.9844
 11
207.5326
 21
-174.6092
  0
LINE
  8
0
  6
CONTINUOUS
 62
     7
 10
204.4045
 20
-166.9844
 11
204.4045
 21
-173.8271
  0
LINE
  8
0
  6
CONTINUOUS
 62
     7
 10
182.7034
 20
-173.8271
 11
182.7034
 21
-176.1732
  0
LINE
  8
0
  6
CONTINUOUS
 62
     7
 10
196.3888
 20
-164.6383
 11
199.4796
 21
-164.6383
  0
LINE
  8
0
  6
CONTINUOUS
 62
     7
 10
196.3888
 20
-176.1732
 11
198.8176
 21
-176.1732
  0
LINE
  8
0
  6
CONTINUOUS
 62
     7
 10
196.3887
 20
-176.1731
 11
198.8509
 21
-166.9843
  0
LINE
  8
0
  6
CONTINUOUS
 62
     7
 10
196.3888
 20
-166.9844
 11
198.8509
 21
-166.9844
  0
LINE
  8
0
  6
CONTINUOUS
 62
     7
 10
198.8178
 20
-176.1733
 11
201.2799
 21
-166.9845
  0
LINE
  8
0
  6
CONTINUOUS
 62
     7
 10
202.0584
 20
-173.8271
 11
204.4045
 21
-173.8271
  0
LINE
  8
0
  6
CONTINUOUS
 62
     7
 10
202.0584
 20
-173.8271
 11
202.6869
 21
-176.1731
  0
LINE
  8
0
  6
CONTINUOUS
 62
     7
 10
202.6871
 20
-176.1732
 11
205.9686
 21
-176.1732
  0
LINE
  8
0
  6
CONTINUOUS
 62
     7
 10
201.2798
 20
-166.9844
 11
204.4045
 21
-166.9844
  0
LINE
  8
0
  6
CONTINUOUS
 62
     7
 10
201.9084
 20
-164.6383
 11
205.1865
 21
-164.6383
  0
LINE
  8
0
  6
CONTINUOUS
 62
     7
 10
199.4796
 20
-164.6384
 11
199.9458
 21
-162.8984
  0
LINE
  8
0
  6
CONTINUOUS
 62
     7
 10
201.9082
 20
-164.6382
 11
202.3744
 21
-162.8982
  0
LINE
  8
0
  6
CONTINUOUS
 62
     7
 10
209.4877
 20
-164.6383
 11
213.2023
 21
-164.6383
  0
LINE
  8
0
  6
CONTINUOUS
 62
     7
 10
209.4877
 20
-166.9844
 11
218.6106
 21
-166.9844
  0
LINE
  8
0
  6
CONTINUOUS
 62
     7
 10
213.2023
 20
-176.1732
 11
216.3303
 21
-176.1732
  0
LINE
  8
0
  6
CONTINUOUS
 62
     7
 10
209.4877
 20
-164.6383
 11
209.4877
 21
-166.9844
  0
LINE
  8
0
  6
CONTINUOUS
 62
     7
 10
221.0225
 20
-171.2385
 11
221.0225
 21
-173.8271
  0
LINE
  8
0
  6
CONTINUOUS
 62
     7
 10
209.4875
 20
-173.827
 11
213.2022
 21
-172.0948
  0
LINE
  8
0
  6
CONTINUOUS
 62
     7
 10
209.4879
 20
-171.2387
 11
218.6108
 21
-166.9846
  0
LINE
  8
0
  6
CONTINUOUS
 62
     7
 10
209.4877
 20
-171.2385
 11
209.4877
 21
-173.8271
  0
LINE
  8
0
  6
CONTINUOUS
 62
     7
 10
216.3302
 20
-171.6391
 11
221.0225
 21
-173.827
  0
LINE
  8
0
  6
CONTINUOUS
 62
     7
 10
218.0311
 20
-169.8436
 11
221.0228
 21
-171.2387
  0
LINE
  8
0
  6
CONTINUOUS
 62
     7
 10
221.0225
 20
-166.2024
 11
221.0225
 21
-167.4519
  0
LINE
  8
0
  6
CONTINUOUS
 62
     7
 10
213.2023
 20
-162.8984
 11
213.2023
 21
-164.6383
  0
LINE
  8
0
  6
CONTINUOUS
 62
     7
 10
216.3303
 20
-162.8984
 11
216.3303
 21
-164.6383
  0
LINE
  8
0
  6
CONTINUOUS
 62
     7
 10
216.3303
 20
-164.6383
 11
219.4585
 21
-164.6383
  0
LINE
  8
0
  6
CONTINUOUS
 62
     7
 10
213.2023
 20
-172.095
 11
213.2023
 21
-176.1732
  0
LINE
  8
0
  6
CONTINUOUS
 62
     7
 10
216.3303
 20
-171.6392
 11
216.3303
 21
-176.1732
  0
LINE
  8
0
  6
CONTINUOUS
 62
     7
 10
218.031
 20
-169.8436
 11
220.1197
 21
-168.8696
  0
LINE
  8
0
  6
CONTINUOUS
 62
     7
 10
231.5798
 20
-163.6022
 11
233.9258
 21
-163.6022
  0
LINE
  8
0
  6
CONTINUOUS
 62
     7
 10
222.0001
 20
-168.4483
 11
222.0001
 21
-170.9731
  0
LINE
  8
0
  6
CONTINUOUS
 62
     7
 10
233.9258
 20
-163.6022
 11
233.9258
 21
-164.6383
  0
LINE
  8
0
  6
CONTINUOUS
 62
     7
 10
231.5798
 20
-163.6022
 11
231.5798
 21
-164.1077
  0
LINE
  8
0
  6
CONTINUOUS
 62
     7
 10
228.4517
 20
-168.4072
 11
228.4517
 21
-176.1732
  0
LINE
  8
0
  6
CONTINUOUS
 62
     7
 10
222.0001
 20
-168.4484
 11
231.0869
 21
-164.8345
  0
LINE
  8
0
  6
CONTINUOUS
 62
     7
 10
222.0001
 20
-170.9732
 11
228.4518
 21
-168.4073
  0
LINE
  8
0
  6
CONTINUOUS
 62
     7
 10
228.4517
 20
-176.1732
 11
231.5798
 21
-176.1732
  0
LINE
  8
0
  6
CONTINUOUS
 62
     7
 10
231.5798
 20
-167.1632
 11
231.5798
 21
-176.1732
  0
LINE
  8
0
  6
CONTINUOUS
 62
     7
 10
231.5801
 20
-167.1633
 11
232.4471
 21
-166.8185
  0
LINE
  8
0
  6
CONTINUOUS
 62
     7
 10
199.7572
 20
-162.8984
 11
202.3746
 21
-162.8984
  0
LINE
  8
0
  6
CONTINUOUS
 62
     7
 10
206.2618
 20
-162.8984
 11
207.2589
 21
-162.8984
  0
LINE
  8
0
  6
CONTINUOUS
 62
     7
 10
213.2023
 20
-162.8984
 11
216.3303
 21
-162.8984
  0
LINE
  8
0
  6
CONTINUOUS
 62
     7
 10
206.2618
 20
-164.4624
 11
207.2589
 21
-164.4624
  0
LINE
  8
0
  6
CONTINUOUS
 62
     7
 10
206.2618
 20
-162.8984
 11
206.2618
 21
-164.4624
  0
LINE
  8
0
  6
CONTINUOUS
 62
     7
 10
207.2589
 20
-162.8984
 11
207.2589
 21
-164.4624
  0
LINE
  8
0
  6
CONTINUOUS
 62
     7
 10
207.8454
 20
-162.8984
 11
207.8454
 21
-164.4624
  0
LINE
  8
0
  6
CONTINUOUS
 62
     7
 10
208.9598
 20
-162.8984
 11
208.9598
 21
-164.4624
  0
LINE
  8
0
  6
CONTINUOUS
 62
     7
 10
207.8454
 20
-162.8984
 11
208.9598
 21
-162.8984
  0
LINE
  8
0
  6
CONTINUOUS
 62
     7
 10
207.8454
 20
-164.4624
 11
208.9598
 21
-164.4624
  0
LINE
  8
0
  6
CONTINUOUS
 62
     7
 10
154.382
 20
159.7753
 11
262.2472
 21
159.7753
  0
LINE
  8
0
  6
CONTINUOUS
 62
     7
 10
154.382
 20
180.0
 11
154.382
 21
159.7753
  0
LINE
  8
0
  6
CONTINUOUS
 62
     7
 10
154.382
 20
-159.7753
 11
154.382
 21
-180.0
  0
LINE
  8
0
  6
CONTINUOUS
 62
     2
 10
-33.5
 20
-23.93548
 11
-33.5
 21
-42.0
  0
LINE
  8
0
  6
CONTINUOUS
 62
     2
 10
119.4999
 20
-19.57706
 11
119.4999
 21
-42.00003
  0
LINE
  8
0
  6
CONTINUOUS
 62
     2
 10
119.4999
 20
-40.00001
 11
116.4999
 21
-40.80386
  0
LINE
  8
0
  6
CONTINUOUS
 62
     2
 10
119.4999
 20
-40.00003
 11
116.4999
 21
-39.19618
  0
LINE
  8
0
  6
CONTINUOUS
 62
     2
 10
-33.49999
 20
-39.99999
 11
-30.49999
 21
-39.19614
  0
LINE
  8
0
  6
CONTINUOUS
 62
     2
 10
-33.49999
 20
-39.99999
 11
-30.49999
 21
-40.80384
  0
LINE
  8
0
  6
CONTINUOUS
 62
     2
 10
-33.5
 20
-40.0
 11
119.4999
 21
-40.0
  0
LINE
  8
0
  6
DASHED
 62
     7
 10
-46.50002
 20
4.0
 11
-45.50001
 21
3.0
  0
LINE
  8
0
  6
DASHED
 62
     7
 10
-36.50007
 20
4.00008
 11
-37.50007
 21
3.00007
  0
LINE
  8
0
  6
DASHED
 62
     7
 10
-45.5
 20
3.00014
 11
-37.5
 21
3.00014
  0
LINE
  8
0
  6
DASHED
 62
     7
 10
-37.5
 20
3.00014
 11
-37.5
 21
-2.22498
  0
LINE
  8
0
  6
DASHED
 62
     7
 10
-36.49977
 20
4.0
 11
-36.81862
 21
-2.08317
  0
LINE
  8
0
  6
DASHED
 62
     7
 10
-45.5
 20
3.00003
 11
-45.5
 21
-2.22498
  0
LINE
  8
0
  6
DASHED
 62
     7
 10
-46.49991
 20
4.00001
 11
-46.18106
 21
-2.08315
  0
LINE
  8
0
  6
CONTINUOUS
 62
     7
 10
-67.5
 20
-12.64573
 11
-67.5
 21
-7.35424
  0
LINE
  8
0
  6
CONTINUOUS
 62
     7
 10
-62.5
 20
-12.64574
 11
-62.5
 21
-7.35424
  0
LINE
  8
0
  6
CONTINUOUS
 62
     7
 10
-67.5
 20
-7.35424
 11
-62.5
 21
-7.35424
  0
LINE
  8
0
  6
CONTINUOUS
 62
     7
 10
-67.5
 20
-12.64576
 11
-62.5
 21
-12.64576
  0
LINE
  8
0
  6
CONTINUOUS
 62
     7
 10
-67.50001
 20
-12.64572
 11
-62.5
 21
-7.35422
  0
LINE
  8
0
  6
CONTINUOUS
 62
     7
 10
-67.5
 20
-7.35422
 11
-62.5
 21
-12.64573
  0
LINE
  8
0
  6
CONTINUOUS
 62
     7
 10
-31.5
 20
-20.7
 11
-31.5
 21
0.7
  0
LINE
  8
0
  6
CONTINUOUS
 62
     7
 10
-29.5
 20
-20.7
 11
-29.5
 21
0.7
  0
LINE
  8
0
  6
CONTINUOUS
 62
     7
 10
-30.5
 20
-20.7
 11
-30.5
 21
0.7
  0
LINE
  8
0
  6
CONTINUOUS
 62
     7
 10
-32.5
 20
-20.7
 11
-32.5
 21
0.7
  0
LINE
  8
0
  6
CONTINUOUS
 62
     7
 10
-49.5
 20
-24.0
 11
-49.5
 21
4.0
  0
LINE
  8
0
  6
CONTINUOUS
 62
     7
 10
-33.5
 20
4.0
 11
-33.5
 21
-24.0
  0
LINE
  8
0
  6
CONTINUOUS
 62
     7
 10
-69.5
 20
-13.99998
 11
-69.5
 21
-5.99999
  0
LINE
  8
0
  6
CONTINUOUS
 62
     7
 10
-84.5
 20
-6.99998
 11
-84.5
 21
-12.99998
  0
LINE
  8
0
  6
CONTINUOUS
 62
     7
 10
-84.49995
 20
-7.00002
 11
-83.49995
 21
-6.00002
  0
LINE
  8
0
  6
CONTINUOUS
 62
     7
 10
-84.49992
 20
-13.00002
 11
-83.49991
 21
-14.00003
  0
LINE
  8
0
  6
CONTINUOUS
 62
     7
 10
-69.49988
 20
-6.99999
 11
-67.76781
 21
-5.99998
  0
LINE
  8
0
  6
CONTINUOUS
 62
     7
 10
-69.50002
 20
-12.99996
 11
-67.76792
 21
-13.99998
  0
LINE
  8
0
  6
CONTINUOUS
 62
     7
 10
-83.5
 20
-5.99999
 11
-83.5
 21
-13.99998
  0
LINE
  8
0
  6
CONTINUOUS
 62
     7
 10
107.5
 20
-20.7
 11
107.5
 21
0.675
  0
LINE
  8
0
  6
CONTINUOUS
 62
     7
 10
106.5
 20
-20.7
 11
106.5
 21
0.7
  0
LINE
  8
0
  6
CONTINUOUS
 62
     7
 10
108.5
 20
-20.7
 11
108.5
 21
0.7
  0
LINE
  8
0
  6
CENTER
 62
     2
 10
-86.5
 20
-10.0
 11
121.5
 21
-10.0
  0
LINE
  8
0
  6
CONTINUOUS
 62
     7
 10
-52.5
 20
-21.0
 11
-52.5
 21
1.0
  0
LINE
  8
0
  6
CONTINUOUS
 62
     7
 10
-53.0
 20
-20.5
 11
-53.0
 21
0.5
  0
LINE
  8
0
  6
CONTINUOUS
 62
     7
 10
-61.5
 20
-20.0
 11
-61.5
 21
0.0
  0
LINE
  8
0
  6
CONTINUOUS
 62
     7
 10
-61.0
 20
-20.5
 11
-61.0
 21
0.5
  0
LINE
  8
0
  6
CONTINUOUS
 62
     7
 10
-52.5
 20
1.0
 11
-49.5
 21
1.0
  0
LINE
  8
0
  6
CONTINUOUS
 62
     7
 10
-52.5
 20
-21.0
 11
-49.5
 21
-21.0
  0
LINE
  8
0
  6
CONTINUOUS
 62
     7
 10
-52.99998
 20
0.49998
 11
-52.49996
 21
0.99998
  0
LINE
  8
0
  6
CONTINUOUS
 62
     7
 10
-53.0
 20
-20.5
 11
-52.5
 21
-21.00001
  0
LINE
  8
0
  6
CONTINUOUS
 62
     7
 10
-61.0
 20
0.5
 11
-53.0
 21
0.5
  0
LINE
  8
0
  6
CONTINUOUS
 62
     7
 10
-61.0
 20
-20.5
 11
-53.0
 21
-20.5
  0
LINE
  8
0
  6
CONTINUOUS
 62
     7
 10
-61.5
 20
-20.00001
 11
-61.0
 21
-20.50001
  0
LINE
  8
0
  6
CONTINUOUS
 62
     7
 10
-61.49999
 20
0.00001
 11
-61.0
 21
0.5
  0
LINE
  8
0
  6
CONTINUOUS
 62
     7
 10
-84.49998
 20
-12.99998
 11
-69.5
 21
-12.99998
  0
LINE
  8
0
  6
CONTINUOUS
 62
     7
 10
-83.5
 20
-5.99999
 11
-61.5
 21
-5.99999
  0
LINE
  8
0
  6
CONTINUOUS
 62
     7
 10
-83.5
 20
-13.99998
 11
-61.5
 21
-13.99998
  0
LINE
  8
0
  6
CONTINUOUS
 62
     7
 10
-84.49992
 20
-6.99999
 11
-69.5
 21
-6.99999
  0
LINE
  8
0
  6
CONTINUOUS
 62
     7
 10
-49.5
 20
2.61391
 11
-33.5
 21
2.61391
  0
LINE
  8
0
  6
CONTINUOUS
 62
     7
 10
-49.5
 20
-22.61391
 11
-33.5
 21
-22.61391
  0
LINE
  8
0
  6
CONTINUOUS
 62
     7
 10
-49.5
 20
-24.0
 11
-33.5
 21
-24.0
  0
LINE
  8
0
  6
CENTER
 62
     2
 10
-41.5
 20
6.02359
 11
-41.5
 21
-17.23722
  0
LINE
  8
0
  6
CONTINUOUS
 62
     7
 10
-49.5
 20
4.0
 11
-33.5
 21
4.0
  0
LINE
  8
0
  6
CONTINUOUS
 62
     7
 10
-33.5
 20
0.7
 11
-32.5
 21
0.7
  0
LINE
  8
0
  6
CONTINUOUS
 62
     7
 10
-33.5
 20
-20.7
 11
-32.5
 21
-20.7
  0
LINE
  8
0
  6
CONTINUOUS
 62
     7
 10
108.5
 20
-20.3
 11
108.5
 21
0.3
  0
LINE
  8
0
  6
CONTINUOUS
 62
     7
 10
109.5
 20
-20.7
 11
109.5
 21
0.7
  0
LINE
  8
0
  6
CONTINUOUS
 62
     7
 10
106.5
 20
-20.7
 11
107.5
 21
-19.7
  0
LINE
  8
0
  6
CONTINUOUS
 62
     7
 10
108.5
 20
-20.7
 11
109.5
 21
-19.7
  0
LINE
  8
0
  6
CONTINUOUS
 62
     7
 10
106.5
 20
0.69999
 11
107.5
 21
-0.30001
  0
LINE
  8
0
  6
CONTINUOUS
 62
     7
 10
108.5
 20
0.7
 11
109.5
 21
-0.3
  0
LINE
  8
0
  6
CONTINUOUS
 62
     7
 10
107.5
 20
-20.7
 11
108.5
 21
-20.7
  0
LINE
  8
0
  6
CONTINUOUS
 62
     7
 10
107.5
 20
0.67499
 11
108.5
 21
0.69999
  0
LINE
  8
0
  6
CONTINUOUS
 62
     7
 10
-31.5
 20
-20.7
 11
-30.5
 21
-20.7
  0
LINE
  8
0
  6
CONTINUOUS
 62
     7
 10
-31.5
 20
0.7
 11
-30.5
 21
0.7
  0
LINE
  8
0
  6
CONTINUOUS
 62
     7
 10
-29.5
 20
-20.7
 11
25.63295
 21
-20.7
  0
LINE
  8
0
  6
CONTINUOUS
 62
     7
 10
-29.5
 20
0.7
 11
31.36706
 21
0.7
  0
LINE
  8
0
  6
CONTINUOUS
 62
     7
 10
-32.5
 20
-0.3
 11
-31.49999
 21
0.7
  0
LINE
  8
0
  6
CONTINUOUS
 62
     7
 10
-30.5
 20
-0.30001
 11
-29.5
 21
0.7
  0
LINE
  8
0
  6
CONTINUOUS
 62
     7
 10
-32.5
 20
-19.7
 11
-31.5
 21
-20.70001
  0
LINE
  8
0
  6
CONTINUOUS
 62
     7
 10
-30.49999
 20
-19.7
 11
-29.49999
 21
-20.7
  0
LINE
  8
0
  6
CONTINUOUS
 62
     7
 10
29.77405
 20
-20.7
 11
106.5
 21
-20.7
  0
LINE
  8
0
  6
CONTINUOUS
 62
     7
 10
35.50817
 20
0.7
 11
106.5
 21
0.7
  0
LINE
  8
0
  6
PHANTOM
 62
     2
 10
25.63297
 20
-20.7
 11
31.36709
 21
0.7
  0
LINE
  8
0
  6
PHANTOM
 62
     2
 10
29.77406
 20
-20.7
 11
35.50817
 21
0.7
  0
LINE
  8
0
  6
CONTINUOUS
 62
     7
 10
119.5
 20
-19.7
 11
119.5
 21
-0.3
  0
LINE
  8
0
  6
CONTINUOUS
 62
     7
 10
114.5
 20
-16.49921
 11
114.5
 21
-3.50075
  0
LINE
  8
0
  6
CONTINUOUS
 62
     7
 10
118.5
 20
-20.7
 11
118.5
 21
-16.49921
  0
LINE
  8
0
  6
CONTINUOUS
 62
     7
 10
109.5
 20
0.7
 11
118.5
 21
0.7
  0
LINE
  8
0
  6
CONTINUOUS
 62
     7
 10
109.5
 20
-20.7
 11
118.5
 21
-20.7
  0
LINE
  8
0
  6
CONTINUOUS
 62
     7
 10
114.5
 20
-3.50075
 11
119.5
 21
-3.50075
  0
LINE
  8
0
  6
CONTINUOUS
 62
     7
 10
114.5
 20
-16.49921
 11
119.5
 21
-16.49921
  0
LINE
  8
0
  6
CONTINUOUS
 62
     7
 10
118.4999
 20
0.69992
 11
119.4999
 21
-0.30008
  0
LINE
  8
0
  6
CONTINUOUS
 62
     7
 10
119.5
 20
-19.7
 11
118.5
 21
-20.7
  0
LINE
  8
0
  6
CONTINUOUS
 62
     7
 10
118.5
 20
-3.50075
 11
118.5
 21
0.7
  0
LINE
  8
0
  6
CONTINUOUS
 62
     7
 10
119.5
 20
-16.49921
 11
114.5
 21
-3.50075
  0
LINE
  8
0
  6
CONTINUOUS
 62
     7
 10
119.5
 20
-3.50075
 11
114.5
 21
-16.49921
  0
LINE
  8
0
  6
CONTINUOUS
 62
     7
 10
-31.5
 20
84.10001
 11
-31.5
 21
105.5
  0
LINE
  8
0
  6
CONTINUOUS
 62
     7
 10
-29.5
 20
84.10001
 11
-29.5
 21
105.5
  0
LINE
  8
0
  6
CONTINUOUS
 62
     7
 10
-30.5
 20
84.10001
 11
-30.5
 21
105.5
  0
LINE
  8
0
  6
CONTINUOUS
 62
     7
 10
-32.5
 20
84.10001
 11
-32.5
 21
105.5
  0
LINE
  8
0
  6
CONTINUOUS
 62
     7
 10
-49.5
 20
75.8
 11
-49.5
 21
113.8
  0
LINE
  8
0
  6
CONTINUOUS
 62
     7
 10
-33.5
 20
113.8
 11
-33.5
 21
75.8
  0
LINE
  8
0
  6
CONTINUOUS
 62
     7
 10
-69.5
 20
90.80002
 11
-69.5
 21
98.80002
  0
LINE
  8
0
  6
CONTINUOUS
 62
     7
 10
-84.5
 20
97.80002
 11
-84.5
 21
91.80002
  0
LINE
  8
0
  6
CONTINUOUS
 62
     7
 10
-84.49995
 20
97.79997
 11
-83.49995
 21
98.79996
  0
LINE
  8
0
  6
CONTINUOUS
 62
     7
 10
-84.49992
 20
91.79996
 11
-83.49992
 21
90.79995
  0
LINE
  8
0
  6
CONTINUOUS
 62
     7
 10
-69.49989
 20
97.80002
 11
-68.23203
 21
98.53201
  0
LINE
  8
0
  6
CONTINUOUS
 62
     7
 10
-69.50002
 20
91.80006
 11
-68.23204
 21
91.068
  0
LINE
  8
0
  6
CONTINUOUS
 62
     7
 10
-83.5
 20
98.80002
 11
-83.5
 21
90.80002
  0
LINE
  8
0
  6
CONTINUOUS
 62
     7
 10
107.5
 20
84.10001
 11
107.5
 21
105.475
  0
LINE
  8
0
  6
CONTINUOUS
 62
     7
 10
106.5
 20
84.10001
 11
106.5
 21
105.5
  0
LINE
  8
0
  6
CONTINUOUS
 62
     7
 10
108.5
 20
84.10001
 11
108.5
 21
105.5
  0
LINE
  8
0
  6
CENTER
 62
     2
 10
-86.5
 20
94.8
 11
121.5
 21
94.8
  0
LINE
  8
0
  6
CONTINUOUS
 62
     7
 10
-52.5
 20
83.8
 11
-52.5
 21
105.8
  0
LINE
  8
0
  6
CONTINUOUS
 62
     7
 10
-53.0
 20
84.3
 11
-53.0
 21
105.3
  0
LINE
  8
0
  6
CONTINUOUS
 62
     7
 10
-61.5
 20
84.8
 11
-61.5
 21
104.8
  0
LINE
  8
0
  6
CONTINUOUS
 62
     7
 10
-61.0
 20
84.3
 11
-61.0
 21
105.3
  0
LINE
  8
0
  6
CONTINUOUS
 62
     7
 10
-52.5
 20
105.8
 11
-49.5
 21
105.8
  0
LINE
  8
0
  6
CONTINUOUS
 62
     7
 10
-52.5
 20
83.8
 11
-49.5
 21
83.8
  0
LINE
  8
0
  6
CONTINUOUS
 62
     7
 10
-52.99997
 20
105.3
 11
-52.49996
 21
105.8
  0
LINE
  8
0
  6
CONTINUOUS
 62
     7
 10
-52.99999
 20
84.30001
 11
-52.5
 21
83.8
  0
LINE
  8
0
  6
CONTINUOUS
 62
     7
 10
-61.0
 20
105.3
 11
-53.0
 21
105.3
  0
LINE
  8
0
  6
CONTINUOUS
 62
     7
 10
-61.0
 20
84.3
 11
-53.0
 21
84.3
  0
LINE
  8
0
  6
CONTINUOUS
 62
     7
 10
-61.5
 20
84.8
 11
-61.0
 21
84.3
  0
LINE
  8
0
  6
CONTINUOUS
 62
     7
 10
-61.49999
 20
104.8
 11
-60.99999
 21
105.3
  0
LINE
  8
0
  6
CONTINUOUS
 62
     7
 10
-84.49998
 20
91.80002
 11
-69.5
 21
91.80002
  0
LINE
  8
0
  6
CONTINUOUS
 62
     7
 10
-83.5
 20
98.80002
 11
-68.50003
 21
98.80002
  0
LINE
  8
0
  6
CONTINUOUS
 62
     7
 10
-83.5
 20
90.80002
 11
-68.5
 21
90.80002
  0
LINE
  8
0
  6
CONTINUOUS
 62
     7
 10
-84.49992
 20
97.80002
 11
-69.5
 21
97.80002
  0
LINE
  8
0
  6
CONTINUOUS
 62
     7
 10
-49.5
 20
112.4139
 11
-33.5
 21
112.4139
  0
LINE
  8
0
  6
CONTINUOUS
 62
     7
 10
-49.5
 20
77.18609
 11
-33.5
 21
77.18609
  0
LINE
  8
0
  6
CONTINUOUS
 62
     7
 10
-49.5
 20
75.8
 11
-33.5
 21
75.8
  0
LINE
  8
0
  6
CENTER
 62
     2
 10
-41.5
 20
73.8
 11
-41.5
 21
102.096
  0
LINE
  8
0
  6
CONTINUOUS
 62
     7
 10
-49.5
 20
113.8
 11
-33.5
 21
113.8
  0
LINE
  8
0
  6
CONTINUOUS
 62
     7
 10
118.5
 20
86.3
 11
118.5
 21
103.3
  0
LINE
  8
0
  6
CONTINUOUS
 62
     7
 10
114.5
 20
103.3
 11
119.5
 21
103.3
  0
LINE
  8
0
  6
CONTINUOUS
 62
     7
 10
114.5
 20
86.3
 11
119.5
 21
86.3
  0
LINE
  8
0
  6
CONTINUOUS
 62
     7
 10
-33.5
 20
105.5
 11
-32.5
 21
105.5
  0
LINE
  8
0
  6
CONTINUOUS
 62
     7
 10
-33.5
 20
84.10001
 11
-32.5
 21
84.10001
  0
LINE
  8
0
  6
CONTINUOUS
 62
     7
 10
108.5
 20
84.5
 11
108.5
 21
105.1
  0
LINE
  8
0
  6
CONTINUOUS
 62
     7
 10
109.5
 20
84.10001
 11
109.5
 21
105.5
  0
LINE
  8
0
  6
CONTINUOUS
 62
     7
 10
109.5
 20
84.10001
 11
114.5
 21
84.10001
  0
LINE
  8
0
  6
CONTINUOUS
 62
     7
 10
109.5
 20
105.5
 11
114.5
 21
105.5
  0
LINE
  8
0
  6
CONTINUOUS
 62
     7
 10
106.5
 20
84.09999
 11
107.5
 21
85.09999
  0
LINE
  8
0
  6
CONTINUOUS
 62
     7
 10
108.5
 20
84.09999
 11
109.5
 21
85.09999
  0
LINE
  8
0
  6
CONTINUOUS
 62
     7
 10
106.5
 20
105.5
 11
107.5
 21
104.5
  0
LINE
  8
0
  6
CONTINUOUS
 62
     7
 10
108.5
 20
105.5
 11
109.5
 21
104.5
  0
LINE
  8
0
  6
CONTINUOUS
 62
     7
 10
107.5
 20
84.10001
 11
108.5
 21
84.10001
  0
LINE
  8
0
  6
CONTINUOUS
 62
     7
 10
107.5
 20
105.475
 11
108.5
 21
105.5
  0
LINE
  8
0
  6
CONTINUOUS
 62
     7
 10
-31.5
 20
84.10001
 11
-30.5
 21
84.10001
  0
LINE
  8
0
  6
CONTINUOUS
 62
     7
 10
-31.5
 20
105.5
 11
-30.5
 21
105.5
  0
LINE
  8
0
  6
CONTINUOUS
 62
     7
 10
-29.5
 20
84.10001
 11
25.63295
 21
84.10001
  0
LINE
  8
0
  6
CONTINUOUS
 62
     7
 10
-29.5
 20
105.5
 11
31.36706
 21
105.5
  0
LINE
  8
0
  6
CONTINUOUS
 62
     7
 10
-32.5
 20
104.5
 11
-31.5
 21
105.5
  0
LINE
  8
0
  6
CONTINUOUS
 62
     7
 10
-30.49999
 20
104.5
 11
-29.49999
 21
105.5
  0
LINE
  8
0
  6
CONTINUOUS
 62
     7
 10
-32.5
 20
85.09999
 11
-31.5
 21
84.09998
  0
LINE
  8
0
  6
CONTINUOUS
 62
     7
 10
-30.49999
 20
85.09999
 11
-29.5
 21
84.09999
  0
LINE
  8
0
  6
CONTINUOUS
 62
     7
 10
29.77405
 20
84.10001
 11
106.5
 21
84.10001
  0
LINE
  8
0
  6
CONTINUOUS
 62
     7
 10
35.50817
 20
105.5
 11
106.5
 21
105.5
  0
LINE
  8
0
  6
CONTINUOUS
 62
     7
 10
119.5
 20
86.3
 11
119.5
 21
103.3
  0
LINE
  8
0
  6
CONTINUOUS
 62
     7
 10
114.5
 20
84.10001
 11
114.5
 21
86.3
  0
LINE
  8
0
  6
CONTINUOUS
 62
     7
 10
114.5
 20
103.3
 11
114.5
 21
105.5
  0
LINE
  8
0
  6
DASHED
 62
     7
 10
-36.5
 20
75.79998
 11
-37.5
 21
76.79998
  0
LINE
  8
0
  6
DASHED
 62
     7
 10
-46.49998
 20
75.8
 11
-45.49998
 21
76.8
  0
LINE
  8
0
  6
DASHED
 62
     7
 10
-37.49998
 20
76.8
 11
-45.5
 21
76.8
  0
LINE
  8
0
  6
DASHED
 62
     7
 10
-45.49999
 20
76.8
 11
-45.49999
 21
82.02501
  0
LINE
  8
0
  6
DASHED
 62
     7
 10
-46.5
 20
75.80001
 11
-46.1812
 21
81.88319
  0
LINE
  8
0
  6
DASHED
 62
     7
 10
-37.50001
 20
76.8
 11
-37.50001
 21
82.025
  0
LINE
  8
0
  6
DASHED
 62
     7
 10
-36.50001
 20
75.8
 11
-36.81879
 21
81.88319
  0
LINE
  8
0
  6
PHANTOM
 62
     2
 10
25.63297
 20
84.1
 11
31.36709
 21
105.5
  0
LINE
  8
0
  6
DASHED
 62
     7
 10
119.5
 20
99.80001
 11
118.5
 21
98.80001
  0
LINE
  8
0
  6
DASHED
 62
     7
 10
112.3748
 20
99.42661
 11
119.5
 21
99.80003
  0
LINE
  8
0
  6
DASHED
 62
     7
 10
112.5231
 20
90.16567
 11
119.5
 21
89.80003
  0
LINE
  8
0
  6
DASHED
 62
     7
 10
118.5
 20
98.8
 11
112.0
 21
98.8
  0
LINE
  8
0
  6
DASHED
 62
     7
 10
118.5
 20
90.8
 11
112.0
 21
90.8
  0
LINE
  8
0
  6
DASHED
 62
     7
 10
118.5001
 20
90.80004
 11
119.5001
 21
89.80004
  0
LINE
  8
0
  6
PHANTOM
 62
     2
 10
29.77409
 20
84.10001
 11
35.50821
 21
105.5
  0
LINE
  8
0
  6
CONTINUOUS
 62
     7
 10
-67.5
 20
91.8
 11
-62.49999
 21
91.8
  0
LINE
  8
0
  6
CONTINUOUS
 62
     7
 10
-68.49998
 20
90.80005
 11
-67.5
 21
91.80003
  0
LINE
  8
0
  6
CONTINUOUS
 62
     7
 10
-61.50002
 20
90.80001
 11
-62.5
 21
91.8
  0
LINE
  8
0
  6
CONTINUOUS
 62
     7
 10
-67.5
 20
97.8
 11
-62.49999
 21
97.8
  0
LINE
  8
0
  6
CONTINUOUS
 62
     7
 10
-68.49998
 20
98.79996
 11
-67.5
 21
97.79997
  0
LINE
  8
0
  6
CONTINUOUS
 62
     7
 10
-61.50003
 20
98.8
 11
-62.50002
 21
97.80001
  0
LINE
  8
0
  6
CENTER
 62
     2
 10
-227.3657
 20
-10.0
 11
-185.3657
 21
-10.0
  0
LINE
  8
0
  6
CENTER
 62
     2
 10
-206.3657
 20
6.0
 11
-206.3657
 21
-26.0
  0
LINE
  8
0
  6
CONTINUOUS
 62
     7
 10
-187.3657
 20
2.05197
 11
-187.3657
 21
-22.05197
  0
LINE
  8
0
  6
CONTINUOUS
 62
     7
 10
-225.3657
 20
2.05197
 11
-225.3657
 21
-22.05197
  0
LINE
  8
0
  6
CONTINUOUS
 62
     7
 10
-223.9796
 20
-24.0
 11
-188.7518
 21
-24.0
  0
LINE
  8
0
  6
CONTINUOUS
 62
     7
 10
-223.9796
 20
4.0
 11
-188.7518
 21
4.0
  0
LINE
  8
0
  6
DASHED
 62
     7
 10
-211.3656
 20
3.99999
 11
-210.3656
 21
2.99999
  0
LINE
  8
0
  6
DASHED
 62
     7
 10
-201.3657
 20
3.99997
 11
-202.3657
 21
2.99997
  0
LINE
  8
0
  6
DASHED
 62
     7
 10
-210.3657
 20
3.0
 11
-202.3657
 21
3.0
  0
LINE
  8
0
  6
DASHED
 62
     7
 10
-202.3657
 20
3.0
 11
-202.3657
 21
0.47499
  0
LINE
  8
0
  6
DASHED
 62
     7
 10
-201.3657
 20
4.0
 11
-201.5645
 21
0.20647
  0
LINE
  8
0
  6
DASHED
 62
     7
 10
-210.3657
 20
3.0
 11
-210.3657
 21
0.62498
  0
LINE
  8
0
  6
DASHED
 62
     7
 10
-211.3657
 20
4.00002
 11
-211.1695
 21
0.25634
  0
LINE
  8
0
  6
CENTER
 62
     2
 10
-192.3657
 20
-5.0
 11
-192.3657
 21
3.0
  0
LINE
  8
0
  6
CENTER
 62
     2
 10
-220.3657
 20
-23.0
 11
-220.3657
 21
-15.0
  0
LINE
  8
0
  6
CENTER
 62
     2
 10
-224.3657
 20
-19.0
 11
-216.3657
 21
-19.0
  0
LINE
  8
0
  6
CENTER
 62
     2
 10
-196.3657
 20
-1.0
 11
-188.3657
 21
-1.0
  0
LINE
  8
0
  6
DASHED
 62
     7
 10
-187.3657
 20
-5.0001
 11
-193.4489
 21
-5.31895
  0
LINE
  8
0
  6
DASHED
 62
     7
 10
-188.3657
 20
-6.0
 11
-193.5907
 21
-6.0
  0
LINE
  8
0
  6
DASHED
 62
     7
 10
-188.3656
 20
-6.0
 11
-188.3656
 21
-14.0
  0
LINE
  8
0
  6
DASHED
 62
     7
 10
-187.3657
 20
-4.99996
 11
-188.3657
 21
-5.99997
  0
LINE
  8
0
  6
DASHED
 62
     7
 10
-187.3656
 20
-14.99992
 11
-188.3656
 21
-13.99992
  0
LINE
  8
0
  6
DASHED
 62
     7
 10
-188.3656
 20
-14.0
 11
-193.5907
 21
-14.0
  0
LINE
  8
0
  6
DASHED
 62
     7
 10
-187.3658
 20
-15.00025
 11
-193.4489
 21
-14.6814
  0
LINE
  8
0
  6
CENTER
 62
     2
 10
213.3657
 20
-10.0
 11
171.3657
 21
-10.0
  0
LINE
  8
0
  6
CENTER
 62
     2
 10
192.3657
 20
-25.99999
 11
192.3657
 21
6.00001
  0
LINE
  8
0
  6
CONTINUOUS
 62
     7
 10
173.3657
 20
-22.05196
 11
173.3657
 21
2.05198
  0
LINE
  8
0
  6
CONTINUOUS
 62
     7
 10
211.3657
 20
-22.05196
 11
211.3657
 21
2.05198
  0
LINE
  8
0
  6
CONTINUOUS
 62
     7
 10
209.9796
 20
4.0
 11
174.7518
 21
4.0
  0
LINE
  8
0
  6
CONTINUOUS
 62
     7
 10
209.9796
 20
-24.0
 11
174.7518
 21
-24.0
  0
LINE
  8
0
  6
CENTER
 62
     2
 10
206.3657
 20
-14.99999
 11
206.3657
 21
-22.99999
  0
LINE
  8
0
  6
CENTER
 62
     2
 10
178.3657
 20
3.00001
 11
178.3657
 21
-4.99999
  0
LINE
  8
0
  6
CENTER
 62
     2
 10
174.3657
 20
-1.0
 11
182.3657
 21
-1.0
  0
LINE
  8
0
  6
CENTER
 62
     2
 10
202.3657
 20
-19.0
 11
210.3657
 21
-19.0
  0
LINE
  8
0
  6
CONTINUOUS
 62
     7
 10
183.8657
 20
-3.50074
 11
183.8657
 21
-16.49921
  0
LINE
  8
0
  6
CONTINUOUS
 62
     7
 10
200.8657
 20
-3.50074
 11
200.8657
 21
-16.49921
  0
LINE
  8
0
  6
CONTINUOUS
 62
     7
 10
-61.50011
 20
-136.9282
 11
-55.50012
 21
-133.464
  0
LINE
  8
0
  6
CONTINUOUS
 62
     7
 10
-67.50001
 20
-133.4642
 11
-61.49995
 21
-136.9283
  0
LINE
  8
0
  6
CONTINUOUS
 62
     7
 10
-67.5
 20
-126.536
 11
-67.5
 21
-133.4642
  0
LINE
  8
0
  6
CONTINUOUS
 62
     7
 10
-67.50012
 20
-126.5359
 11
-61.50013
 21
-123.0718
  0
LINE
  8
0
  6
CONTINUOUS
 62
     7
 10
-61.50003
 20
-123.0718
 11
-55.50001
 21
-126.5359
  0
LINE
  8
0
  6
CONTINUOUS
 62
     7
 10
-55.5
 20
-126.536
 11
-55.5
 21
-133.4642
  0
LINE
  8
0
  6
CENTER
 62
     2
 10
-61.5
 20
-122.0001
 11
-61.5
 21
-138.0001
  0
LINE
  8
0
  6
CENTER
 62
     2
 10
-69.5
 20
-130.0001
 11
-53.5
 21
-130.0001
  0
LINE
  8
0
  6
CONTINUOUS
 62
     7
 10
-1.49999
 20
-123.9821
 11
-0.96407
 21
-123.0539
  0
LINE
  8
0
  6
CONTINUOUS
 62
     7
 10
2.96416
 20
-136.9103
 11
3.5
 21
-135.9822
  0
LINE
  8
0
  6
CONTINUOUS
 62
     7
 10
3.49998
 20
-123.9821
 11
2.96408
 21
-123.0539
  0
LINE
  8
0
  6
CONTINUOUS
 62
     7
 10
-0.96407
 20
-126.518
 11
2.96408
 21
-126.518
  0
LINE
  8
0
  6
CONTINUOUS
 62
     7
 10
-0.96407
 20
-133.4821
 11
2.96408
 21
-133.4821
  0
LINE
  8
0
  6
CONTINUOUS
 62
     7
 10
-0.96409
 20
-136.9103
 11
2.96416
 21
-136.9103
  0
LINE
  8
0
  6
CONTINUOUS
 62
     7
 10
2.9641
 20
-123.0539
 11
-0.96407
 21
-123.0539
  0
LINE
  8
0
  6
CONTINUOUS
 62
     7
 10
3.5
 20
-135.9822
 11
3.5
 21
-123.9821
  0
LINE
  8
0
  6
CONTINUOUS
 62
     7
 10
-1.5
 20
-123.9821
 11
-1.5
 21
-135.9821
  0
LINE
  8
0
  6
CENTER
 62
     2
 10
-2.99999
 20
-130.0001
 11
5.00001
 21
-130.0001
  0
LINE
  8
0
  6
CONTINUOUS
 62
     7
 10
-1.49999
 20
-136.018
 11
-0.96407
 21
-136.9462
  0
ARC
  8
0
  6
CONTINUOUS
 62
     7
 10
193.0652
 20
-166.2024
 40
1.56404
 50
0.0
 51
89.99999
  0
ARC
  8
0
  6
CONTINUOUS
 62
     7
 10
205.9686
 20
-174.6092
 40
1.56404
 50
270.0
 51
0.0
  0
ARC
  8
0
  6
CONTINUOUS
 62
     7
 10
205.1865
 20
-166.9844
 40
2.34607
 50
0.0
 51
89.99999
  0
ARC
  8
0
  6
CONTINUOUS
 62
     7
 10
219.4585
 20
-166.2024
 40
1.56404
 50
0.0
 51
89.99999
  0
ARC
  8
0
  6
CONTINUOUS
 62
     7
 10
219.4585
 20
-167.4519
 40
1.56405
 50
295.0
 51
0.0
  0
ARC
  8
0
  6
CONTINUOUS
 62
     7
 10
231.5798
 20
-164.6383
 40
2.34607
 50
291.6882
 51
0.0
  0
ARC
  8
0
  6
CONTINUOUS
 62
     7
 10
230.7978
 20
-164.1077
 40
0.78203
 50
291.688
 51
0.0
  0
CIRCLE
  8
0
  6
CONTINUOUS
 62
     7
 10
-41.5
 20
-10.0
 40
4.0
  0
CIRCLE
  8
0
  6
CONTINUOUS
 62
     7
 10
-41.5
 20
-10.0
 40
5.0
  0
CIRCLE
  8
0
  6
CONTINUOUS
 62
     7
 10
-41.5
 20
-10.0
 40
0.95
  0
ARC
  8
0
  6
CONTINUOUS
 62
     7
 10
-65.50002
 20
-10.0
 40
4.00003
 50
318.5905
 51
41.40947
  0
ARC
  8
0
  6
CONTINUOUS
 62
     7
 10
-64.49997
 20
-10.0
 40
4.00003
 50
138.5906
 51
221.4094
  0
CIRCLE
  8
0
  6
CONTINUOUS
 62
     7
 10
-41.5
 20
94.8
 40
4.0
  0
CIRCLE
  8
0
  6
CONTINUOUS
 62
     7
 10
-41.5
 20
94.8
 40
5.0
  0
CIRCLE
  8
0
  6
CONTINUOUS
 62
     7
 10
-41.5
 20
94.8
 40
0.95
  0
CIRCLE
  8
0
  6
CONTINUOUS
 62
     7
 10
-206.3657
 20
-10.0
 40
4.0
  0
CIRCLE
  8
0
  6
CONTINUOUS
 62
     7
 10
-206.3657
 20
-10.0
 40
10.0
  0
CIRCLE
  8
0
  6
CONTINUOUS
 62
     7
 10
-206.3657
 20
-10.0
 40
10.5
  0
CIRCLE
  8
0
  6
CONTINUOUS
 62
     7
 10
-206.3657
 20
-10.0
 40
11.0
  0
CIRCLE
  8
0
  6
CONTINUOUS
 62
     7
 10
-192.3657
 20
-1.0
 40
2.75
  0
CIRCLE
  8
0
  6
CONTINUOUS
 62
     7
 10
-220.3657
 20
-19.0
 40
2.75
  0
ARC
  8
0
  6
CONTINUOUS
 62
     7
 10
-206.3657
 20
-10.0
 40
22.5
 50
212.3875
 51
218.4786
  0
ARC
  8
0
  6
CONTINUOUS
 62
     7
 10
-206.3657
 20
-10.0
 40
22.5
 50
321.5214
 51
327.6125
  0
ARC
  8
0
  6
CONTINUOUS
 62
     7
 10
-206.3657
 20
-10.0
 40
22.50001
 50
32.38756
 51
38.47863
  0
ARC
  8
0
  6
CONTINUOUS
 62
     7
 10
-206.3657
 20
-10.0
 40
22.5
 50
141.5214
 51
147.6125
  0
CIRCLE
  8
0
  6
CONTINUOUS
 62
     7
 10
-206.3657
 20
-10.0
 40
3.0
  0
CIRCLE
  8
0
  6
CONTINUOUS
 62
     7
 10
206.3657
 20
-18.99998
 40
2.75
  0
CIRCLE
  8
0
  6
CONTINUOUS
 62
     7
 10
178.3657
 20
-0.99998
 40
2.75
  0
ARC
  8
0
  6
CONTINUOUS
 62
     7
 10
192.3657
 20
-9.99998
 40
22.5
 50
32.38754
 51
38.47857
  0
ARC
  8
0
  6
CONTINUOUS
 62
     7
 10
192.3657
 20
-9.99998
 40
22.5
 50
141.5214
 51
147.6125
  0
ARC
  8
0
  6
CONTINUOUS
 62
     7
 10
192.3657
 20
-9.99998
 40
22.49999
 50
212.3876
 51
218.4786
  0
ARC
  8
0
  6
CONTINUOUS
 62
     7
 10
192.3657
 20
-9.99998
 40
22.49999
 50
321.5215
 51
327.6125
  0
CIRCLE
  8
0
  6
CONTINUOUS
 62
     7
 10
192.3657
 20
-9.99998
 40
4.0
  0
CIRCLE
  8
0
  6
CONTINUOUS
 62
     7
 10
192.3657
 20
-9.99998
 40
5.0
  0
CIRCLE
  8
0
  6
CONTINUOUS
 62
     7
 10
192.3657
 20
-9.99998
 40
10.7
  0
ARC
  8
0
  6
CONTINUOUS
 62
     7
 10
192.3657
 20
-9.99998
 40
9.7
 50
28.80214
 51
151.1979
  0
ARC
  8
0
  6
CONTINUOUS
 62
     7
 10
192.3657
 20
-9.99998
 40
9.7
 50
208.8021
 51
331.1978
  0
CIRCLE
  8
0
  6
CONTINUOUS
 62
     7
 10
192.3657
 20
-10.0
 40
0.95
  0
CIRCLE
  8
0
  6
CONTINUOUS
 62
     7
 10
-61.5
 20
-130.0001
 40
6.0
  0
CIRCLE
  8
0
  6
CONTINUOUS
 62
     7
 10
-61.5
 20
-130.0001
 40
4.0
  0
CIRCLE
  8
0
  6
CONTINUOUS
 62
     7
 10
-61.5
 20
-130.0001
 40
3.5
  0
ARC
  8
0
  6
CONTINUOUS
 62
     7
 10
10.07989
 20
-130.0001
 40
11.57989
 50
162.5005
 51
197.4995
  0
ARC
  8
0
  6
CONTINUOUS
 62
     7
 10
1.56686
 20
-124.786
 40
3.06685
 50
180.0
 51
214.3859
  0
ARC
  8
0
  6
CONTINUOUS
 62
     7
 10
1.56686
 20
-135.2142
 40
3.06686
 50
145.614
 51
180.0
  0
ARC
  8
0
  6
CONTINUOUS
 62
     7
 10
0.43315
 20
-135.2142
 40
3.06685
 50
0.0
 51
34.38604
  0
ARC
  8
0
  6
CONTINUOUS
 62
     7
 10
-8.07988
 20
-130.0001
 40
11.57989
 50
342.5005
 51
17.49956
  0
ARC
  8
0
  6
CONTINUOUS
 62
     7
 10
0.43315
 20
-124.786
 40
3.06685
 50
325.6141
 51
0.0
  0
TEXT
  8
0
  6
CONTINUOUS
 62
     7
 10
-88.03571
 20
-82.35006
 40
5.0
  1
ROD NUT(M8)
 41
0.8
  7
STANDARD
  0
TEXT
  8
0
  6
CONTINUOUS
 62
     7
 10
161.9774
 20
167.0677
 40
6.0
  1
DATE : AUG ,1989
 41
0.8
  7
STANDARD
  0
TEXT
  8
0
  6
CONTINUOUS
 62
     7
 10
-256.1446
 20
166.5977
 40
7.0
  1
SLIM BLOCK CYL
 41
0.8
  7
STANDARD
  0
TEXT
  8
0
  6
CONTINUOUS
 62
     7
 10
-254.3972
 20
141.4853
 40
7.0
  1
MODEL : DAB 20*ST-4(100)
 41
0.8
  7
STANDARD
  0
TEXT
  8
0
  6
CONTINUOUS
 62
     7
 10
22.33538
 20
-38.35
 40
5.0
  1
CATALOG
 41
0.8
  7
STANDARD
  0
ENDSEC
  0
EOF
