  0
SECTION
  2
HEADER
  9
$ACADVER
  1
AC1002
  9
$INSBASE
 10
0.0
 20
0.0
  9
$EXTMIN
 10
-262.2472
 20
-180.0
  9
$EXTMAX
 10
262.2472
 20
180.0
  9
$LIMMIN
 10
0.0
 20
0.0
  9
$LIMMAX
 10
12.0
 20
9.0
  9
$VIEWCTR
 10
20.22981726
 20
0.0
  9
$VIEWSIZE
 40
360.0
  9
$SNAPMODE
 70
     0
  9
$SNAPUNIT
 10
1.0
 20
1.0
  9
$SNAPBASE
 10
0.0
 20
0.0
  9
$SNAPANG
 50
0.0
  9
$SNAPSTYLE
 70
     0
  9
$SNAPISOPAIR
 70
     0
  9
$GRIDMODE
 70
     0
  9
$GRIDUNIT
 10
0.0
 20
0.0
  9
$ORTHOMODE
 70
     0
  9
$REGENMODE
 70
     1
  9
$FILLMODE
 70
     1
  9
$QTEXTMODE
 70
     0
  9
$DRAGMODE
 70
     2
  9
$LTSCALE
 40
1.0
  9
$OSMODE
 70
     0
  9
$ATTMODE
 70
     1
  9
$TEXTSIZE
 40
0.2
  9
$TRACEWID
 40
0.05
  9
$TEXTSTYLE
  7
AAA
  9
$CLAYER
  8
0
  9
$CELTYPE
  6
BYLAYER
  9
$CECOLOR
 62
   256
  9
$DIMSCALE
 40
1.0
  9
$DIMASZ
 40
0.18
  9
$DIMEXO
 40
0.0625
  9
$DIMDLI
 40
0.38
  9
$DIMRND
 40
0.0
  9
$DIMDLE
 40
0.0
  9
$DIMEXE
 40
0.18
  9
$DIMTP
 40
0.0
  9
$DIMTM
 40
0.0
  9
$DIMTXT
 40
0.18
  9
$DIMCEN
 40
0.09
  9
$DIMTSZ
 40
0.0
  9
$DIMTOL
 70
     0
  9
$DIMLIM
 70
     0
  9
$DIMTIH
 70
     1
  9
$DIMTOH
 70
     1
  9
$DIMSE1
 70
     0
  9
$DIMSE2
 70
     0
  9
$DIMTAD
 70
     0
  9
$DIMZIN
 70
     0
  9
$DIMBLK
  1

  9
$LUNITS
 70
     2
  9
$LUPREC
 70
     4
  9
$AXISMODE
 70
     0
  9
$AXISUNIT
 10
0.0
 20
0.0
  9
$SKETCHINC
 40
0.1
  9
$FILLETRAD
 40
0.0
  9
$AUNITS
 70
     0
  9
$AUPREC
 70
     0
  9
$MENU
  1
ACAD
  9
$ELEVATION
 40
0.0
  9
$THICKNESS
 40
0.0
  9
$VIEWDIR
 10
0.0
 20
0.0
 30
1.0
  9
$LIMCHECK
 70
     0
  9
$BLIPMODE
 70
     1
  9
$CHAMFERA
 40
0.0
  9
$CHAMFERB
 40
0.0
  9
$FASTZOOM
 70
     1
  9
$SKPOLY
 70
     0
  9
$TDCREATE
 40
2447798.5696759758
  9
$TDUPDATE
 40
2447798.5696759758
  9
$TDINDWG
 40
0.0010416667
  9
$TDUSRTIMER
 40
0.0010416667
  9
$USRTIMER
 70
     1
  9
$ANGBASE
 50
0.0
  9
$ANGDIR
 70
     0
  9
$PDMODE
 70
     0
  9
$PDSIZE
 40
0.0
  9
$PLINEWID
 40
0.0
  9
$COORDS
 70
     0
  9
$USERI1
 70
     0
  9
$USERI2
 70
     0
  9
$USERI3
 70
     0
  9
$USERI4
 70
     0
  9
$USERI5
 70
     0
  9
$USERR1
 40
0.0
  9
$USERR2
 40
0.0
  9
$USERR3
 40
0.0
  9
$USERR4
 40
0.0
  9
$USERR5
 40
0.0
  0
ENDSEC
  0
SECTION
  2
TABLES
  0
TABLE
  2
LTYPE
 70
     5
  0
LTYPE
  2
CONTINUOUS
 70
    64
  3
SOLID
 72
    65
 73
     0
 40
0.0
  0
LTYPE
  2
DASHED
 70
    64
  3
DASHED
 72
    65
 73
     2
 40
0.75
 49
0.5
 49
-0.25
  0
LTYPE
  2
CENTER
 70
    64
  3
CENTER
 72
    65
 73
     4
 40
2.0
 49
1.25
 49
-0.25
 49
0.25
 49
-0.25
  0
LTYPE
  2
PHANTOM
 70
    64
  3
PHANTOM
 72
    65
 73
     6
 40
2.5
 49
1.25
 49
-0.25
 49
0.25
 49
-0.25
 49
0.25
 49
-0.25
  0
ENDTAB
  0
TABLE
  2
LAYER
 70
     1
  0
LAYER
  2
0
 70
    64
 62
     7
  6
CONTINUOUS
  0
ENDTAB
  0
TABLE
  2
STYLE
 70
     2
  0
STYLE
  2
AAA
 70
     0
 40
0.0
 41
1.0
 50
0.0
 71
     0
 42
0.2
  3
TXT
  4

  0
STYLE
  2
STANDARD
 70
    64
 40
0.0
 41
1.0
 50
0.0
 71
     0
 42
0.2
  3
TXT
  4
BIGFONT
  0
ENDTAB
  0
TABLE
  2
VIEW
 70
     0
  0
ENDTAB
  0
ENDSEC
  0
SECTION
  2
BLOCKS
  0
ENDSEC
  0
SECTION
  2
ENTITIES
  0
POINT
  8
0
  6
CONTINUOUS
 62
     7
 10
-206.3657
 20
-10.0
  0
POINT
  8
0
  6
CONTINUOUS
 62
     7
 10
-191.3657
 20
-10.0
  0
POINT
  8
0
  6
CONTINUOUS
 62
     7
 10
-61.5
 20
-10.0
  0
POINT
  8
0
  6
CONTINUOUS
 62
     7
 10
108.5
 20
-10.0
  0
POINT
  8
0
  6
CONTINUOUS
 62
     7
 10
-61.5
 20
94.8
  0
POINT
  8
0
  6
CONTINUOUS
 62
     7
 10
108.5
 20
94.8
  0
POINT
  8
0
  6
CONTINUOUS
 62
     7
 10
196.3657
 20
-10.0
  0
POINT
  8
0
  6
CONTINUOUS
 62
     7
 10
211.3657
 20
-10.0
  0
POINT
  8
0
  6
CONTINUOUS
 62
     7
 10
-1.5
 20
-130.0001
  0
POINT
  8
0
  6
CONTINUOUS
 62
     7
 10
3.5
 20
-130.0001
  0
POINT
  8
0
  6
CONTINUOUS
 62
     7
 10
-61.5
 20
-130.0001
  0
POINT
  8
0
  6
CONTINUOUS
 62
     7
 10
-56.5
 20
-130.0001
  0
LINE
  8
0
  6
CONTINUOUS
 62
     7
 10
-262.2472
 20
-180.0
 11
-262.2472
 21
180.0
  0
LINE
  8
0
  6
CONTINUOUS
 62
     7
 10
262.2472
 20
180.0
 11
262.2472
 21
-180.0
  0
LINE
  8
0
  6
CONTINUOUS
 62
     7
 10
-262.2472
 20
-180.0
 11
262.2472
 21
-180.0
  0
LINE
  8
0
  6
CONTINUOUS
 62
     7
 10
-262.2472
 20
180.0
 11
262.2472
 21
180.0
  0
LINE
  8
0
  6
CONTINUOUS
 62
     7
 10
-262.2472
 20
159.7753
 11
-154.382
 21
159.7753
  0
LINE
  8
0
  6
CONTINUOUS
 62
     7
 10
-154.382
 20
159.7753
 11
-154.382
 21
180.0
  0
LINE
  8
0
  6
CONTINUOUS
 62
     7
 10
154.382
 20
-159.7753
 11
262.2472
 21
-159.7753
  0
LINE
  8
0
  6
CONTINUOUS
 62
     7
 10
182.7034
 20
-164.6383
 11
193.0652
 21
-164.6383
  0
LINE
  8
0
  6
CONTINUOUS
 62
     7
 10
182.7034
 20
-173.8271
 11
191.5012
 21
-173.8271
  0
LINE
  8
0
  6
CONTINUOUS
 62
     7
 10
182.7034
 20
-176.1732
 11
194.6293
 21
-176.1732
  0
LINE
  8
0
  6
CONTINUOUS
 62
     7
 10
182.7034
 20
-166.9844
 11
191.5012
 21
-166.9844
  0
LINE
  8
0
  6
CONTINUOUS
 62
     7
 10
182.7034
 20
-164.6383
 11
182.7034
 21
-166.9844
  0
LINE
  8
0
  6
CONTINUOUS
 62
     7
 10
194.6293
 20
-166.2024
 11
194.6293
 21
-176.1732
  0
LINE
  8
0
  6
CONTINUOUS
 62
     7
 10
191.5012
 20
-166.9844
 11
191.5012
 21
-173.8271
  0
LINE
  8
0
  6
CONTINUOUS
 62
     7
 10
196.3888
 20
-164.6383
 11
196.3888
 21
-166.9844
  0
LINE
  8
0
  6
CONTINUOUS
 62
     7
 10
207.5326
 20
-166.9844
 11
207.5326
 21
-174.6092
  0
LINE
  8
0
  6
CONTINUOUS
 62
     7
 10
204.4045
 20
-166.9844
 11
204.4045
 21
-173.8271
  0
LINE
  8
0
  6
CONTINUOUS
 62
     7
 10
182.7034
 20
-173.8271
 11
182.7034
 21
-176.1732
  0
LINE
  8
0
  6
CONTINUOUS
 62
     7
 10
196.3888
 20
-164.6383
 11
199.4796
 21
-164.6383
  0
LINE
  8
0
  6
CONTINUOUS
 62
     7
 10
196.3888
 20
-176.1732
 11
198.8176
 21
-176.1732
  0
LINE
  8
0
  6
CONTINUOUS
 62
     7
 10
196.3887
 20
-176.1731
 11
198.8509
 21
-166.9843
  0
LINE
  8
0
  6
CONTINUOUS
 62
     7
 10
196.3888
 20
-166.9844
 11
198.8509
 21
-166.9844
  0
LINE
  8
0
  6
CONTINUOUS
 62
     7
 10
198.8178
 20
-176.1733
 11
201.2799
 21
-166.9845
  0
LINE
  8
0
  6
CONTINUOUS
 62
     7
 10
202.0584
 20
-173.8271
 11
204.4045
 21
-173.8271
  0
LINE
  8
0
  6
CONTINUOUS
 62
     7
 10
202.0584
 20
-173.8271
 11
202.6869
 21
-176.1731
  0
LINE
  8
0
  6
CONTINUOUS
 62
     7
 10
202.6871
 20
-176.1732
 11
205.9686
 21
-176.1732
  0
LINE
  8
0
  6
CONTINUOUS
 62
     7
 10
201.2798
 20
-166.9844
 11
204.4045
 21
-166.9844
  0
LINE
  8
0
  6
CONTINUOUS
 62
     7
 10
201.9084
 20
-164.6383
 11
205.1865
 21
-164.6383
  0
LINE
  8
0
  6
CONTINUOUS
 62
     7
 10
199.4796
 20
-164.6384
 11
199.9458
 21
-162.8984
  0
LINE
  8
0
  6
CONTINUOUS
 62
     7
 10
201.9082
 20
-164.6382
 11
202.3744
 21
-162.8982
  0
LINE
  8
0
  6
CONTINUOUS
 62
     7
 10
209.4877
 20
-164.6383
 11
213.2023
 21
-164.6383
  0
LINE
  8
0
  6
CONTINUOUS
 62
     7
 10
209.4877
 20
-166.9844
 11
218.6106
 21
-166.9844
  0
LINE
  8
0
  6
CONTINUOUS
 62
     7
 10
213.2023
 20
-176.1732
 11
216.3303
 21
-176.1732
  0
LINE
  8
0
  6
CONTINUOUS
 62
     7
 10
209.4877
 20
-164.6383
 11
209.4877
 21
-166.9844
  0
LINE
  8
0
  6
CONTINUOUS
 62
     7
 10
221.0225
 20
-171.2385
 11
221.0225
 21
-173.8271
  0
LINE
  8
0
  6
CONTINUOUS
 62
     7
 10
209.4875
 20
-173.827
 11
213.2022
 21
-172.0948
  0
LINE
  8
0
  6
CONTINUOUS
 62
     7
 10
209.4879
 20
-171.2387
 11
218.6108
 21
-166.9846
  0
LINE
  8
0
  6
CONTINUOUS
 62
     7
 10
209.4877
 20
-171.2385
 11
209.4877
 21
-173.8271
  0
LINE
  8
0
  6
CONTINUOUS
 62
     7
 10
216.3302
 20
-171.6391
 11
221.0225
 21
-173.827
  0
LINE
  8
0
  6
CONTINUOUS
 62
     7
 10
218.0311
 20
-169.8436
 11
221.0228
 21
-171.2387
  0
LINE
  8
0
  6
CONTINUOUS
 62
     7
 10
221.0225
 20
-166.2024
 11
221.0225
 21
-167.4519
  0
LINE
  8
0
  6
CONTINUOUS
 62
     7
 10
213.2023
 20
-162.8984
 11
213.2023
 21
-164.6383
  0
LINE
  8
0
  6
CONTINUOUS
 62
     7
 10
216.3303
 20
-162.8984
 11
216.3303
 21
-164.6383
  0
LINE
  8
0
  6
CONTINUOUS
 62
     7
 10
216.3303
 20
-164.6383
 11
219.4585
 21
-164.6383
  0
LINE
  8
0
  6
CONTINUOUS
 62
     7
 10
213.2023
 20
-172.095
 11
213.2023
 21
-176.1732
  0
LINE
  8
0
  6
CONTINUOUS
 62
     7
 10
216.3303
 20
-171.6392
 11
216.3303
 21
-176.1732
  0
LINE
  8
0
  6
CONTINUOUS
 62
     7
 10
218.031
 20
-169.8436
 11
220.1197
 21
-168.8696
  0
LINE
  8
0
  6
CONTINUOUS
 62
     7
 10
231.5798
 20
-163.6022
 11
233.9258
 21
-163.6022
  0
LINE
  8
0
  6
CONTINUOUS
 62
     7
 10
222.0001
 20
-168.4483
 11
222.0001
 21
-170.9731
  0
LINE
  8
0
  6
CONTINUOUS
 62
     7
 10
233.9258
 20
-163.6022
 11
233.9258
 21
-164.6383
  0
LINE
  8
0
  6
CONTINUOUS
 62
     7
 10
231.5798
 20
-163.6022
 11
231.5798
 21
-164.1077
  0
LINE
  8
0
  6
CONTINUOUS
 62
     7
 10
228.4517
 20
-168.4072
 11
228.4517
 21
-176.1732
  0
LINE
  8
0
  6
CONTINUOUS
 62
     7
 10
222.0001
 20
-168.4484
 11
231.0869
 21
-164.8345
  0
LINE
  8
0
  6
CONTINUOUS
 62
     7
 10
222.0001
 20
-170.9732
 11
228.4518
 21
-168.4073
  0
LINE
  8
0
  6
CONTINUOUS
 62
     7
 10
228.4517
 20
-176.1732
 11
231.5798
 21
-176.1732
  0
LINE
  8
0
  6
CONTINUOUS
 62
     7
 10
231.5798
 20
-167.1632
 11
231.5798
 21
-176.1732
  0
LINE
  8
0
  6
CONTINUOUS
 62
     7
 10
231.5801
 20
-167.1633
 11
232.4471
 21
-166.8185
  0
LINE
  8
0
  6
CONTINUOUS
 62
     7
 10
199.7572
 20
-162.8984
 11
202.3746
 21
-162.8984
  0
LINE
  8
0
  6
CONTINUOUS
 62
     7
 10
206.2618
 20
-162.8984
 11
207.2589
 21
-162.8984
  0
LINE
  8
0
  6
CONTINUOUS
 62
     7
 10
213.2023
 20
-162.8984
 11
216.3303
 21
-162.8984
  0
LINE
  8
0
  6
CONTINUOUS
 62
     7
 10
206.2618
 20
-164.4624
 11
207.2589
 21
-164.4624
  0
LINE
  8
0
  6
CONTINUOUS
 62
     7
 10
206.2618
 20
-162.8984
 11
206.2618
 21
-164.4624
  0
LINE
  8
0
  6
CONTINUOUS
 62
     7
 10
207.2589
 20
-162.8984
 11
207.2589
 21
-164.4624
  0
LINE
  8
0
  6
CONTINUOUS
 62
     7
 10
207.8454
 20
-162.8984
 11
207.8454
 21
-164.4624
  0
LINE
  8
0
  6
CONTINUOUS
 62
     7
 10
208.9598
 20
-162.8984
 11
208.9598
 21
-164.4624
  0
LINE
  8
0
  6
CONTINUOUS
 62
     7
 10
207.8454
 20
-162.8984
 11
208.9598
 21
-162.8984
  0
LINE
  8
0
  6
CONTINUOUS
 62
     7
 10
207.8454
 20
-164.4624
 11
208.9598
 21
-164.4624
  0
LINE
  8
0
  6
CONTINUOUS
 62
     7
 10
154.382
 20
159.7753
 11
262.2472
 21
159.7753
  0
LINE
  8
0
  6
CONTINUOUS
 62
     7
 10
154.382
 20
180.0
 11
154.382
 21
159.7753
  0
LINE
  8
0
  6
CONTINUOUS
 62
     7
 10
154.382
 20
-159.7753
 11
154.382
 21
-180.0
  0
LINE
  8
0
  6
CONTINUOUS
 62
     2
 10
-36.5
 20
-22.0
 11
-36.5
 21
-42.0
  0
LINE
  8
0
  6
CONTINUOUS
 62
     2
 10
108.5
 20
-18.1
 11
108.5
 21
-42.0
  0
LINE
  8
0
  6
CONTINUOUS
 62
     2
 10
108.5
 20
-39.99998
 11
105.5
 21
-40.80383
  0
LINE
  8
0
  6
CONTINUOUS
 62
     2
 10
108.5
 20
-40.0
 11
105.5
 21
-39.19615
  0
LINE
  8
0
  6
CONTINUOUS
 62
     2
 10
-36.49999
 20
-39.99999
 11
-33.5
 21
-39.19614
  0
LINE
  8
0
  6
CONTINUOUS
 62
     2
 10
-36.49999
 20
-39.99999
 11
-33.49999
 21
-40.80384
  0
LINE
  8
0
  6
CONTINUOUS
 62
     2
 10
-36.5
 20
-40.0
 11
108.5
 21
-40.0
  0
LINE
  8
0
  6
CONTINUOUS
 62
     7
 10
-81.5
 20
-8.0
 11
-81.5
 21
-12.0
  0
LINE
  8
0
  6
CONTINUOUS
 62
     7
 10
-80.5
 20
-7.0
 11
-80.5
 21
-13.0
  0
LINE
  8
0
  6
CONTINUOUS
 62
     7
 10
-81.50002
 20
-7.99998
 11
-80.50003
 21
-6.99999
  0
LINE
  8
0
  6
CONTINUOUS
 62
     7
 10
-81.49999
 20
-12.00001
 11
-80.5
 21
-13.0
  0
LINE
  8
0
  6
CONTINUOUS
 62
     7
 10
-66.5
 20
-7.0
 11
-66.5
 21
-13.0
  0
LINE
  8
0
  6
CONTINUOUS
 62
     7
 10
-80.5
 20
-7.0
 11
-61.5
 21
-7.0
  0
LINE
  8
0
  6
CONTINUOUS
 62
     7
 10
-80.5
 20
-13.0
 11
-61.5
 21
-13.0
  0
LINE
  8
0
  6
CONTINUOUS
 62
     7
 10
-66.50001
 20
-7.54148
 11
-65.56211
 21
-6.99998
  0
LINE
  8
0
  6
CONTINUOUS
 62
     7
 10
-66.5
 20
-12.4585
 11
-65.5621
 21
-13.0
  0
LINE
  8
0
  6
CONTINUOUS
 62
     7
 10
-81.04149
 20
-7.5415
 11
-66.5
 21
-7.5415
  0
LINE
  8
0
  6
CONTINUOUS
 62
     7
 10
-81.0415
 20
-12.4585
 11
-66.5
 21
-12.4585
  0
LINE
  8
0
  6
CONTINUOUS
 62
     7
 10
-36.5
 20
2.0
 11
-36.5
 21
-22.0
  0
LINE
  8
0
  6
CONTINUOUS
 62
     7
 10
-61.5
 20
2.0
 11
-36.5
 21
2.0
  0
LINE
  8
0
  6
CONTINUOUS
 62
     7
 10
-61.5
 20
0.41641
 11
-36.5
 21
0.41641
  0
LINE
  8
0
  6
CONTINUOUS
 62
     7
 10
-36.5
 20
-18.6
 11
-35.5
 21
-18.6
  0
LINE
  8
0
  6
CONTINUOUS
 62
     7
 10
-35.5
 20
-1.4
 11
-35.5
 21
-18.6
  0
LINE
  8
0
  6
CONTINUOUS
 62
     7
 10
-34.5
 20
-1.4
 11
-34.5
 21
-18.6
  0
LINE
  8
0
  6
CONTINUOUS
 62
     7
 10
-33.5
 20
-1.4
 11
-33.5
 21
-18.6
  0
LINE
  8
0
  6
CONTINUOUS
 62
     7
 10
-32.5
 20
-1.4
 11
-32.5
 21
-18.6
  0
LINE
  8
0
  6
CONTINUOUS
 62
     7
 10
-36.5
 20
-1.4
 11
-35.5
 21
-1.4
  0
LINE
  8
0
  6
CONTINUOUS
 62
     7
 10
-35.49998
 20
-2.40002
 11
-34.49998
 21
-1.40002
  0
LINE
  8
0
  6
CONTINUOUS
 62
     7
 10
-33.49997
 20
-2.4
 11
-32.49997
 21
-1.40001
  0
LINE
  8
0
  6
CONTINUOUS
 62
     7
 10
-35.5
 20
-17.6
 11
-34.5
 21
-18.6
  0
LINE
  8
0
  6
CONTINUOUS
 62
     7
 10
-33.5
 20
-17.60001
 11
-32.5
 21
-18.60001
  0
LINE
  8
0
  6
CONTINUOUS
 62
     7
 10
-34.5
 20
-1.4
 11
-33.5
 21
-1.4
  0
LINE
  8
0
  6
CONTINUOUS
 62
     7
 10
-32.5
 20
-1.4
 11
38.80437
 21
-1.4
  0
LINE
  8
0
  6
CONTINUOUS
 62
     7
 10
-34.5
 20
-18.6
 11
-33.5
 21
-18.6
  0
LINE
  8
0
  6
CONTINUOUS
 62
     7
 10
-32.5
 20
-18.6
 11
34.19564
 21
-18.6
  0
LINE
  8
0
  6
CONTINUOUS
 62
     7
 10
42.94547
 20
-1.4
 11
95.5
 21
-1.4
  0
LINE
  8
0
  6
CONTINUOUS
 62
     7
 10
38.33674
 20
-18.6
 11
95.5
 21
-18.6
  0
LINE
  8
0
  6
CONTINUOUS
 62
     7
 10
108.5
 20
-1.89999
 11
108.5
 21
-18.1
  0
LINE
  8
0
  6
CONTINUOUS
 62
     7
 10
108.0
 20
-1.4
 11
108.0
 21
-5.00399
  0
LINE
  8
0
  6
CONTINUOUS
 62
     7
 10
98.5
 20
-1.4
 11
98.5
 21
-18.6
  0
LINE
  8
0
  6
CONTINUOUS
 62
     7
 10
97.5
 20
-1.4
 11
97.5
 21
-18.6
  0
LINE
  8
0
  6
CONTINUOUS
 62
     7
 10
96.5
 20
-1.4
 11
96.5
 21
-18.6
  0
LINE
  8
0
  6
CONTINUOUS
 62
     7
 10
95.5
 20
-1.4
 11
95.5
 21
-18.6
  0
LINE
  8
0
  6
CONTINUOUS
 62
     7
 10
95.50002
 20
-1.40004
 11
96.49998
 21
-2.40002
  0
LINE
  8
0
  6
CONTINUOUS
 62
     7
 10
97.49988
 20
-1.40009
 11
98.49989
 21
-2.4001
  0
LINE
  8
0
  6
CONTINUOUS
 62
     7
 10
95.49998
 20
-18.6
 11
96.49998
 21
-17.6
  0
LINE
  8
0
  6
CONTINUOUS
 62
     7
 10
97.49998
 20
-18.59998
 11
98.49999
 21
-17.59998
  0
LINE
  8
0
  6
CONTINUOUS
 62
     7
 10
96.5
 20
-1.4
 11
97.5
 21
-1.4
  0
LINE
  8
0
  6
CONTINUOUS
 62
     7
 10
98.5
 20
-1.4
 11
108.0
 21
-1.4
  0
LINE
  8
0
  6
CONTINUOUS
 62
     7
 10
96.5
 20
-18.6
 11
97.5
 21
-18.6
  0
LINE
  8
0
  6
CONTINUOUS
 62
     7
 10
98.5
 20
-18.6
 11
108.0
 21
-18.6
  0
LINE
  8
0
  6
CONTINUOUS
 62
     7
 10
103.5
 20
-5.00399
 11
103.5
 21
-14.99598
  0
LINE
  8
0
  6
CONTINUOUS
 62
     7
 10
-61.5
 20
2.0
 11
-61.5
 21
-22.0
  0
LINE
  8
0
  6
PHANTOM
 62
     2
 10
34.19567
 20
-18.6
 11
38.8044
 21
-1.40001
  0
LINE
  8
0
  6
DASHED
 62
     7
 10
-48.49998
 20
1.00002
 11
-49.49998
 21
2.00001
  0
LINE
  8
0
  6
DASHED
 62
     7
 10
-49.13437
 20
-4.97691
 11
-49.50001
 21
2.0
  0
LINE
  8
0
  6
DASHED
 62
     7
 10
-48.5
 20
-5.5
 11
-48.5
 21
1.0
  0
LINE
  8
0
  6
DASHED
 62
     7
 10
-48.5
 20
1.0
 11
-40.5
 21
1.0
  0
LINE
  8
0
  6
DASHED
 62
     7
 10
-40.5
 20
1.0
 11
-39.49999
 21
2.0
  0
LINE
  8
0
  6
DASHED
 62
     7
 10
-39.87341
 20
-5.12519
 11
-39.5
 21
2.0
  0
LINE
  8
0
  6
DASHED
 62
     7
 10
-40.5
 20
1.0
 11
-40.5
 21
-5.5
  0
LINE
  8
0
  6
CENTER
 62
     2
 10
-53.5
 20
3.5
 11
-53.5
 21
-23.5
  0
LINE
  8
0
  6
CENTER
 62
     2
 10
-44.5
 20
-17.19469
 11
-44.5
 21
3.5
  0
LINE
  8
0
  6
CENTER
 62
     2
 10
-83.5
 20
-10.0
 11
110.5
 21
-10.0
  0
LINE
  8
0
  6
PHANTOM
 62
     2
 10
38.33675
 20
-18.6
 11
42.94548
 21
-1.4
  0
LINE
  8
0
  6
CONTINUOUS
 62
     7
 10
-61.5
 20
-22.0
 11
-36.5
 21
-22.0
  0
LINE
  8
0
  6
CONTINUOUS
 62
     7
 10
-61.5
 20
-20.41641
 11
-36.5
 21
-20.41641
  0
LINE
  8
0
  6
CONTINUOUS
 62
     7
 10
103.5
 20
-5.00399
 11
108.5
 21
-5.00399
  0
LINE
  8
0
  6
CONTINUOUS
 62
     7
 10
108.0
 20
-1.39999
 11
108.5
 21
-1.89997
  0
LINE
  8
0
  6
CONTINUOUS
 62
     7
 10
108.5
 20
-18.09998
 11
108.0
 21
-18.59999
  0
LINE
  8
0
  6
CONTINUOUS
 62
     7
 10
103.5
 20
-14.99601
 11
108.5
 21
-14.99601
  0
LINE
  8
0
  6
CONTINUOUS
 62
     7
 10
108.0
 20
-18.6
 11
108.0
 21
-14.99601
  0
LINE
  8
0
  6
CONTINUOUS
 62
     7
 10
108.5
 20
-14.99599
 11
103.5
 21
-5.00395
  0
LINE
  8
0
  6
CONTINUOUS
 62
     7
 10
108.5
 20
-5.00398
 11
103.5
 21
-14.99597
  0
LINE
  8
0
  6
CONTINUOUS
 62
     7
 10
-81.5
 20
96.8
 11
-81.5
 21
92.8
  0
LINE
  8
0
  6
CONTINUOUS
 62
     7
 10
-80.5
 20
97.8
 11
-80.5
 21
91.8
  0
LINE
  8
0
  6
CONTINUOUS
 62
     7
 10
-81.50002
 20
96.80003
 11
-80.50003
 21
97.80003
  0
LINE
  8
0
  6
CONTINUOUS
 62
     7
 10
-81.49998
 20
92.79999
 11
-80.49999
 21
91.8
  0
LINE
  8
0
  6
CONTINUOUS
 62
     7
 10
-66.5
 20
97.8
 11
-66.5
 21
91.8
  0
LINE
  8
0
  6
CONTINUOUS
 62
     7
 10
-80.5
 20
97.8
 11
-61.5
 21
97.8
  0
LINE
  8
0
  6
CONTINUOUS
 62
     7
 10
-80.5
 20
91.8
 11
-61.5
 21
91.8
  0
LINE
  8
0
  6
CONTINUOUS
 62
     7
 10
-66.50003
 20
97.25852
 11
-65.56213
 21
97.80003
  0
LINE
  8
0
  6
CONTINUOUS
 62
     7
 10
-66.50002
 20
92.34143
 11
-65.56212
 21
91.79993
  0
LINE
  8
0
  6
CONTINUOUS
 62
     7
 10
-81.04149
 20
97.2585
 11
-66.5
 21
97.2585
  0
LINE
  8
0
  6
CONTINUOUS
 62
     7
 10
-81.0415
 20
92.34151
 11
-66.5
 21
92.34151
  0
LINE
  8
0
  6
CONTINUOUS
 62
     7
 10
-36.5
 20
109.8
 11
-36.5
 21
79.8
  0
LINE
  8
0
  6
CONTINUOUS
 62
     7
 10
-61.5
 20
109.8
 11
-36.5
 21
109.8
  0
LINE
  8
0
  6
CONTINUOUS
 62
     7
 10
-61.5
 20
79.8
 11
-36.5
 21
79.8
  0
LINE
  8
0
  6
CONTINUOUS
 62
     7
 10
-61.5
 20
108.2164
 11
-36.5
 21
108.2164
  0
LINE
  8
0
  6
CONTINUOUS
 62
     7
 10
-61.5
 20
81.38359
 11
-36.5
 21
81.38359
  0
LINE
  8
0
  6
CONTINUOUS
 62
     7
 10
-36.5
 20
86.2
 11
-35.5
 21
86.2
  0
LINE
  8
0
  6
CONTINUOUS
 62
     7
 10
-35.5
 20
103.4
 11
-35.5
 21
86.2
  0
LINE
  8
0
  6
CONTINUOUS
 62
     7
 10
-34.5
 20
103.4
 11
-34.5
 21
86.2
  0
LINE
  8
0
  6
CONTINUOUS
 62
     7
 10
-33.5
 20
103.4
 11
-33.5
 21
86.2
  0
LINE
  8
0
  6
CONTINUOUS
 62
     7
 10
-32.5
 20
103.4
 11
-32.5
 21
86.2
  0
LINE
  8
0
  6
CONTINUOUS
 62
     7
 10
-36.5
 20
103.4
 11
-35.5
 21
103.4
  0
LINE
  8
0
  6
CONTINUOUS
 62
     7
 10
-35.49998
 20
102.4
 11
-34.49998
 21
103.4
  0
LINE
  8
0
  6
CONTINUOUS
 62
     7
 10
-33.49998
 20
102.4
 11
-32.49998
 21
103.4
  0
LINE
  8
0
  6
CONTINUOUS
 62
     7
 10
-35.49998
 20
87.2
 11
-34.49998
 21
86.2
  0
LINE
  8
0
  6
CONTINUOUS
 62
     7
 10
-33.5
 20
87.2
 11
-32.5
 21
86.2
  0
LINE
  8
0
  6
CONTINUOUS
 62
     7
 10
-34.5
 20
103.4
 11
-33.5
 21
103.4
  0
LINE
  8
0
  6
CONTINUOUS
 62
     7
 10
-32.5
 20
103.4
 11
38.80437
 21
103.4
  0
LINE
  8
0
  6
CONTINUOUS
 62
     7
 10
-34.5
 20
86.2
 11
-33.5
 21
86.2
  0
LINE
  8
0
  6
CONTINUOUS
 62
     7
 10
-32.5
 20
86.2
 11
34.19564
 21
86.2
  0
LINE
  8
0
  6
CONTINUOUS
 62
     7
 10
42.94548
 20
103.4
 11
95.5
 21
103.4
  0
LINE
  8
0
  6
CONTINUOUS
 62
     7
 10
38.33675
 20
86.2
 11
95.5
 21
86.2
  0
LINE
  8
0
  6
CONTINUOUS
 62
     7
 10
108.5
 20
101.8
 11
108.5
 21
87.8
  0
LINE
  8
0
  6
CONTINUOUS
 62
     7
 10
103.5
 20
103.4
 11
103.5
 21
101.8
  0
LINE
  8
0
  6
CONTINUOUS
 62
     7
 10
103.5
 20
101.8
 11
108.5
 21
101.8
  0
LINE
  8
0
  6
CONTINUOUS
 62
     7
 10
103.5
 20
87.8
 11
108.5
 21
87.8
  0
LINE
  8
0
  6
CONTINUOUS
 62
     7
 10
108.0
 20
101.8
 11
108.0
 21
87.8
  0
LINE
  8
0
  6
CONTINUOUS
 62
     7
 10
98.5
 20
103.4
 11
98.5
 21
86.2
  0
LINE
  8
0
  6
CONTINUOUS
 62
     7
 10
97.5
 20
103.4
 11
97.5
 21
86.2
  0
LINE
  8
0
  6
CONTINUOUS
 62
     7
 10
96.5
 20
103.4
 11
96.5
 21
86.2
  0
LINE
  8
0
  6
CONTINUOUS
 62
     7
 10
95.5
 20
103.4
 11
95.5
 21
86.2
  0
LINE
  8
0
  6
CONTINUOUS
 62
     7
 10
95.49997
 20
103.4
 11
96.49995
 21
102.4
  0
LINE
  8
0
  6
CONTINUOUS
 62
     7
 10
97.49982
 20
103.3998
 11
98.49984
 21
102.3998
  0
LINE
  8
0
  6
CONTINUOUS
 62
     7
 10
95.49997
 20
86.20001
 11
96.49998
 21
87.20001
  0
LINE
  8
0
  6
CONTINUOUS
 62
     7
 10
97.5
 20
86.20003
 11
98.5
 21
87.20003
  0
LINE
  8
0
  6
CONTINUOUS
 62
     7
 10
96.5
 20
103.4
 11
97.5
 21
103.4
  0
LINE
  8
0
  6
CONTINUOUS
 62
     7
 10
98.5
 20
103.4
 11
103.5
 21
103.4
  0
LINE
  8
0
  6
CONTINUOUS
 62
     7
 10
96.5
 20
86.2
 11
97.5
 21
86.2
  0
LINE
  8
0
  6
CONTINUOUS
 62
     7
 10
98.5
 20
86.2
 11
103.5
 21
86.2
  0
LINE
  8
0
  6
CONTINUOUS
 62
     7
 10
103.5
 20
87.8
 11
103.5
 21
86.2
  0
LINE
  8
0
  6
CONTINUOUS
 62
     7
 10
-61.5
 20
109.8
 11
-61.5
 21
79.8
  0
LINE
  8
0
  6
PHANTOM
 62
     2
 10
34.19565
 20
86.2
 11
38.80438
 21
103.4
  0
LINE
  8
0
  6
DASHED
 62
     7
 10
101.3748
 20
99.42657
 11
108.5
 21
99.79999
  0
LINE
  8
0
  6
DASHED
 62
     7
 10
107.5
 20
98.8
 11
101.0
 21
98.8
  0
LINE
  8
0
  6
DASHED
 62
     7
 10
101.0
 20
90.8
 11
107.5
 21
90.8
  0
LINE
  8
0
  6
DASHED
 62
     7
 10
101.5231
 20
90.16573
 11
108.5
 21
89.80008
  0
LINE
  8
0
  6
DASHED
 62
     7
 10
107.5
 20
90.79993
 11
108.5
 21
89.79993
  0
LINE
  8
0
  6
DASHED
 62
     7
 10
107.5
 20
90.8
 11
107.5
 21
98.8
  0
LINE
  8
0
  6
DASHED
 62
     7
 10
107.5
 20
98.80001
 11
108.5
 21
99.80001
  0
LINE
  8
0
  6
DASHED
 62
     7
 10
-48.49998
 20
80.79998
 11
-49.49998
 21
79.79998
  0
LINE
  8
0
  6
DASHED
 62
     7
 10
-49.13437
 20
86.77692
 11
-49.50001
 21
79.80002
  0
LINE
  8
0
  6
DASHED
 62
     7
 10
-48.5
 20
87.3
 11
-48.5
 21
80.8
  0
LINE
  8
0
  6
DASHED
 62
     7
 10
-48.5
 20
80.8
 11
-40.5
 21
80.8
  0
LINE
  8
0
  6
DASHED
 62
     7
 10
-40.50001
 20
80.8
 11
-39.50001
 21
79.8
  0
LINE
  8
0
  6
DASHED
 62
     7
 10
-39.8734
 20
86.9252
 11
-39.49999
 21
79.8
  0
LINE
  8
0
  6
DASHED
 62
     7
 10
-40.5
 20
80.8
 11
-40.5
 21
87.3
  0
LINE
  8
0
  6
CENTER
 62
     2
 10
-59.0
 20
102.8
 11
-48.0
 21
102.8
  0
LINE
  8
0
  6
CENTER
 62
     2
 10
-59.0
 20
86.8
 11
-48.0
 21
86.8
  0
LINE
  8
0
  6
CENTER
 62
     2
 10
-53.5
 20
92.3
 11
-53.5
 21
81.3
  0
LINE
  8
0
  6
CENTER
 62
     2
 10
-53.5
 20
108.3
 11
-53.5
 21
97.3
  0
LINE
  8
0
  6
CENTER
 62
     2
 10
-44.5
 20
101.9947
 11
-44.5
 21
77.8
  0
LINE
  8
0
  6
CENTER
 62
     2
 10
-83.5
 20
94.8
 11
110.5
 21
94.8
  0
LINE
  8
0
  6
PHANTOM
 62
     2
 10
38.33678
 20
86.20001
 11
42.94551
 21
103.4
  0
LINE
  8
0
  6
CENTER
 62
     2
 10
-206.3657
 20
-24.0
 11
-206.3657
 21
4.0
  0
LINE
  8
0
  6
CENTER
 62
     2
 10
-223.3657
 20
-10.0
 11
-189.3657
 21
-10.0
  0
LINE
  8
0
  6
CONTINUOUS
 62
     7
 10
-219.7821
 20
-22.0
 11
-192.9493
 21
-22.0
  0
LINE
  8
0
  6
CONTINUOUS
 62
     7
 10
-219.7821
 20
2.0
 11
-192.9493
 21
2.0
  0
LINE
  8
0
  6
CONTINUOUS
 62
     7
 10
-221.3657
 20
-19.94987
 11
-221.3657
 21
-0.05013
  0
LINE
  8
0
  6
CONTINUOUS
 62
     7
 10
-191.3657
 20
-19.94987
 11
-191.3657
 21
-0.05013
  0
LINE
  8
0
  6
CENTER
 62
     2
 10
-214.3657
 20
-24.0
 11
-214.3657
 21
4.0
  0
LINE
  8
0
  6
CENTER
 62
     2
 10
-198.3657
 20
-24.0
 11
-198.3657
 21
4.0
  0
LINE
  8
0
  6
DASHED
 62
     7
 10
-200.6157
 20
-17.5
 11
-200.6157
 21
-2.5
  0
LINE
  8
0
  6
DASHED
 62
     7
 10
-196.1157
 20
-17.5
 11
-196.1157
 21
-2.5
  0
LINE
  8
0
  6
DASHED
 62
     7
 10
-218.3657
 20
-17.5
 11
-210.3657
 21
-17.5
  0
LINE
  8
0
  6
DASHED
 62
     7
 10
-218.3657
 20
-22.0
 11
-218.3657
 21
-17.5
  0
LINE
  8
0
  6
DASHED
 62
     7
 10
-210.3657
 20
-22.0
 11
-210.3657
 21
-17.5
  0
LINE
  8
0
  6
DASHED
 62
     7
 10
-202.3657
 20
-22.0
 11
-202.3657
 21
-17.5
  0
LINE
  8
0
  6
DASHED
 62
     7
 10
-194.3657
 20
-22.0
 11
-194.3657
 21
-17.5
  0
LINE
  8
0
  6
DASHED
 62
     7
 10
-202.3657
 20
-2.5
 11
-194.3657
 21
-2.5
  0
LINE
  8
0
  6
DASHED
 62
     7
 10
-210.3657
 20
-2.5
 11
-210.3657
 21
2.0
  0
LINE
  8
0
  6
DASHED
 62
     7
 10
-218.3657
 20
-2.5
 11
-218.3657
 21
2.0
  0
LINE
  8
0
  6
DASHED
 62
     7
 10
-194.3657
 20
-2.5
 11
-194.3657
 21
2.0
  0
LINE
  8
0
  6
DASHED
 62
     7
 10
-216.6157
 20
-17.5
 11
-216.6157
 21
-2.5
  0
LINE
  8
0
  6
DASHED
 62
     7
 10
-218.3657
 20
-2.5
 11
-210.3657
 21
-2.5
  0
LINE
  8
0
  6
DASHED
 62
     7
 10
-212.1157
 20
-17.5
 11
-212.1157
 21
-2.5
  0
LINE
  8
0
  6
DASHED
 62
     7
 10
-202.3657
 20
-17.5
 11
-194.3657
 21
-17.5
  0
LINE
  8
0
  6
DASHED
 62
     7
 10
-202.3657
 20
-2.5
 11
-202.3657
 21
2.0
  0
LINE
  8
0
  6
CENTER
 62
     2
 10
196.3657
 20
-24.0
 11
196.3657
 21
4.0
  0
LINE
  8
0
  6
CENTER
 62
     2
 10
179.3657
 20
-10.0
 11
213.3657
 21
-10.0
  0
LINE
  8
0
  6
CONTINUOUS
 62
     7
 10
182.9493
 20
-22.0
 11
209.7821
 21
-22.0
  0
LINE
  8
0
  6
CONTINUOUS
 62
     7
 10
182.9493
 20
2.0
 11
209.7821
 21
2.0
  0
LINE
  8
0
  6
CONTINUOUS
 62
     7
 10
181.3657
 20
-19.94987
 11
181.3657
 21
-0.05013
  0
LINE
  8
0
  6
CONTINUOUS
 62
     7
 10
211.3657
 20
-19.94987
 11
211.3657
 21
-0.05013
  0
LINE
  8
0
  6
CENTER
 62
     2
 10
188.3657
 20
-24.0
 11
188.3657
 21
4.0
  0
LINE
  8
0
  6
CENTER
 62
     2
 10
204.3657
 20
-24.0
 11
204.3657
 21
4.0
  0
LINE
  8
0
  6
CONTINUOUS
 62
     7
 10
189.3657
 20
-14.996
 11
189.3657
 21
-5.004
  0
LINE
  8
0
  6
CONTINUOUS
 62
     7
 10
203.3657
 20
-14.996
 11
203.3657
 21
-5.004
  0
LINE
  8
0
  6
CONTINUOUS
 62
     7
 10
-61.50002
 20
-135.7735
 11
-56.5
 21
-132.8868
  0
LINE
  8
0
  6
CONTINUOUS
 62
     7
 10
-56.5
 20
-127.1133
 11
-56.5
 21
-132.8868
  0
LINE
  8
0
  6
CONTINUOUS
 62
     7
 10
-61.50005
 20
-124.2265
 11
-56.49999
 21
-127.1133
  0
LINE
  8
0
  6
CONTINUOUS
 62
     7
 10
-66.50007
 20
-127.1132
 11
-61.50006
 21
-124.2264
  0
LINE
  8
0
  6
CONTINUOUS
 62
     7
 10
-66.5
 20
-127.1133
 11
-66.5
 21
-132.8868
  0
LINE
  8
0
  6
CONTINUOUS
 62
     7
 10
-66.50002
 20
-132.8867
 11
-61.49999
 21
-135.7735
  0
LINE
  8
0
  6
CENTER
 62
     2
 10
-69.0
 20
-130.0001
 11
-54.0
 21
-130.0001
  0
LINE
  8
0
  6
CENTER
 62
     2
 10
-61.5
 20
-122.5001
 11
-61.5
 21
-137.5001
  0
LINE
  8
0
  6
CONTINUOUS
 62
     7
 10
-1.5
 20
-125.0001
 11
-1.5
 21
-135.0001
  0
LINE
  8
0
  6
CONTINUOUS
 62
     7
 10
3.5
 20
-125.0001
 11
3.5
 21
-135.0001
  0
LINE
  8
0
  6
CONTINUOUS
 62
     7
 10
-1.05341
 20
-124.2266
 11
3.05342
 21
-124.2266
  0
LINE
  8
0
  6
CONTINUOUS
 62
     7
 10
-1.05341
 20
-127.1133
 11
3.05342
 21
-127.1133
  0
LINE
  8
0
  6
CONTINUOUS
 62
     7
 10
-1.05342
 20
-132.8868
 11
3.05342
 21
-132.8868
  0
LINE
  8
0
  6
CONTINUOUS
 62
     7
 10
-1.05341
 20
-135.7736
 11
3.05342
 21
-135.7736
  0
LINE
  8
0
  6
CONTINUOUS
 62
     7
 10
-1.5
 20
-125.0001
 11
-1.05341
 21
-124.2266
  0
LINE
  8
0
  6
CONTINUOUS
 62
     7
 10
3.05342
 20
-135.7736
 11
3.5
 21
-135.0001
  0
LINE
  8
0
  6
CONTINUOUS
 62
     7
 10
3.05341
 20
-124.2266
 11
3.5
 21
-125.0001
  0
LINE
  8
0
  6
CONTINUOUS
 62
     7
 10
-1.5
 20
-135.0001
 11
-1.05342
 21
-135.7736
  0
LINE
  8
0
  6
CENTER
 62
     2
 10
-3.0
 20
-130.0001
 11
5.0
 21
-130.0001
  0
ARC
  8
0
  6
CONTINUOUS
 62
     7
 10
193.0652
 20
-166.2024
 40
1.56404
 50
0.0
 51
89.99999
  0
ARC
  8
0
  6
CONTINUOUS
 62
     7
 10
205.9686
 20
-174.6092
 40
1.56404
 50
270.0
 51
0.0
  0
ARC
  8
0
  6
CONTINUOUS
 62
     7
 10
205.1865
 20
-166.9844
 40
2.34607
 50
0.0
 51
89.99999
  0
ARC
  8
0
  6
CONTINUOUS
 62
     7
 10
219.4585
 20
-166.2024
 40
1.56404
 50
0.0
 51
89.99999
  0
ARC
  8
0
  6
CONTINUOUS
 62
     7
 10
219.4585
 20
-167.4519
 40
1.56405
 50
295.0
 51
0.0
  0
ARC
  8
0
  6
CONTINUOUS
 62
     7
 10
231.5798
 20
-164.6383
 40
2.34607
 50
291.6882
 51
0.0
  0
ARC
  8
0
  6
CONTINUOUS
 62
     7
 10
230.7978
 20
-164.1077
 40
0.78203
 50
291.688
 51
0.0
  0
CIRCLE
  8
0
  6
CONTINUOUS
 62
     7
 10
-44.5
 20
-10.0
 40
4.0
  0
CIRCLE
  8
0
  6
CONTINUOUS
 62
     7
 10
-44.5
 20
-10.0
 40
5.0
  0
CIRCLE
  8
0
  6
CONTINUOUS
 62
     7
 10
-44.5
 20
94.8
 40
4.0
  0
CIRCLE
  8
0
  6
CONTINUOUS
 62
     7
 10
-44.5
 20
94.8
 40
5.0
  0
CIRCLE
  8
0
  6
CONTINUOUS
 62
     7
 10
-53.5
 20
102.8
 40
2.25
  0
CIRCLE
  8
0
  6
CONTINUOUS
 62
     7
 10
-53.5
 20
86.8
 40
2.25
  0
CIRCLE
  8
0
  6
CONTINUOUS
 62
     7
 10
-53.5
 20
102.8
 40
4.0
  0
CIRCLE
  8
0
  6
CONTINUOUS
 62
     7
 10
-53.5
 20
86.8
 40
4.0
  0
CIRCLE
  8
0
  6
CONTINUOUS
 62
     7
 10
-206.3657
 20
-10.0
 40
3.0
  0
ARC
  8
0
  6
CONTINUOUS
 62
     7
 10
-206.3657
 20
-10.0
 40
17.99999
 50
318.1896
 51
326.4427
  0
ARC
  8
0
  6
CONTINUOUS
 62
     7
 10
-206.3657
 20
-10.0
 40
18.0
 50
138.1897
 51
146.4427
  0
ARC
  8
0
  6
CONTINUOUS
 62
     7
 10
-206.3657
 20
-10.0
 40
18.0
 50
213.5573
 51
221.8103
  0
ARC
  8
0
  6
CONTINUOUS
 62
     7
 10
-206.3657
 20
-10.0
 40
18.0
 50
33.55731
 51
41.8103
  0
CIRCLE
  8
0
  6
CONTINUOUS
 62
     7
 10
-206.3657
 20
-10.0
 40
2.4585
  0
ARC
  8
0
  6
CONTINUOUS
 62
     7
 10
196.3657
 20
-10.0
 40
17.99999
 50
318.1896
 51
326.4427
  0
ARC
  8
0
  6
CONTINUOUS
 62
     7
 10
196.3657
 20
-10.0
 40
18.0
 50
138.1897
 51
146.4427
  0
ARC
  8
0
  6
CONTINUOUS
 62
     7
 10
196.3657
 20
-10.0
 40
18.0
 50
213.5573
 51
221.8103
  0
ARC
  8
0
  6
CONTINUOUS
 62
     7
 10
196.3657
 20
-10.0
 40
18.0
 50
33.55731
 51
41.8103
  0
CIRCLE
  8
0
  6
CONTINUOUS
 62
     7
 10
196.3657
 20
-10.0
 40
4.0
  0
CIRCLE
  8
0
  6
CONTINUOUS
 62
     7
 10
196.3657
 20
-10.0
 40
5.0
  0
CIRCLE
  8
0
  6
CONTINUOUS
 62
     7
 10
196.3657
 20
-10.0
 40
8.6
  0
ARC
  8
0
  6
CONTINUOUS
 62
     7
 10
196.3657
 20
-10.0
 40
8.1
 50
210.2088
 51
329.7912
  0
ARC
  8
0
  6
CONTINUOUS
 62
     7
 10
196.3657
 20
-10.0
 40
8.1
 50
30.20881
 51
149.7912
  0
CIRCLE
  8
0
  6
CONTINUOUS
 62
     7
 10
-61.5
 20
-130.0001
 40
5.0
  0
CIRCLE
  8
0
  6
CONTINUOUS
 62
     7
 10
-61.5
 20
-130.0001
 40
3.0
  0
CIRCLE
  8
0
  6
CONTINUOUS
 62
     7
 10
-61.5
 20
-130.0001
 40
2.4585
  0
ARC
  8
0
  6
CONTINUOUS
 62
     7
 10
8.05344
 20
-130.0001
 40
9.55344
 50
162.4121
 51
197.5879
  0
ARC
  8
0
  6
CONTINUOUS
 62
     7
 10
1.05583
 20
-134.3302
 40
2.55583
 50
145.6159
 51
180.0
  0
ARC
  8
0
  6
CONTINUOUS
 62
     7
 10
1.05583
 20
-125.6699
 40
2.55583
 50
180.0
 51
214.3841
  0
ARC
  8
0
  6
CONTINUOUS
 62
     7
 10
-6.05344
 20
-130.0001
 40
9.55344
 50
342.4121
 51
17.58785
  0
ARC
  8
0
  6
CONTINUOUS
 62
     7
 10
0.94417
 20
-134.3302
 40
2.55583
 50
0.0
 51
34.3841
  0
ARC
  8
0
  6
CONTINUOUS
 62
     7
 10
0.94417
 20
-125.6699
 40
2.55583
 50
325.6159
 51
0.0
  0
TEXT
  8
0
  6
CONTINUOUS
 62
     7
 10
-88.03571
 20
-82.35006
 40
5.0
  1
ROD NUT(M6)
 41
0.8
  7
STANDARD
  0
TEXT
  8
0
  6
CONTINUOUS
 62
     7
 10
161.9774
 20
167.0677
 40
6.0
  1
DATE : AUG ,1989
 41
0.8
  7
STANDARD
  0
TEXT
  8
0
  6
CONTINUOUS
 62
     7
 10
-256.1446
 20
166.5977
 40
7.0
  1
SLIM BLOCK CYL
 41
0.8
  7
STANDARD
  0
TEXT
  8
0
  6
CONTINUOUS
 62
     7
 10
-254.3972
 20
141.4853
 40
7.0
  1
MODEL : DAB 16*ST-2(100)
 41
0.8
  7
STANDARD
  0
TEXT
  8
0
  6
CONTINUOUS
 62
     7
 10
19.33538
 20
-38.35
 40
5.0
  1
CATALOG
 41
0.8
  7
STANDARD
  0
ENDSEC
  0
EOF
