  0
SECTION
  2
HEADER
  9
$ACADVER
  1
AC1002
  9
$INSBASE
 10
0.0
 20
0.0
  9
$EXTMIN
 10
-185.4368
 20
-127.2792
  9
$EXTMAX
 10
185.4368
 20
127.2792
  9
$LIMMIN
 10
0.0
 20
0.0
  9
$LIMMAX
 10
12.0
 20
9.0
  9
$VIEWCTR
 10
14.30458208
 20
0.0
  9
$VIEWSIZE
 40
254.5584
  9
$SNAPMODE
 70
     0
  9
$SNAPUNIT
 10
1.0
 20
1.0
  9
$SNAPBASE
 10
0.0
 20
0.0
  9
$SNAPANG
 50
0.0
  9
$SNAPSTYLE
 70
     0
  9
$SNAPISOPAIR
 70
     0
  9
$GRIDMODE
 70
     0
  9
$GRIDUNIT
 10
0.0
 20
0.0
  9
$ORTHOMODE
 70
     0
  9
$REGENMODE
 70
     1
  9
$FILLMODE
 70
     1
  9
$QTEXTMODE
 70
     0
  9
$DRAGMODE
 70
     2
  9
$LTSCALE
 40
1.0
  9
$OSMODE
 70
     0
  9
$ATTMODE
 70
     1
  9
$TEXTSIZE
 40
0.2
  9
$TRACEWID
 40
0.05
  9
$TEXTSTYLE
  7
AAA
  9
$CLAYER
  8
0
  9
$CELTYPE
  6
BYLAYER
  9
$CECOLOR
 62
   256
  9
$DIMSCALE
 40
1.0
  9
$DIMASZ
 40
0.18
  9
$DIMEXO
 40
0.0625
  9
$DIMDLI
 40
0.38
  9
$DIMRND
 40
0.0
  9
$DIMDLE
 40
0.0
  9
$DIMEXE
 40
0.18
  9
$DIMTP
 40
0.0
  9
$DIMTM
 40
0.0
  9
$DIMTXT
 40
0.18
  9
$DIMCEN
 40
0.09
  9
$DIMTSZ
 40
0.0
  9
$DIMTOL
 70
     0
  9
$DIMLIM
 70
     0
  9
$DIMTIH
 70
     1
  9
$DIMTOH
 70
     1
  9
$DIMSE1
 70
     0
  9
$DIMSE2
 70
     0
  9
$DIMTAD
 70
     0
  9
$DIMZIN
 70
     0
  9
$DIMBLK
  1

  9
$LUNITS
 70
     2
  9
$LUPREC
 70
     4
  9
$AXISMODE
 70
     0
  9
$AXISUNIT
 10
0.0
 20
0.0
  9
$SKETCHINC
 40
0.1
  9
$FILLETRAD
 40
0.0
  9
$AUNITS
 70
     0
  9
$AUPREC
 70
     0
  9
$MENU
  1
ACAD
  9
$ELEVATION
 40
0.0
  9
$THICKNESS
 40
0.0
  9
$VIEWDIR
 10
0.0
 20
0.0
 30
1.0
  9
$LIMCHECK
 70
     0
  9
$BLIPMODE
 70
     1
  9
$CHAMFERA
 40
0.0
  9
$CHAMFERB
 40
0.0
  9
$FASTZOOM
 70
     1
  9
$SKPOLY
 70
     0
  9
$TDCREATE
 40
2447797.5648958829
  9
$TDUPDATE
 40
2447797.5648958829
  9
$TDINDWG
 40
0.0010995370
  9
$TDUSRTIMER
 40
0.0010995370
  9
$USRTIMER
 70
     1
  9
$ANGBASE
 50
0.0
  9
$ANGDIR
 70
     0
  9
$PDMODE
 70
     0
  9
$PDSIZE
 40
0.0
  9
$PLINEWID
 40
0.0
  9
$COORDS
 70
     0
  9
$USERI1
 70
     0
  9
$USERI2
 70
     0
  9
$USERI3
 70
     0
  9
$USERI4
 70
     0
  9
$USERI5
 70
     0
  9
$USERR1
 40
0.0
  9
$USERR2
 40
0.0
  9
$USERR3
 40
0.0
  9
$USERR4
 40
0.0
  9
$USERR5
 40
0.0
  0
ENDSEC
  0
SECTION
  2
TABLES
  0
TABLE
  2
LTYPE
 70
     4
  0
LTYPE
  2
CONTINUOUS
 70
    64
  3
SOLID
 72
    65
 73
     0
 40
0.0
  0
LTYPE
  2
DASHED
 70
    64
  3
DASHED
 72
    65
 73
     2
 40
0.75
 49
0.5
 49
-0.25
  0
LTYPE
  2
CENTER
 70
    64
  3
CENTER
 72
    65
 73
     4
 40
2.0
 49
1.25
 49
-0.25
 49
0.25
 49
-0.25
  0
LTYPE
  2
PHANTOM
 70
    64
  3
PHANTOM
 72
    65
 73
     6
 40
2.5
 49
1.25
 49
-0.25
 49
0.25
 49
-0.25
 49
0.25
 49
-0.25
  0
ENDTAB
  0
TABLE
  2
LAYER
 70
     1
  0
LAYER
  2
0
 70
    64
 62
     7
  6
CONTINUOUS
  0
ENDTAB
  0
TABLE
  2
STYLE
 70
     2
  0
STYLE
  2
AAA
 70
     0
 40
0.0
 41
1.0
 50
0.0
 71
     0
 42
0.2
  3
TXT
  4

  0
STYLE
  2
STANDARD
 70
    64
 40
0.0
 41
1.0
 50
0.0
 71
     0
 42
0.2
  3
TXT
  4
BIGFONT
  0
ENDTAB
  0
TABLE
  2
VIEW
 70
     0
  0
ENDTAB
  0
ENDSEC
  0
SECTION
  2
BLOCKS
  0
ENDSEC
  0
SECTION
  2
ENTITIES
  0
POINT
  8
0
  6
CONTINUOUS
 62
     7
 10
-53.5
 20
0.0
  0
POINT
  8
0
  6
CONTINUOUS
 62
     7
 10
-53.5
 20
60.0
  0
POINT
  8
0
  6
CONTINUOUS
 62
     7
 10
-133.5
 20
0.0
  0
POINT
  8
0
  6
CONTINUOUS
 62
     7
 10
-73.0
 20
-80.0
  0
POINT
  8
0
  6
CONTINUOUS
 62
     7
 10
52.25
 20
-80.0
  0
POINT
  8
0
  6
CONTINUOUS
 62
     7
 10
146.5
 20
0.0
  0
POINT
  8
0
  6
CONTINUOUS
 62
     7
 10
-34.0
 20
-80.0
  0
POINT
  8
0
  6
CONTINUOUS
 62
     7
 10
-28.0
 20
-80.0
  0
POINT
  8
0
  6
CONTINUOUS
 62
     7
 10
107.25
 20
-80.0
  0
POINT
  8
0
  6
CONTINUOUS
 62
     7
 10
97.75
 20
-80.0
  0
LINE
  8
0
  6
CONTINUOUS
 62
     7
 10
140.5
 20
9.21954
 11
140.5
 21
-9.21954
  0
LINE
  8
0
  6
CONTINUOUS
 62
     7
 10
152.5
 20
9.21954
 11
152.5
 21
-9.21954
  0
LINE
  8
0
  6
DASHED
 62
     7
 10
140.5
 20
4.0
 11
152.5
 21
4.0
  0
LINE
  8
0
  6
DASHED
 62
     7
 10
140.5
 20
-4.0
 11
152.5
 21
-4.0
  0
LINE
  8
0
  6
CONTINUOUS
 62
     7
 10
-73.5
 20
-2.64574
 11
-73.5
 21
2.64577
  0
LINE
  8
0
  6
CONTINUOUS
 62
     7
 10
-68.5
 20
-2.64574
 11
-68.5
 21
2.64577
  0
LINE
  8
0
  6
CONTINUOUS
 62
     7
 10
-73.5
 20
2.64577
 11
-68.5
 21
2.64577
  0
LINE
  8
0
  6
CONTINUOUS
 62
     7
 10
-73.5
 20
-2.64574
 11
-68.5
 21
-2.64574
  0
LINE
  8
0
  6
CONTINUOUS
 62
     7
 10
-73.50001
 20
-2.64572
 11
-68.50002
 21
2.64579
  0
LINE
  8
0
  6
CONTINUOUS
 62
     7
 10
-73.50003
 20
2.64579
 11
-68.50005
 21
-2.64571
  0
LINE
  8
0
  6
CENTER
 62
     2
 10
84.5
 20
6.0
 11
84.5
 21
-6.00001
  0
LINE
  8
0
  6
CONTINUOUS
 62
     7
 10
-67.49999
 20
-10.00008
 11
-66.49997
 21
-11.00008
  0
LINE
  8
0
  6
CONTINUOUS
 62
     7
 10
-67.50002
 20
9.99999
 11
-66.50003
 21
10.99998
  0
LINE
  8
0
  6
CONTINUOUS
 62
     7
 10
-35.5
 20
-13.2
 11
-35.5
 21
13.2
  0
LINE
  8
0
  6
CONTINUOUS
 62
     7
 10
-67.5
 20
-9.99998
 11
-67.5
 21
10.00002
  0
LINE
  8
0
  6
CONTINUOUS
 62
     7
 10
-53.5
 20
-14.49998
 11
-53.5
 21
14.50002
  0
LINE
  8
0
  6
CONTINUOUS
 62
     7
 10
-37.5
 20
14.50002
 11
-37.5
 21
-14.49998
  0
LINE
  8
0
  6
CONTINUOUS
 62
     7
 10
-53.5
 20
14.50002
 11
-37.5
 21
14.50002
  0
LINE
  8
0
  6
CONTINUOUS
 62
     7
 10
-53.5
 20
-14.49998
 11
-37.5
 21
-14.49998
  0
LINE
  8
0
  6
CONTINUOUS
 62
     7
 10
-66.5
 20
-10.99998
 11
-53.5
 21
-10.99998
  0
LINE
  8
0
  6
CONTINUOUS
 62
     7
 10
-67.5
 20
-9.99998
 11
-55.5
 21
-9.99998
  0
LINE
  8
0
  6
CONTINUOUS
 62
     7
 10
-53.5
 20
11.00002
 11
-66.50002
 21
11.00002
  0
LINE
  8
0
  6
CONTINUOUS
 62
     7
 10
-67.5
 20
10.00002
 11
-55.5
 21
10.00002
  0
LINE
  8
0
  6
CONTINUOUS
 62
     7
 10
-75.5
 20
-4.99998
 11
-75.5
 21
5.00002
  0
LINE
  8
0
  6
CONTINUOUS
 62
     7
 10
-66.50006
 20
10.99997
 11
-66.50008
 21
-11.00003
  0
LINE
  8
0
  6
CONTINUOUS
 62
     7
 10
-55.5
 20
11.00002
 11
-55.5
 21
-10.99998
  0
LINE
  8
0
  6
CONTINUOUS
 62
     7
 10
-55.50005
 20
10.00007
 11
-53.768
 21
11.00007
  0
LINE
  8
0
  6
CONTINUOUS
 62
     7
 10
-55.50003
 20
-9.99998
 11
-53.76799
 21
-10.99997
  0
LINE
  8
0
  6
CONTINUOUS
 62
     7
 10
-93.5
 20
4.00002
 11
-93.5
 21
-3.99998
  0
LINE
  8
0
  6
CONTINUOUS
 62
     7
 10
-93.49994
 20
3.99995
 11
-92.49995
 21
4.99995
  0
LINE
  8
0
  6
CONTINUOUS
 62
     7
 10
-93.49997
 20
-4.00004
 11
-92.50002
 21
-5.00002
  0
LINE
  8
0
  6
CONTINUOUS
 62
     7
 10
-75.50008
 20
-3.99994
 11
-73.76794
 21
-4.99998
  0
LINE
  8
0
  6
CONTINUOUS
 62
     7
 10
-92.5
 20
5.00002
 11
-92.5
 21
-4.99998
  0
LINE
  8
0
  6
CONTINUOUS
 62
     7
 10
-93.5
 20
-3.99998
 11
-75.49998
 21
-3.99998
  0
LINE
  8
0
  6
CONTINUOUS
 62
     7
 10
-93.5
 20
4.00002
 11
-75.5
 21
4.00002
  0
LINE
  8
0
  6
CONTINUOUS
 62
     7
 10
-92.5
 20
-4.99998
 11
-67.5
 21
-4.99998
  0
LINE
  8
0
  6
CENTER
 62
     2
 10
-45.5
 20
17.50002
 11
-45.5
 21
3.62913
  0
LINE
  8
0
  6
CONTINUOUS
 62
     7
 10
-67.5
 20
5.00003
 11
-92.5
 21
5.00003
  0
LINE
  8
0
  6
CONTINUOUS
 62
     7
 10
54.5
 20
-13.2
 11
54.5
 21
13.2
  0
LINE
  8
0
  6
CONTINUOUS
 62
     7
 10
72.5
 20
-14.5
 11
72.5
 21
14.5
  0
LINE
  8
0
  6
CONTINUOUS
 62
     7
 10
56.5
 20
14.5
 11
56.5
 21
-14.5
  0
LINE
  8
0
  6
CONTINUOUS
 62
     7
 10
72.5
 20
14.5
 11
56.5
 21
14.5
  0
LINE
  8
0
  6
CONTINUOUS
 62
     7
 10
72.5
 20
-14.5
 11
56.5
 21
-14.5
  0
LINE
  8
0
  6
CONTINUOUS
 62
     7
 10
93.5
 20
-9.5
 11
93.5
 21
9.49999
  0
LINE
  8
0
  6
CONTINUOUS
 62
     7
 10
73.5
 20
-9.21954
 11
73.5
 21
0.0
  0
LINE
  8
0
  6
CONTINUOUS
 62
     7
 10
72.5
 20
-11.0
 11
72.5
 21
11.0
  0
LINE
  8
0
  6
CONTINUOUS
 62
     7
 10
72.5
 20
11.0
 11
92.0
 21
11.0
  0
LINE
  8
0
  6
CONTINUOUS
 62
     7
 10
91.99998
 20
-11.0
 11
72.5
 21
-11.0
  0
LINE
  8
0
  6
CENTER
 62
     2
 10
84.5
 20
68.5
 11
84.5
 21
51.5
  0
LINE
  8
0
  6
CENTER
 62
     2
 10
-96.5
 20
0.0
 11
96.5
 21
0.0
  0
LINE
  8
0
  6
CONTINUOUS
 62
     7
 10
-37.5
 20
-13.2
 11
3.46307
 21
-13.2
  0
LINE
  8
0
  6
CONTINUOUS
 62
     7
 10
-37.5
 20
13.2
 11
10.53693
 21
13.2
  0
LINE
  8
0
  6
DASHED
 62
     7
 10
80.5
 20
66.0
 11
80.5
 21
54.0
  0
LINE
  8
0
  6
DASHED
 62
     7
 10
88.5
 20
66.0
 11
88.5
 21
54.0
  0
LINE
  8
0
  6
CONTINUOUS
 62
     7
 10
73.5
 20
0.0
 11
73.5
 21
9.21954
  0
LINE
  8
0
  6
CONTINUOUS
 62
     7
 10
74.5
 20
11.0
 11
74.5
 21
9.21954
  0
LINE
  8
0
  6
CONTINUOUS
 62
     7
 10
-67.49998
 20
49.99993
 11
-66.49998
 21
48.99993
  0
LINE
  8
0
  6
CONTINUOUS
 62
     7
 10
-67.50002
 20
69.99998
 11
-66.50002
 21
70.99998
  0
LINE
  8
0
  6
CONTINUOUS
 62
     7
 10
-35.5
 20
46.8
 11
-35.5
 21
73.2
  0
LINE
  8
0
  6
CONTINUOUS
 62
     7
 10
-67.5
 20
50.00002
 11
-67.5
 21
70.00002
  0
LINE
  8
0
  6
CONTINUOUS
 62
     7
 10
-53.5
 20
45.50002
 11
-53.5
 21
74.50002
  0
LINE
  8
0
  6
CONTINUOUS
 62
     7
 10
-37.5
 20
74.50002
 11
-37.5
 21
45.50002
  0
LINE
  8
0
  6
CONTINUOUS
 62
     7
 10
-53.5
 20
74.50002
 11
-37.5
 21
74.50002
  0
LINE
  8
0
  6
CONTINUOUS
 62
     7
 10
-53.5
 20
45.50002
 11
-37.5
 21
45.50002
  0
LINE
  8
0
  6
CONTINUOUS
 62
     7
 10
-66.5
 20
49.00002
 11
-53.5
 21
49.00002
  0
LINE
  8
0
  6
CONTINUOUS
 62
     7
 10
-67.5
 20
50.00002
 11
-55.5
 21
50.00002
  0
LINE
  8
0
  6
CONTINUOUS
 62
     7
 10
-53.5
 20
71.00002
 11
-66.50002
 21
71.00002
  0
LINE
  8
0
  6
CONTINUOUS
 62
     7
 10
-67.5
 20
70.00002
 11
-55.5
 21
70.00002
  0
LINE
  8
0
  6
CONTINUOUS
 62
     7
 10
-75.5
 20
55.00002
 11
-75.5
 21
65.00002
  0
LINE
  8
0
  6
CONTINUOUS
 62
     7
 10
-66.50005
 20
70.99996
 11
-66.50006
 21
48.99997
  0
LINE
  8
0
  6
CONTINUOUS
 62
     7
 10
-55.5
 20
71.00002
 11
-55.5
 21
49.00002
  0
LINE
  8
0
  6
CONTINUOUS
 62
     7
 10
-55.50004
 20
70.00005
 11
-53.76799
 21
71.00006
  0
LINE
  8
0
  6
CONTINUOUS
 62
     7
 10
-55.50002
 20
50.00002
 11
-53.76797
 21
49.00003
  0
LINE
  8
0
  6
CONTINUOUS
 62
     7
 10
-93.5
 20
64.00002
 11
-93.5
 21
56.00002
  0
LINE
  8
0
  6
CONTINUOUS
 62
     7
 10
-93.49995
 20
63.99994
 11
-92.49995
 21
64.99994
  0
LINE
  8
0
  6
CONTINUOUS
 62
     7
 10
-93.49997
 20
55.99995
 11
-92.5
 21
54.99997
  0
LINE
  8
0
  6
CONTINUOUS
 62
     7
 10
-75.49997
 20
63.99991
 11
-74.23201
 21
64.73196
  0
LINE
  8
0
  6
CONTINUOUS
 62
     7
 10
-75.50008
 20
56.00006
 11
-74.23205
 21
55.26796
  0
LINE
  8
0
  6
CONTINUOUS
 62
     7
 10
-92.5
 20
65.00002
 11
-92.5
 21
55.00002
  0
LINE
  8
0
  6
CONTINUOUS
 62
     7
 10
-93.5
 20
56.00002
 11
-75.49998
 21
56.00002
  0
LINE
  8
0
  6
CONTINUOUS
 62
     7
 10
-93.5
 20
64.00002
 11
-75.5
 21
64.00002
  0
LINE
  8
0
  6
CONTINUOUS
 62
     7
 10
-92.5
 20
55.00002
 11
-74.49998
 21
55.00002
  0
LINE
  8
0
  6
CENTER
 62
     2
 10
-45.5
 20
68.5
 11
-45.5
 21
51.5
  0
LINE
  8
0
  6
CONTINUOUS
 62
     7
 10
-73.5
 20
64.0
 11
-68.5
 21
64.0
  0
LINE
  8
0
  6
CONTINUOUS
 62
     7
 10
-73.5
 20
56.0
 11
-68.5
 21
56.0
  0
LINE
  8
0
  6
CONTINUOUS
 62
     7
 10
-68.50001
 20
63.99995
 11
-67.49998
 21
64.99997
  0
LINE
  8
0
  6
CONTINUOUS
 62
     7
 10
-74.49998
 20
54.99998
 11
-73.49999
 21
55.99996
  0
LINE
  8
0
  6
CONTINUOUS
 62
     7
 10
-68.50001
 20
55.99998
 11
-67.50002
 21
54.99999
  0
LINE
  8
0
  6
CONTINUOUS
 62
     7
 10
-74.50004
 20
64.99998
 11
-73.5
 21
63.99997
  0
LINE
  8
0
  6
CONTINUOUS
 62
     7
 10
-74.50002
 20
65.00003
 11
-92.5
 21
65.00003
  0
LINE
  8
0
  6
CONTINUOUS
 62
     7
 10
54.5
 20
46.8
 11
54.5
 21
73.2
  0
LINE
  8
0
  6
CONTINUOUS
 62
     7
 10
72.5
 20
45.5
 11
72.5
 21
74.5
  0
LINE
  8
0
  6
CONTINUOUS
 62
     7
 10
56.5
 20
74.5
 11
56.5
 21
45.5
  0
LINE
  8
0
  6
CONTINUOUS
 62
     7
 10
72.5
 20
74.5
 11
56.5
 21
74.5
  0
LINE
  8
0
  6
CONTINUOUS
 62
     7
 10
72.5
 20
45.5
 11
56.5
 21
45.5
  0
LINE
  8
0
  6
CONTINUOUS
 62
     7
 10
93.5
 20
54.0
 11
93.5
 21
66.0
  0
LINE
  8
0
  6
CONTINUOUS
 62
     7
 10
73.5
 20
49.0
 11
73.5
 21
54.0
  0
LINE
  8
0
  6
CONTINUOUS
 62
     7
 10
72.5
 20
49.0
 11
72.5
 21
71.0
  0
LINE
  8
0
  6
CONTINUOUS
 62
     7
 10
72.5
 20
71.0
 11
73.5
 21
71.0
  0
LINE
  8
0
  6
CONTINUOUS
 62
     7
 10
73.5
 20
49.0
 11
72.5
 21
49.0
  0
LINE
  8
0
  6
CENTER
 62
     2
 10
-96.5
 20
60.0
 11
96.5
 21
60.0
  0
LINE
  8
0
  6
CONTINUOUS
 62
     7
 10
-37.5
 20
46.8
 11
3.46307
 21
46.8
  0
LINE
  8
0
  6
CONTINUOUS
 62
     7
 10
-37.5
 20
73.2
 11
10.53693
 21
73.2
  0
LINE
  8
0
  6
CENTER
 62
     2
 10
64.5
 20
68.5
 11
64.5
 21
51.5
  0
LINE
  8
0
  6
CONTINUOUS
 62
     7
 10
73.5
 20
66.0
 11
93.5
 21
66.0
  0
LINE
  8
0
  6
CONTINUOUS
 62
     7
 10
73.5
 20
54.0
 11
93.5
 21
54.0
  0
LINE
  8
0
  6
CONTINUOUS
 62
     7
 10
73.5
 20
66.0
 11
73.5
 21
71.0
  0
LINE
  8
0
  6
CONTINUOUS
 62
     7
 10
74.5
 20
66.0
 11
74.5
 21
54.0
  0
LINE
  8
0
  6
CONTINUOUS
 62
     7
 10
91.99997
 20
10.99999
 11
93.49997
 21
9.49998
  0
LINE
  8
0
  6
CONTINUOUS
 62
     7
 10
93.49998
 20
-9.5
 11
91.99998
 21
-11.00001
  0
LINE
  8
0
  6
CONTINUOUS
 62
     7
 10
74.5
 20
-10.2
 11
92.79999
 21
-10.2
  0
LINE
  8
0
  6
CONTINUOUS
 62
     7
 10
74.5
 20
10.2
 11
92.79997
 21
10.2
  0
LINE
  8
0
  6
CONTINUOUS
 62
     7
 10
73.5
 20
9.21954
 11
93.5
 21
9.21954
  0
LINE
  8
0
  6
CONTINUOUS
 62
     7
 10
73.5
 20
-9.21954
 11
93.5
 21
-9.21954
  0
LINE
  8
0
  6
CONTINUOUS
 62
     7
 10
93.49995
 20
-9.21954
 11
86.9388
 21
-3.17047
  0
LINE
  8
0
  6
CONTINUOUS
 62
     7
 10
93.49995
 20
9.21954
 11
86.9388
 21
3.17047
  0
LINE
  8
0
  6
CONTINUOUS
 62
     7
 10
81.14217
 20
2.17378
 11
73.49997
 21
9.21954
  0
LINE
  8
0
  6
CONTINUOUS
 62
     7
 10
81.14217
 20
-2.17378
 11
73.49997
 21
-9.21954
  0
LINE
  8
0
  6
CONTINUOUS
 62
     7
 10
74.5
 20
-9.21954
 11
74.5
 21
-11.0
  0
LINE
  8
0
  6
CONTINUOUS
 62
     7
 10
74.49995
 20
-10.2
 11
72.49997
 21
-10.99999
  0
LINE
  8
0
  6
CONTINUOUS
 62
     7
 10
74.49995
 20
10.2
 11
72.49997
 21
10.99999
  0
LINE
  8
0
  6
CONTINUOUS
 62
     7
 10
-73.76797
 20
4.99999
 11
-75.50011
 21
3.99994
  0
LINE
  8
0
  6
CENTER
 62
     2
 10
64.5
 20
3.62913
 11
64.5
 21
17.50002
  0
LINE
  8
0
  6
CENTER
 62
     2
 10
-133.5
 20
17.5
 11
-133.5
 21
-17.5
  0
LINE
  8
0
  6
CENTER
 62
     2
 10
146.5
 20
17.5
 11
146.5
 21
-17.5
  0
LINE
  8
0
  6
CENTER
 62
     2
 10
-151.0
 20
0.0
 11
-116.0
 21
0.0
  0
LINE
  8
0
  6
CENTER
 62
     2
 10
129.0
 20
0.0
 11
164.0
 21
0.0
  0
LINE
  8
0
  6
CENTER
 62
     2
 10
-73.0
 20
-90.0
 11
-73.0
 21
-70.0
  0
LINE
  8
0
  6
CENTER
 62
     2
 10
-83.0
 20
-80.0
 11
-63.0
 21
-80.0
  0
LINE
  8
0
  6
CONTINUOUS
 62
     7
 10
-28.0
 20
-87.01475
 11
-28.0
 21
-72.9852
  0
LINE
  8
0
  6
CONTINUOUS
 62
     7
 10
-34.0
 20
-72.9852
 11
-34.0
 21
-87.01484
  0
LINE
  8
0
  6
CENTER
 62
     2
 10
-37.45
 20
-80.0
 11
-24.5
 21
-80.0
  0
LINE
  8
0
  6
CONTINUOUS
 62
     7
 10
-73.0
 20
-71.89999
 11
-80.0148
 21
-75.94999
  0
LINE
  8
0
  6
CONTINUOUS
 62
     7
 10
-80.0148
 20
-75.95
 11
-80.0148
 21
-84.05
  0
LINE
  8
0
  6
CONTINUOUS
 62
     7
 10
-80.0148
 20
-84.04999
 11
-73.0
 21
-88.09998
  0
LINE
  8
0
  6
CONTINUOUS
 62
     7
 10
-73.0
 20
-88.1
 11
-65.9852
 21
-84.05
  0
LINE
  8
0
  6
CONTINUOUS
 62
     7
 10
-65.9852
 20
-84.05
 11
-65.9852
 21
-75.95
  0
LINE
  8
0
  6
CONTINUOUS
 62
     7
 10
-65.9852
 20
-75.95
 11
-73.0
 21
-71.9
  0
LINE
  8
0
  6
CONTINUOUS
 62
     7
 10
-33.37347
 20
-71.9
 11
-28.62657
 21
-71.9
  0
LINE
  8
0
  6
CONTINUOUS
 62
     7
 10
-33.37349
 20
-75.95
 11
-28.62659
 21
-75.95
  0
LINE
  8
0
  6
CONTINUOUS
 62
     7
 10
-34.00002
 20
-72.9852
 11
-33.37349
 21
-71.90001
  0
LINE
  8
0
  6
CONTINUOUS
 62
     7
 10
-28.00001
 20
-72.98518
 11
-28.62656
 21
-71.9
  0
LINE
  8
0
  6
CONTINUOUS
 62
     7
 10
-28.62657
 20
-88.1
 11
-33.37347
 21
-88.1
  0
LINE
  8
0
  6
CONTINUOUS
 62
     7
 10
-28.62659
 20
-84.05
 11
-33.37349
 21
-84.05
  0
LINE
  8
0
  6
CONTINUOUS
 62
     7
 10
-33.37351
 20
-88.09999
 11
-34.00003
 21
-87.0148
  0
LINE
  8
0
  6
CONTINUOUS
 62
     7
 10
-28.62658
 20
-88.10001
 11
-28.00004
 21
-87.01484
  0
LINE
  8
0
  6
CENTER
 62
     2
 10
52.25
 20
-100.0
 11
52.25
 21
-60.0
  0
LINE
  8
0
  6
CENTER
 62
     2
 10
32.25
 20
-80.0
 11
72.25
 21
-80.0
  0
LINE
  8
0
  6
CONTINUOUS
 62
     7
 10
107.25
 20
-94.98223
 11
107.25
 21
-65.01777
  0
LINE
  8
0
  6
CONTINUOUS
 62
     7
 10
106.75
 20
-97.29999
 11
106.75
 21
-62.70001
  0
LINE
  8
0
  6
CONTINUOUS
 62
     7
 10
97.75
 20
-65.01777
 11
97.75
 21
-94.98227
  0
LINE
  8
0
  6
CENTER
 62
     2
 10
93.7
 20
-80.0
 11
109.225
 21
-80.0
  0
LINE
  8
0
  6
CONTINUOUS
 62
     7
 10
52.24998
 20
-62.69999
 11
37.26775
 21
-71.34998
  0
LINE
  8
0
  6
CONTINUOUS
 62
     7
 10
37.26778
 20
-71.35001
 11
37.26778
 21
-88.64999
  0
LINE
  8
0
  6
CONTINUOUS
 62
     7
 10
37.26778
 20
-88.64999
 11
52.24999
 21
-97.29999
  0
LINE
  8
0
  6
CONTINUOUS
 62
     7
 10
52.24999
 20
-97.29998
 11
67.23221
 21
-88.64999
  0
LINE
  8
0
  6
CONTINUOUS
 62
     7
 10
67.23223
 20
-88.64999
 11
67.23223
 21
-71.35001
  0
LINE
  8
0
  6
CONTINUOUS
 62
     7
 10
67.2322
 20
-71.35001
 11
52.24999
 21
-62.70001
  0
LINE
  8
0
  6
CONTINUOUS
 62
     7
 10
99.08813
 20
-62.70001
 11
106.75
 21
-62.70001
  0
LINE
  8
0
  6
CONTINUOUS
 62
     7
 10
106.75
 20
-65.01777
 11
107.25
 21
-65.01777
  0
LINE
  8
0
  6
CONTINUOUS
 62
     7
 10
97.75
 20
-65.01777
 11
99.08813
 21
-62.70002
  0
LINE
  8
0
  6
CONTINUOUS
 62
     7
 10
99.08813
 20
-71.35001
 11
106.75
 21
-71.35001
  0
LINE
  8
0
  6
CONTINUOUS
 62
     7
 10
106.75
 20
-97.29999
 11
99.08813
 21
-97.29999
  0
LINE
  8
0
  6
CONTINUOUS
 62
     7
 10
107.25
 20
-94.98223
 11
106.75
 21
-94.98223
  0
LINE
  8
0
  6
CONTINUOUS
 62
     7
 10
99.08806
 20
-97.29994
 11
97.74993
 21
-94.98219
  0
LINE
  8
0
  6
CONTINUOUS
 62
     7
 10
106.75
 20
-88.64999
 11
99.08813
 21
-88.64999
  0
LINE
  8
0
  6
PHANTOM
 62
     2
 10
10.53693
 20
73.2
 11
3.46307
 21
46.8
  0
LINE
  8
0
  6
CONTINUOUS
 62
     7
 10
91.99997
 20
66.0
 11
91.99997
 21
54.0
  0
LINE
  8
0
  6
CONTINUOUS
 62
     7
 10
-185.4368
 20
-127.2792
 11
-185.4368
 21
127.2792
  0
LINE
  8
0
  6
CONTINUOUS
 62
     7
 10
185.4368
 20
127.2792
 11
185.4368
 21
-127.2792
  0
LINE
  8
0
  6
CONTINUOUS
 62
     7
 10
-185.4368
 20
-127.2792
 11
185.4368
 21
-127.2792
  0
LINE
  8
0
  6
CONTINUOUS
 62
     7
 10
-185.4368
 20
127.2792
 11
185.4368
 21
127.2792
  0
LINE
  8
0
  6
CONTINUOUS
 62
     7
 10
-185.4368
 20
112.9782
 11
-109.1646
 21
112.9782
  0
LINE
  8
0
  6
CONTINUOUS
 62
     7
 10
-109.1646
 20
112.9782
 11
-109.1646
 21
127.2792
  0
LINE
  8
0
  6
CONTINUOUS
 62
     7
 10
109.1646
 20
-112.9782
 11
185.4368
 21
-112.9782
  0
LINE
  8
0
  6
CONTINUOUS
 62
     7
 10
129.1908
 20
-116.4169
 11
136.5177
 21
-116.4169
  0
LINE
  8
0
  6
CONTINUOUS
 62
     7
 10
129.1908
 20
-122.9143
 11
135.4118
 21
-122.9143
  0
LINE
  8
0
  6
CONTINUOUS
 62
     7
 10
129.1908
 20
-124.5732
 11
137.6237
 21
-124.5732
  0
LINE
  8
0
  6
CONTINUOUS
 62
     7
 10
129.1908
 20
-118.0758
 11
135.4118
 21
-118.0758
  0
LINE
  8
0
  6
CONTINUOUS
 62
     7
 10
129.1908
 20
-116.4169
 11
129.1908
 21
-118.0758
  0
LINE
  8
0
  6
CONTINUOUS
 62
     7
 10
137.6237
 20
-117.5228
 11
137.6237
 21
-124.5732
  0
LINE
  8
0
  6
CONTINUOUS
 62
     7
 10
135.4118
 20
-118.0758
 11
135.4118
 21
-122.9143
  0
LINE
  8
0
  6
CONTINUOUS
 62
     7
 10
138.8678
 20
-116.4169
 11
138.8678
 21
-118.0758
  0
LINE
  8
0
  6
CONTINUOUS
 62
     7
 10
146.7477
 20
-118.0758
 11
146.7477
 21
-123.4673
  0
LINE
  8
0
  6
CONTINUOUS
 62
     7
 10
144.5358
 20
-118.0758
 11
144.5358
 21
-122.9143
  0
LINE
  8
0
  6
CONTINUOUS
 62
     7
 10
129.1908
 20
-122.9143
 11
129.1908
 21
-124.5732
  0
LINE
  8
0
  6
CONTINUOUS
 62
     7
 10
138.8678
 20
-116.4169
 11
141.0533
 21
-116.4169
  0
LINE
  8
0
  6
CONTINUOUS
 62
     7
 10
138.8678
 20
-124.5732
 11
140.5853
 21
-124.5732
  0
LINE
  8
0
  6
CONTINUOUS
 62
     7
 10
138.8677
 20
-124.5732
 11
140.6088
 21
-118.0757
  0
LINE
  8
0
  6
CONTINUOUS
 62
     7
 10
138.8678
 20
-118.0758
 11
140.6088
 21
-118.0758
  0
LINE
  8
0
  6
CONTINUOUS
 62
     7
 10
140.5854
 20
-124.5734
 11
142.3264
 21
-118.0759
  0
LINE
  8
0
  6
CONTINUOUS
 62
     7
 10
142.8769
 20
-122.9143
 11
144.5358
 21
-122.9143
  0
LINE
  8
0
  6
CONTINUOUS
 62
     7
 10
142.8769
 20
-122.9143
 11
143.3214
 21
-124.5732
  0
LINE
  8
0
  6
CONTINUOUS
 62
     7
 10
143.3214
 20
-124.5732
 11
145.6418
 21
-124.5732
  0
LINE
  8
0
  6
CONTINUOUS
 62
     7
 10
142.3263
 20
-118.0758
 11
144.5358
 21
-118.0758
  0
LINE
  8
0
  6
CONTINUOUS
 62
     7
 10
142.7708
 20
-116.4169
 11
145.0888
 21
-116.4169
  0
LINE
  8
0
  6
CONTINUOUS
 62
     7
 10
141.0534
 20
-116.4169
 11
141.383
 21
-115.1865
  0
LINE
  8
0
  6
CONTINUOUS
 62
     7
 10
142.7707
 20
-116.4168
 11
143.1003
 21
-115.1864
  0
LINE
  8
0
  6
CONTINUOUS
 62
     7
 10
148.1301
 20
-116.4169
 11
150.7568
 21
-116.4169
  0
LINE
  8
0
  6
CONTINUOUS
 62
     7
 10
148.1301
 20
-118.0758
 11
154.581
 21
-118.0758
  0
LINE
  8
0
  6
CONTINUOUS
 62
     7
 10
150.7568
 20
-124.5732
 11
152.9686
 21
-124.5732
  0
LINE
  8
0
  6
CONTINUOUS
 62
     7
 10
148.1301
 20
-116.4169
 11
148.1301
 21
-118.0758
  0
LINE
  8
0
  6
CONTINUOUS
 62
     7
 10
156.2865
 20
-121.0839
 11
156.2865
 21
-122.9143
  0
LINE
  8
0
  6
CONTINUOUS
 62
     7
 10
148.13
 20
-122.9143
 11
150.7567
 21
-121.6894
  0
LINE
  8
0
  6
CONTINUOUS
 62
     7
 10
148.1303
 20
-121.0841
 11
154.5812
 21
-118.0759
  0
LINE
  8
0
  6
CONTINUOUS
 62
     7
 10
148.1301
 20
-121.0839
 11
148.1301
 21
-122.9143
  0
LINE
  8
0
  6
CONTINUOUS
 62
     7
 10
152.9686
 20
-121.3671
 11
156.2865
 21
-122.9143
  0
LINE
  8
0
  6
CONTINUOUS
 62
     7
 10
154.1712
 20
-120.0975
 11
156.2867
 21
-121.084
  0
LINE
  8
0
  6
CONTINUOUS
 62
     7
 10
156.2865
 20
-117.5228
 11
156.2865
 21
-118.4064
  0
LINE
  8
0
  6
CONTINUOUS
 62
     7
 10
150.7568
 20
-115.1865
 11
150.7568
 21
-116.4169
  0
LINE
  8
0
  6
CONTINUOUS
 62
     7
 10
152.9686
 20
-115.1865
 11
152.9686
 21
-116.4169
  0
LINE
  8
0
  6
CONTINUOUS
 62
     7
 10
152.9686
 20
-116.4169
 11
155.1806
 21
-116.4169
  0
LINE
  8
0
  6
CONTINUOUS
 62
     7
 10
150.7568
 20
-121.6895
 11
150.7568
 21
-124.5732
  0
LINE
  8
0
  6
CONTINUOUS
 62
     7
 10
152.9686
 20
-121.3672
 11
152.9686
 21
-124.5732
  0
LINE
  8
0
  6
CONTINUOUS
 62
     7
 10
154.1712
 20
-120.0975
 11
155.6481
 21
-119.4088
  0
LINE
  8
0
  6
CONTINUOUS
 62
     7
 10
163.7517
 20
-115.6842
 11
165.4106
 21
-115.6842
  0
LINE
  8
0
  6
CONTINUOUS
 62
     7
 10
156.9777
 20
-119.1109
 11
156.9777
 21
-120.8962
  0
LINE
  8
0
  6
CONTINUOUS
 62
     7
 10
165.4106
 20
-115.6842
 11
165.4106
 21
-116.4169
  0
LINE
  8
0
  6
CONTINUOUS
 62
     7
 10
163.7517
 20
-115.6842
 11
163.7517
 21
-116.0417
  0
LINE
  8
0
  6
CONTINUOUS
 62
     7
 10
161.5397
 20
-119.0819
 11
161.5397
 21
-124.5732
  0
LINE
  8
0
  6
CONTINUOUS
 62
     7
 10
156.9778
 20
-119.111
 11
163.4031
 21
-116.5556
  0
LINE
  8
0
  6
CONTINUOUS
 62
     7
 10
156.9778
 20
-120.8963
 11
161.5398
 21
-119.0819
  0
LINE
  8
0
  6
CONTINUOUS
 62
     7
 10
161.5397
 20
-124.5732
 11
163.7517
 21
-124.5732
  0
LINE
  8
0
  6
CONTINUOUS
 62
     7
 10
163.7517
 20
-118.2022
 11
163.7517
 21
-124.5732
  0
LINE
  8
0
  6
CONTINUOUS
 62
     7
 10
163.7518
 20
-118.2023
 11
164.3649
 21
-117.9584
  0
LINE
  8
0
  6
CONTINUOUS
 62
     7
 10
141.2497
 20
-115.1865
 11
143.1004
 21
-115.1865
  0
LINE
  8
0
  6
CONTINUOUS
 62
     7
 10
145.8491
 20
-115.1865
 11
146.5541
 21
-115.1865
  0
LINE
  8
0
  6
CONTINUOUS
 62
     7
 10
150.7568
 20
-115.1865
 11
152.9686
 21
-115.1865
  0
LINE
  8
0
  6
CONTINUOUS
 62
     7
 10
145.8491
 20
-116.2925
 11
146.5541
 21
-116.2925
  0
LINE
  8
0
  6
CONTINUOUS
 62
     7
 10
145.8491
 20
-115.1865
 11
145.8491
 21
-116.2925
  0
LINE
  8
0
  6
CONTINUOUS
 62
     7
 10
146.5541
 20
-115.1865
 11
146.5541
 21
-116.2925
  0
LINE
  8
0
  6
CONTINUOUS
 62
     7
 10
146.9689
 20
-115.1865
 11
146.9689
 21
-116.2925
  0
LINE
  8
0
  6
CONTINUOUS
 62
     7
 10
147.7569
 20
-115.1865
 11
147.7569
 21
-116.2925
  0
LINE
  8
0
  6
CONTINUOUS
 62
     7
 10
146.9689
 20
-115.1865
 11
147.7569
 21
-115.1865
  0
LINE
  8
0
  6
CONTINUOUS
 62
     7
 10
146.9689
 20
-116.2925
 11
147.7569
 21
-116.2925
  0
LINE
  8
0
  6
CONTINUOUS
 62
     7
 10
109.1646
 20
112.9782
 11
185.4368
 21
112.9782
  0
LINE
  8
0
  6
CONTINUOUS
 62
     7
 10
109.1646
 20
127.2792
 11
109.1646
 21
112.9782
  0
LINE
  8
0
  6
CONTINUOUS
 62
     7
 10
109.1646
 20
-112.9782
 11
109.1646
 21
-127.2792
  0
LINE
  8
0
  6
PHANTOM
 62
     2
 10
10.53693
 20
13.2
 11
3.46307
 21
-13.2
  0
LINE
  8
0
  6
PHANTOM
 62
     2
 10
15.53693
 20
73.2
 11
8.46307
 21
46.80001
  0
LINE
  8
0
  6
PHANTOM
 62
     2
 10
15.53693
 20
13.2
 11
8.46307
 21
-13.2
  0
LINE
  8
0
  6
CONTINUOUS
 62
     7
 10
15.53693
 20
73.2
 11
56.5
 21
73.2
  0
LINE
  8
0
  6
CONTINUOUS
 62
     7
 10
8.46307
 20
46.8
 11
56.5
 21
46.8
  0
LINE
  8
0
  6
CONTINUOUS
 62
     7
 10
15.53693
 20
13.2
 11
56.5
 21
13.2
  0
LINE
  8
0
  6
CONTINUOUS
 62
     7
 10
8.46307
 20
-13.2
 11
56.5
 21
-13.2
  0
CIRCLE
  8
0
  6
CONTINUOUS
 62
     7
 10
-133.5
 20
0.0
 40
4.0
  0
CIRCLE
  8
0
  6
CONTINUOUS
 62
     7
 10
-133.5
 20
0.0
 40
5.0
  0
CIRCLE
  8
0
  6
CONTINUOUS
 62
     7
 10
-133.5
 20
0.0
 40
10.2
  0
CIRCLE
  8
0
  6
CONTINUOUS
 62
     7
 10
-133.5
 20
0.0
 40
11.0
  0
CIRCLE
  8
0
  6
CONTINUOUS
 62
     7
 10
-133.5
 20
0.0
 40
14.5
  0
ARC
  8
0
  6
CONTINUOUS
 62
     7
 10
146.5
 20
0.0
 40
10.2
 50
53.96812
 51
126.0319
  0
ARC
  8
0
  6
CONTINUOUS
 62
     7
 10
146.5
 20
0.0
 40
10.2
 50
233.9681
 51
306.0319
  0
CIRCLE
  8
0
  6
CONTINUOUS
 62
     7
 10
146.5
 20
0.0
 40
11.0
  0
CIRCLE
  8
0
  6
CONTINUOUS
 62
     7
 10
146.5
 20
0.0
 40
14.5
  0
CIRCLE
  8
0
  6
CONTINUOUS
 62
     7
 10
84.5
 20
0.0
 40
4.0
  0
CIRCLE
  8
0
  6
CONTINUOUS
 62
     7
 10
-45.5
 20
60.0
 40
4.0
  0
CIRCLE
  8
0
  6
CONTINUOUS
 62
     7
 10
-45.5
 20
60.0
 40
5.0
  0
CIRCLE
  8
0
  6
CONTINUOUS
 62
     7
 10
64.5
 20
60.0
 40
5.0
  0
CIRCLE
  8
0
  6
CONTINUOUS
 62
     7
 10
64.5
 20
60.0
 40
4.0
  0
CIRCLE
  8
0
  6
CONTINUOUS
 62
     7
 10
-73.0
 20
-80.0
 40
4.3
  0
CIRCLE
  8
0
  6
CONTINUOUS
 62
     7
 10
-73.0
 20
-80.0
 40
5.0
  0
CIRCLE
  8
0
  6
CONTINUOUS
 62
     7
 10
-73.0
 20
-80.0
 40
7.0148
  0
ARC
  8
0
  6
CONTINUOUS
 62
     7
 10
-30.41423
 20
-73.925
 40
3.58577
 50
154.3843
 51
214.3837
  0
ARC
  8
0
  6
CONTINUOUS
 62
     7
 10
-20.59671
 20
-80.0
 40
13.4033
 50
162.4123
 51
197.5878
  0
ARC
  8
0
  6
CONTINUOUS
 62
     7
 10
-31.58583
 20
-73.925
 40
3.58577
 50
325.6163
 51
25.61569
  0
ARC
  8
0
  6
CONTINUOUS
 62
     7
 10
-41.40335
 20
-80.0
 40
13.4033
 50
342.4122
 51
17.58766
  0
ARC
  8
0
  6
CONTINUOUS
 62
     7
 10
-30.41423
 20
-86.075
 40
3.58577
 50
145.6163
 51
205.6156
  0
ARC
  8
0
  6
CONTINUOUS
 62
     7
 10
-31.58583
 20
-86.075
 40
3.58577
 50
334.3843
 51
34.3837
  0
CIRCLE
  8
0
  6
CONTINUOUS
 62
     7
 10
52.25
 20
-80.0
 40
10.2
  0
CIRCLE
  8
0
  6
CONTINUOUS
 62
     7
 10
52.25
 20
-80.0
 40
11.0
  0
CIRCLE
  8
0
  6
CONTINUOUS
 62
     7
 10
52.25
 20
-80.0
 40
14.98223
  0
ARC
  8
0
  6
CONTINUOUS
 62
     7
 10
105.4085
 20
-67.02501
 40
7.6585
 50
154.3847
 51
214.3837
  0
ARC
  8
0
  6
CONTINUOUS
 62
     7
 10
126.3768
 20
-80.0
 40
28.62677
 50
162.4123
 51
197.5876
  0
ARC
  8
0
  6
CONTINUOUS
 62
     7
 10
105.4085
 20
-92.97499
 40
7.6585
 50
145.6163
 51
205.6153
  0
CIRCLE
  8
0
  6
CONTINUOUS
 62
     7
 10
-45.5
 20
60.0
 40
0.95
  0
CIRCLE
  8
0
  6
CONTINUOUS
 62
     7
 10
64.5
 20
60.0
 40
0.95
  0
ARC
  8
0
  6
CONTINUOUS
 62
     7
 10
146.5
 20
0.0
 40
9.5
 50
50.83329
 51
129.1667
  0
ARC
  8
0
  6
CONTINUOUS
 62
     7
 10
146.5
 20
0.0
 40
9.5
 50
230.8333
 51
309.1667
  0
ARC
  8
0
  6
CONTINUOUS
 62
     7
 10
136.5177
 20
-117.5228
 40
1.10594
 50
0.0
 51
89.99999
  0
ARC
  8
0
  6
CONTINUOUS
 62
     7
 10
145.6418
 20
-123.4673
 40
1.10595
 50
270.0
 51
0.0
  0
ARC
  8
0
  6
CONTINUOUS
 62
     7
 10
145.0888
 20
-118.0758
 40
1.65892
 50
0.0
 51
89.99999
  0
ARC
  8
0
  6
CONTINUOUS
 62
     7
 10
155.1806
 20
-117.5228
 40
1.10594
 50
0.0
 51
89.99999
  0
ARC
  8
0
  6
CONTINUOUS
 62
     7
 10
155.1806
 20
-118.4064
 40
1.10595
 50
295.0
 51
0.0
  0
ARC
  8
0
  6
CONTINUOUS
 62
     7
 10
163.7517
 20
-116.4169
 40
1.65892
 50
291.6884
 51
0.0
  0
ARC
  8
0
  6
CONTINUOUS
 62
     7
 10
163.1987
 20
-116.0417
 40
0.55297
 50
291.689
 51
0.0
  0
ARC
  8
0
  6
CONTINUOUS
 62
     7
 10
-71.50005
 20
0.00004
 40
4.0
 50
318.5903
 51
41.40961
  0
ARC
  8
0
  6
CONTINUOUS
 62
     7
 10
-70.5
 20
0.00002
 40
4.0
 50
138.5904
 51
221.4096
  0
TEXT
  8
0
  6
CONTINUOUS
 62
     7
 10
-101.075
 20
-64.645
 40
3.5
  1
ROD NUT(M10*1.25)
 41
0.8
  7
STANDARD
  0
TEXT
  8
0
  6
CONTINUOUS
 62
     7
 10
16.175
 20
-56.645
 40
3.5
  1
MOUNT NUT(M22*1.5)
 41
0.8
  7
STANDARD
  0
TEXT
  8
0
  6
CONTINUOUS
 62
     7
 10
114.5353
 20
118.1347
 40
4.24264
  1
DATE : MAR ,1987
 41
0.8
  7
STANDARD
  0
TEXT
  8
0
  6
CONTINUOUS
 62
     7
 10
-178.965
 20
117.7787
 40
5.0
  1
SLIM CYLINDER
 41
0.8
  7
STANDARD
  0
TEXT
  8
0
  6
CONTINUOUS
 62
     7
 10
-162.1176
 20
90.25626
 40
5.0
  1
MODEL : DA 25*ST
 41
0.8
  7
STANDARD
  0
ENDSEC
  0
EOF
