  0
SECTION
  2
HEADER
  9
$ACADVER
  1
AC1003
  9
$EXTMIN
 10
-3.99250000E+02
 20
-2.76750000E+02
  9
$EXTMAX
 10
3.99799805E+02
 20
2.76250000E+02
  9
$LIMMIN
 10
-3.99251000E+02
 20
-2.76751000E+02
  9
$LIMMAX
 10
3.99800805E+02
 20
2.76251000E+02
  9
$SNAPUNIT
 10
1
 20
1
  9
$SNAPBASE
 10
0
 20
0
  9
$GRIDMODE
 70
0
  9
$GRIDUNIT
 10
0
 20
0
  9
$LTSCALE
 40
1.33174967E+01
  9
$TEXTSIZE
 40
3.2
  9
$DIMTAD
 70
0
  9
$LUNITS
 70
2
  9
$LUPREC
 70
4
  9
$FILLETRAD
 40
0
  9
$AUNITS
 70
0
  9
$AUPREC
 70
0
  0
ENDSEC
  0
SECTION
  2
TABLES
  0
TABLE
  2
LTYPE
 70
2
  0
LTYPE
  2
CONTINUOUS
 70
64
  3
Solid-Line
 72
65
 73
0
 40
0
  0
LTYPE
  2
DASHED
 70
64
  3
DASHED
 72
65
 73
2
 40
.75
 49
.5
 49
-.25
  0
LTYPE
  2
HIDDEN
 70
64
  3
HIDDEN
 72
65
 73
2
 40
.375
 49
.25
 49
-.125
  0
LTYPE
  2
CENTER
 70
64
  3
CENTER
 72
65
 73
4
 40
2
 49
1.25
 49
-.25
 49
.25
 49
-.25
  0
LTYPE
  2
PHANTOM
 70
64
  3
PHANTOM
 72
65
 73
6
 40
2.5
 49
1.25
 49
-.25
 49
.25
 49
-.25
 49
.25
 49
-.25
  0
ENDTAB
  0
TABLE
  2
LAYER
 70
1
  0
LAYER
  2
0
 70
0
 62
3
  6
CONTINUOUS
 0
ENDTAB
  0
TABLE
  2
STYLE
 70
2
  0
STYLE
  2
MONOTXT
 70
0
 40
0
 41
1
 50
0
 71
0
 42
.2
  3
monotxt
  0
STYLE
  2
BIGFONT
 70
0
 40
0
 41
1
 50
0
 71
0
 42
.2
  3
txt
  4
bigfont
  0
ENDTAB
  0
ENDSEC
  0
SECTION
  2
BLOCKS
  0
BLOCK
  8
0
  2
PP1
 70
10
 10
0.0
 20
0.0
  0
LINE
  8
0
 62
4
 10
-2.19450000E+02
 20
-1.70574657E+02
 11
-2.19450000E+02
 21
-1.70525591E+02
  0
ENDBLK
  8
0
  0
ENDSEC
  0
SECTION
  2
ENTITIES
  0
LINE
  8
0
 62
4
 10
-1.32808954E+02
 20
1.27075871E+02
 11
-1.33528954E+02
 21
1.25605871E+02
  0
LINE
  8
0
 62
4
 10
-1.37668954E+02
 20
1.26465871E+02
 11
-1.34258954E+02
 21
1.27845871E+02
  0
ARC
  8
0
 62
4
 10
-1.38505810E+02
 20
1.25226656E+02
 40
1.49671065E+00
 50
2.27914952E+02
 51
3.40045629E+02
  0
ARC
  8
0
 62
4
 10
-1.38506058E+02
 20
1.25227041E+02
 40
1.49513989E+00
 50
5.59523004E+01
 51
1.68079377E+02
  0
LINE
  8
0
 62
4
 10
-1.37098954E+02
 20
1.24715871E+02
 11
-1.33528954E+02
 21
1.25605871E+02
  0
LINE
  8
0
 62
4
 10
-1.34258954E+02
 20
1.27845871E+02
 11
-1.32808954E+02
 21
1.27075871E+02
  0
LINE
  8
0
  6
CENTER
 62
2
 10
-1.38508954E+02
 20
1.47546909E+02
 11
-1.38508954E+02
 21
1.02778493E+02
  0
LINE
  8
0
 62
4
 10
-1.49918954E+02
 20
1.21525871E+02
 11
-1.39968954E+02
 21
1.25535871E+02
  0
LINE
  8
0
 62
4
 10
-1.49918954E+02
 20
1.21525871E+02
 11
-1.39508954E+02
 21
1.24115871E+02
  0
CIRCLE
  8
0
 62
4
 10
-1.38518954E+02
 20
1.25225845E+02
 40
1.75000000E+01
  0
CIRCLE
  8
0
 62
4
 10
-1.38508954E+02
 20
1.25225871E+02
 40
1.75000000E+01
  0
CIRCLE
  8
0
 62
4
 10
-1.38508954E+02
 20
1.25225871E+02
 40
2.07500000E+01
  0
CIRCLE
  8
0
 62
4
 10
-1.38508954E+02
 20
1.25225871E+02
 40
2.12500000E+01
  0
LINE
  8
0
 62
7
 10
-1.05508954E+02
 20
1.48725871E+02
 11
-1.05508954E+02
 21
1.01725871E+02
  0
LINE
  8
0
 62
7
 10
-1.05508954E+02
 20
1.48725871E+02
 11
-1.07008954E+02
 21
1.50225871E+02
  0
LINE
  8
0
  6
CENTER
 62
2
 10
-1.55508954E+02
 20
1.66225871E+02
 11
-1.55508954E+02
 21
3.03758712E+01
  0
LINE
  8
0
 62
7
 10
-1.75258954E+02
 20
1.51225871E+02
 11
-1.75258954E+02
 21
1.50225871E+02
  0
LINE
  8
0
 62
7
 10
-1.83508954E+02
 20
9.82258712E+01
 11
-1.27508954E+02
 21
9.82258712E+01
  0
LINE
  8
0
 62
7
 10
-1.07008954E+02
 20
1.00225871E+02
 11
-1.05508954E+02
 21
1.01725871E+02
  0
LINE
  8
0
 62
7
 10
-1.07008954E+02
 20
1.00225871E+02
 11
-1.07008954E+02
 21
1.50225871E+02
  0
LINE
  8
0
 62
7
 10
-1.40808954E+02
 20
1.01725871E+02
 11
-1.05508954E+02
 21
1.01725871E+02
  0
LINE
  8
0
 62
7
 10
-1.39308954E+02
 20
1.00225871E+02
 11
-1.07008954E+02
 21
1.00225871E+02
  0
LINE
  8
0
 62
7
 10
-1.69208954E+02
 20
1.18225871E+02
 11
-1.58572915E+02
 21
1.18225871E+02
  0
LINE
  8
0
 62
7
 10
-1.84508954E+02
 20
1.00225871E+02
 11
-1.84508954E+02
 21
9.92258712E+01
  0
LINE
  8
0
 62
7
 10
-1.26508954E+02
 20
1.00225871E+02
 11
-1.26508954E+02
 21
9.92258712E+01
  0
LINE
  8
0
 62
7
 10
-1.84508954E+02
 20
9.92258712E+01
 11
-1.83508954E+02
 21
9.82258712E+01
  0
LINE
  8
0
 62
7
 10
-1.27508954E+02
 20
9.82258712E+01
 11
-1.26508954E+02
 21
9.92258712E+01
  0
LINE
  8
0
 62
7
 10
-1.84508954E+02
 20
9.92258712E+01
 11
-1.26508954E+02
 21
9.92258712E+01
  0
LINE
  8
0
 62
7
 10
-1.70208954E+02
 20
1.01725871E+02
 11
-1.70208954E+02
 21
1.17225871E+02
  0
LINE
  8
0
 62
7
 10
-1.70208954E+02
 20
1.01725871E+02
 11
-1.71708954E+02
 21
1.00225871E+02
  0
LINE
  8
0
 62
7
 10
-1.69208954E+02
 20
1.18225871E+02
 11
-1.70208954E+02
 21
1.17225871E+02
  0
LINE
  8
0
 62
7
 10
-1.70208954E+02
 20
1.17225871E+02
 11
-1.58195562E+02
 21
1.17225871E+02
  0
LINE
  8
0
 62
7
 10
-1.13388954E+02
 20
1.39605871E+02
 11
-1.12508954E+02
 21
1.40225871E+02
  0
LINE
  8
0
 62
7
 10
-1.12508954E+02
 20
1.40225871E+02
 11
-1.12508954E+02
 21
1.10225871E+02
  0
LINE
  8
0
 62
7
 10
-1.12508954E+02
 20
1.40225871E+02
 11
-1.23456961E+02
 21
1.40225871E+02
  0
LINE
  8
0
 62
7
 10
-1.12508954E+02
 20
1.10225871E+02
 11
-1.23456961E+02
 21
1.10225871E+02
  0
LINE
  8
0
 62
7
 10
-1.13388954E+02
 20
1.39605871E+02
 11
-1.13388954E+02
 21
1.10835871E+02
  0
LINE
  8
0
 62
7
 10
-1.13388954E+02
 20
1.39605871E+02
 11
-1.22863569E+02
 21
1.39605871E+02
  0
LINE
  8
0
 62
7
 10
-1.13388954E+02
 20
1.10835871E+02
 11
-1.22872766E+02
 21
1.10835871E+02
  0
LINE
  8
0
 62
7
 10
-1.12508954E+02
 20
1.10225871E+02
 11
-1.13388954E+02
 21
1.10835871E+02
  0
LINE
  8
0
 62
7
 10
-1.75508954E+02
 20
1.51225871E+02
 11
-1.35508954E+02
 21
1.51225871E+02
  0
LINE
  8
0
 62
7
 10
-1.44478954E+02
 20
1.60225871E+02
 11
-1.45458954E+02
 21
1.61225871E+02
  0
LINE
  8
0
 62
7
 10
-1.36998954E+02
 20
1.54225871E+02
 11
-1.35908954E+02
 21
1.53645871E+02
  0
LINE
  8
0
 62
7
 10
-1.51508954E+02
 20
1.53645871E+02
 11
-1.51218954E+02
 21
1.54225871E+02
  0
LINE
  8
0
 62
7
 10
-1.45458954E+02
 20
1.54225871E+02
 11
-1.44478954E+02
 21
1.53645871E+02
  0
LINE
  8
0
 62
7
 10
-1.74508954E+02
 20
1.61225871E+02
 11
-1.36508954E+02
 21
1.61225871E+02
  0
LINE
  8
0
 62
7
 10
-1.35508954E+02
 20
1.60225871E+02
 11
-1.35508954E+02
 21
1.51305871E+02
  0
LINE
  8
0
 62
7
 10
-1.75508954E+02
 20
1.60225871E+02
 11
-1.75508954E+02
 21
1.51225871E+02
  0
LINE
  8
0
 62
7
 10
-1.75508954E+02
 20
1.60225871E+02
 11
-1.74508954E+02
 21
1.61225871E+02
  0
LINE
  8
0
 62
7
 10
-1.35508954E+02
 20
1.60225871E+02
 11
-1.36508954E+02
 21
1.61225871E+02
  0
LINE
  8
0
 62
7
 10
-1.74018954E+02
 20
1.54225871E+02
 11
-1.72188954E+02
 21
1.54225871E+02
  0
LINE
  8
0
 62
7
 10
-1.75098954E+02
 20
1.53645871E+02
 11
-1.72188954E+02
 21
1.53645871E+02
  0
LINE
  8
0
 62
7
 10
-1.59508954E+02
 20
1.60225871E+02
 11
-1.59508954E+02
 21
1.53645871E+02
  0
LINE
  8
0
 62
7
 10
-1.51508954E+02
 20
1.60225871E+02
 11
-1.51508954E+02
 21
1.53645871E+02
  0
LINE
  8
0
 62
7
 10
-1.51218954E+02
 20
1.61225871E+02
 11
-1.51218954E+02
 21
1.54225871E+02
  0
LINE
  8
0
 62
7
 10
-1.59798954E+02
 20
1.61225871E+02
 11
-1.59798954E+02
 21
1.54225871E+02
  0
LINE
  8
0
 62
7
 10
-1.75508954E+02
 20
1.60225871E+02
 11
-1.75098954E+02
 21
1.60225871E+02
  0
LINE
  8
0
 62
7
 10
-1.59508954E+02
 20
1.60225871E+02
 11
-1.51508954E+02
 21
1.60225871E+02
  0
LINE
  8
0
 62
7
 10
-1.44478954E+02
 20
1.60225871E+02
 11
-1.38818954E+02
 21
1.60225871E+02
  0
LINE
  8
0
 62
7
 10
-1.51218954E+02
 20
1.54225871E+02
 11
-1.45458954E+02
 21
1.54225871E+02
  0
LINE
  8
0
 62
7
 10
-1.51508954E+02
 20
1.53645871E+02
 11
-1.44478954E+02
 21
1.53645871E+02
  0
LINE
  8
0
 62
7
 10
-1.65558954E+02
 20
1.61225871E+02
 11
-1.65558954E+02
 21
1.54225871E+02
  0
LINE
  8
0
 62
7
 10
-1.45458954E+02
 20
1.61225871E+02
 11
-1.45458954E+02
 21
1.54225871E+02
  0
LINE
  8
0
 62
7
 10
-1.65558954E+02
 20
1.54225871E+02
 11
-1.59798954E+02
 21
1.54225871E+02
  0
LINE
  8
0
 62
7
 10
-1.38818954E+02
 20
1.54225871E+02
 11
-1.36998954E+02
 21
1.54225871E+02
  0
LINE
  8
0
 62
7
 10
-1.66538954E+02
 20
1.60225871E+02
 11
-1.66538954E+02
 21
1.53645871E+02
  0
LINE
  8
0
 62
7
 10
-1.44478954E+02
 20
1.60225871E+02
 11
-1.44478954E+02
 21
1.53645871E+02
  0
LINE
  8
0
 62
7
 10
-1.66538954E+02
 20
1.53645871E+02
 11
-1.59508954E+02
 21
1.53645871E+02
  0
LINE
  8
0
 62
7
 10
-1.38818954E+02
 20
1.53645871E+02
 11
-1.35908954E+02
 21
1.53645871E+02
  0
LINE
  8
0
 62
7
 10
-1.38818954E+02
 20
1.60225871E+02
 11
-1.38818954E+02
 21
1.53645871E+02
  0
LINE
  8
0
 62
7
 10
-1.72188954E+02
 20
1.60225871E+02
 11
-1.72188954E+02
 21
1.53645871E+02
  0
LINE
  8
0
 62
7
 10
-1.35908954E+02
 20
1.60225871E+02
 11
-1.35508954E+02
 21
1.60225871E+02
  0
LINE
  8
0
 62
7
 10
-1.72188954E+02
 20
1.60225871E+02
 11
-1.66538954E+02
 21
1.60225871E+02
  0
LINE
  8
0
 62
7
 10
-1.72188954E+02
 20
1.60225871E+02
 11
-1.71628954E+02
 21
1.61225871E+02
  0
LINE
  8
0
 62
7
 10
-1.39388954E+02
 20
1.61225871E+02
 11
-1.38818954E+02
 21
1.60225871E+02
  0
LINE
  8
0
 62
7
 10
-1.36998954E+02
 20
1.61225871E+02
 11
-1.36998954E+02
 21
1.54225871E+02
  0
LINE
  8
0
 62
7
 10
-1.74018954E+02
 20
1.61225871E+02
 11
-1.74018954E+02
 21
1.54225871E+02
  0
LINE
  8
0
 62
7
 10
-1.35908954E+02
 20
1.60225871E+02
 11
-1.35908954E+02
 21
1.53645871E+02
  0
LINE
  8
0
 62
7
 10
-1.75098954E+02
 20
1.60225871E+02
 11
-1.75098954E+02
 21
1.53645871E+02
  0
LINE
  8
0
 62
7
 10
-1.74018954E+02
 20
1.54225871E+02
 11
-1.75098954E+02
 21
1.53645871E+02
  0
LINE
  8
0
 62
7
 10
-1.65558954E+02
 20
1.54225871E+02
 11
-1.66538954E+02
 21
1.53645871E+02
  0
LINE
  8
0
 62
7
 10
-1.66538954E+02
 20
1.60225871E+02
 11
-1.65558954E+02
 21
1.61225871E+02
  0
LINE
  8
0
 62
7
 10
-1.59798954E+02
 20
1.61225871E+02
 11
-1.59508954E+02
 21
1.60225871E+02
  0
LINE
  8
0
 62
7
 10
-1.59798954E+02
 20
1.54225871E+02
 11
-1.59508954E+02
 21
1.53645871E+02
  0
LINE
  8
0
 62
7
 10
-1.51508954E+02
 20
1.60225871E+02
 11
-1.51218954E+02
 21
1.61225871E+02
  0
LINE
  8
0
 62
7
 10
-1.35908954E+02
 20
1.60225871E+02
 11
-1.36998954E+02
 21
1.61225871E+02
  0
LINE
  8
0
 62
7
 10
-1.75098954E+02
 20
1.60225871E+02
 11
-1.74018954E+02
 21
1.61225871E+02
  0
LINE
  8
0
 62
7
 10
-1.73538954E+02
 20
3.53758712E+01
 11
-1.37468954E+02
 21
3.53758712E+01
  0
LINE
  8
0
 62
7
 10
-1.76278954E+02
 20
6.73758712E+01
 11
-1.34738954E+02
 21
6.73758712E+01
  0
LINE
  8
0
 62
7
 10
-1.74578954E+02
 20
3.74158712E+01
 11
-1.75758954E+02
 21
3.80958712E+01
  0
LINE
  8
0
 62
7
 10
-1.36438954E+02
 20
3.74158712E+01
 11
-1.35258954E+02
 21
3.80958712E+01
  0
LINE
  8
0
 62
7
 10
-1.74538954E+02
 20
3.63358712E+01
 11
-1.74578954E+02
 21
3.74158712E+01
  0
LINE
  8
0
 62
7
 10
-1.36468954E+02
 20
3.63358712E+01
 11
-1.36438954E+02
 21
3.74158712E+01
  0
LINE
  8
0
 62
7
 10
-1.35258954E+02
 20
3.80958712E+01
 11
-1.34248954E+02
 21
6.68858712E+01
  0
LINE
  8
0
 62
7
 10
-1.75758954E+02
 20
3.80958712E+01
 11
-1.76758954E+02
 21
6.68858712E+01
  0
LINE
  8
0
 62
7
 10
-1.76278954E+02
 20
6.73758712E+01
 11
-1.76758954E+02
 21
6.68858712E+01
  0
LINE
  8
0
 62
7
 10
-1.34738954E+02
 20
6.73758712E+01
 11
-1.34248954E+02
 21
6.68858712E+01
  0
LINE
  8
0
 62
7
 10
-1.76758954E+02
 20
6.68858712E+01
 11
-1.34248954E+02
 21
6.68858712E+01
  0
LINE
  8
0
 62
7
 10
-1.76268954E+02
 20
6.40558712E+01
 11
-1.73278954E+02
 21
6.40558712E+01
  0
LINE
  8
0
 62
7
 10
-1.75758954E+02
 20
3.80958712E+01
 11
-1.75358954E+02
 21
3.80958712E+01
  0
LINE
  8
0
 62
7
 10
-1.74578954E+02
 20
3.74158712E+01
 11
-1.74078954E+02
 21
3.74158712E+01
  0
LINE
  8
0
 62
7
 10
-1.59508954E+02
 20
3.80958712E+01
 11
-1.51508954E+02
 21
3.80958712E+01
  0
LINE
  8
0
 62
7
 10
-1.59868954E+02
 20
3.74158712E+01
 11
-1.51138954E+02
 21
3.74158712E+01
  0
LINE
  8
0
 62
7
 10
-1.65808954E+02
 20
6.40558712E+01
 11
-1.60418954E+02
 21
6.40558712E+01
  0
LINE
  8
0
 62
7
 10
-1.64588954E+02
 20
6.33758712E+01
 11
-1.60778954E+02
 21
6.33758712E+01
  0
LINE
  8
0
 62
7
 10
-1.71668954E+02
 20
3.74158712E+01
 11
-1.65498954E+02
 21
3.74158712E+01
  0
LINE
  8
0
 62
7
 10
-1.72368954E+02
 20
3.80958712E+01
 11
-1.66718954E+02
 21
3.80958712E+01
  0
LINE
  8
0
 62
7
 10
-1.72368954E+02
 20
3.80958712E+01
 11
-1.71668954E+02
 21
3.74158712E+01
  0
LINE
  8
0
 62
7
 10
-1.74978954E+02
 20
6.33758712E+01
 11
-1.73258954E+02
 21
6.33758712E+01
  0
LINE
  8
0
 62
7
 10
-1.75358954E+02
 20
3.80958712E+01
 11
-1.76268954E+02
 21
6.40558712E+01
  0
LINE
  8
0
 62
7
 10
-1.74078954E+02
 20
3.74158712E+01
 11
-1.74978954E+02
 21
6.33758712E+01
  0
LINE
  8
0
 62
7
 10
-1.72368954E+02
 20
3.80958712E+01
 11
-1.73278954E+02
 21
6.40558712E+01
  0
LINE
  8
0
 62
7
 10
-1.59508954E+02
 20
3.80958712E+01
 11
-1.60418954E+02
 21
6.40558712E+01
  0
LINE
  8
0
 62
7
 10
-1.59868954E+02
 20
3.74158712E+01
 11
-1.60778954E+02
 21
6.33758712E+01
  0
LINE
  8
0
 62
7
 10
-1.66718954E+02
 20
3.80958712E+01
 11
-1.65808954E+02
 21
6.40558712E+01
  0
LINE
  8
0
 62
7
 10
-1.65498954E+02
 20
3.74158712E+01
 11
-1.64588954E+02
 21
6.33758712E+01
  0
LINE
  8
0
 62
7
 10
-1.59868954E+02
 20
3.74158712E+01
 11
-1.59508954E+02
 21
3.80958712E+01
  0
LINE
  8
0
 62
7
 10
-1.60778954E+02
 20
6.33758712E+01
 11
-1.60418954E+02
 21
6.40558712E+01
  0
LINE
  8
0
 62
7
 10
-1.64588954E+02
 20
6.33758712E+01
 11
-1.65808954E+02
 21
6.40558712E+01
  0
LINE
  8
0
 62
7
 10
-1.66718954E+02
 20
3.80958712E+01
 11
-1.65498954E+02
 21
3.74158712E+01
  0
LINE
  8
0
 62
7
 10
-1.74978954E+02
 20
6.33758712E+01
 11
-1.76268954E+02
 21
6.40558712E+01
  0
LINE
  8
0
 62
7
 10
-1.75358954E+02
 20
3.80958712E+01
 11
-1.74078954E+02
 21
3.74158712E+01
  0
LINE
  8
0
 62
7
 10
-1.35658954E+02
 20
3.80958712E+01
 11
-1.36938954E+02
 21
3.74158712E+01
  0
LINE
  8
0
 62
7
 10
-1.36038954E+02
 20
6.33758712E+01
 11
-1.34748954E+02
 21
6.40558712E+01
  0
LINE
  8
0
 62
7
 10
-1.46428954E+02
 20
6.33758712E+01
 11
-1.45208954E+02
 21
6.40558712E+01
  0
LINE
  8
0
 62
7
 10
-1.45518954E+02
 20
3.74158712E+01
 11
-1.46428954E+02
 21
6.33758712E+01
  0
LINE
  8
0
 62
7
 10
-1.44298954E+02
 20
3.80958712E+01
 11
-1.45518954E+02
 21
3.74158712E+01
  0
LINE
  8
0
 62
7
 10
-1.50238954E+02
 20
6.33758712E+01
 11
-1.50598954E+02
 21
6.40558712E+01
  0
LINE
  8
0
 62
7
 10
-1.51138954E+02
 20
3.74158712E+01
 11
-1.51508954E+02
 21
3.80958712E+01
  0
LINE
  8
0
 62
7
 10
-1.34748954E+02
 20
6.40558712E+01
 11
-1.37738954E+02
 21
6.40558712E+01
  0
LINE
  8
0
 62
7
 10
-1.35258954E+02
 20
3.80958712E+01
 11
-1.35658954E+02
 21
3.80958712E+01
  0
LINE
  8
0
 62
7
 10
-1.36438954E+02
 20
3.74158712E+01
 11
-1.36938954E+02
 21
3.74158712E+01
  0
LINE
  8
0
 62
7
 10
-1.44298954E+02
 20
3.80958712E+01
 11
-1.45208954E+02
 21
6.40558712E+01
  0
LINE
  8
0
 62
7
 10
-1.51138954E+02
 20
3.74158712E+01
 11
-1.50238954E+02
 21
6.33758712E+01
  0
LINE
  8
0
 62
7
 10
-1.45208954E+02
 20
6.40558712E+01
 11
-1.50598954E+02
 21
6.40558712E+01
  0
LINE
  8
0
 62
7
 10
-1.46428954E+02
 20
6.33758712E+01
 11
-1.50238954E+02
 21
6.33758712E+01
  0
LINE
  8
0
 62
7
 10
-1.39348954E+02
 20
3.74158712E+01
 11
-1.45518954E+02
 21
3.74158712E+01
  0
LINE
  8
0
 62
7
 10
-1.38638954E+02
 20
3.80958712E+01
 11
-1.44298954E+02
 21
3.80958712E+01
  0
LINE
  8
0
 62
7
 10
-1.38638954E+02
 20
3.80958712E+01
 11
-1.39348954E+02
 21
3.74158712E+01
  0
LINE
  8
0
 62
7
 10
-1.36038954E+02
 20
6.33758712E+01
 11
-1.37758954E+02
 21
6.33758712E+01
  0
LINE
  8
0
 62
7
 10
-1.35658954E+02
 20
3.80958712E+01
 11
-1.34748954E+02
 21
6.40558712E+01
  0
LINE
  8
0
 62
7
 10
-1.36938954E+02
 20
3.74158712E+01
 11
-1.36038954E+02
 21
6.33758712E+01
  0
LINE
  8
0
 62
7
 10
-1.38638954E+02
 20
3.80958712E+01
 11
-1.37738954E+02
 21
6.40558712E+01
  0
LINE
  8
0
 62
7
 10
-1.51508954E+02
 20
3.80958712E+01
 11
-1.50598954E+02
 21
6.40558712E+01
  0
LINE
  8
0
 62
7
 10
-1.84008954E+02
 20
9.72258712E+01
 11
-1.27008954E+02
 21
9.72258712E+01
  0
LINE
  8
0
 62
7
 10
-1.84008954E+02
 20
9.72258712E+01
 11
-1.84008954E+02
 21
8.82258712E+01
  0
LINE
  8
0
 62
7
 10
-1.27008954E+02
 20
9.72258712E+01
 11
-1.27008954E+02
 21
8.82258712E+01
  0
LINE
  8
0
 62
7
 10
-1.83008954E+02
 20
8.72258712E+01
 11
-1.28008954E+02
 21
8.72258712E+01
  0
LINE
  8
0
 62
7
 10
-1.84008954E+02
 20
8.82258712E+01
 11
-1.83008954E+02
 21
8.72258712E+01
  0
LINE
  8
0
 62
7
 10
-1.27008954E+02
 20
8.82258712E+01
 11
-1.28008954E+02
 21
8.72258712E+01
  0
LINE
  8
0
 62
7
 10
-1.84008954E+02
 20
8.82258712E+01
 11
-1.83788954E+02
 21
8.82258712E+01
  0
LINE
  8
0
 62
7
 10
-1.45018954E+02
 20
8.82258712E+01
 11
-1.38618954E+02
 21
8.82258712E+01
  0
LINE
  8
0
 62
7
 10
-1.38618954E+02
 20
9.52258712E+01
 11
-1.32758954E+02
 21
9.52258712E+01
  0
LINE
  8
0
 62
7
 10
-1.38338954E+02
 20
9.42258712E+01
 11
-1.33808954E+02
 21
9.42258712E+01
  0
LINE
  8
0
 62
7
 10
-1.38338954E+02
 20
9.42258712E+01
 11
-1.38338954E+02
 21
8.72258712E+01
  0
LINE
  8
0
 62
7
 10
-1.38618954E+02
 20
9.52258712E+01
 11
-1.38618954E+02
 21
8.82258712E+01
  0
LINE
  8
0
 62
7
 10
-1.72678954E+02
 20
9.42258712E+01
 11
-1.72678954E+02
 21
8.72258712E+01
  0
LINE
  8
0
 62
7
 10
-1.72398954E+02
 20
9.52258712E+01
 11
-1.72398954E+02
 21
8.82258712E+01
  0
LINE
  8
0
 62
7
 10
-1.72398954E+02
 20
8.82258712E+01
 11
-1.65998954E+02
 21
8.82258712E+01
  0
LINE
  8
0
 62
7
 10
-1.32758954E+02
 20
8.82258712E+01
 11
-1.29258954E+02
 21
8.82258712E+01
  0
LINE
  8
0
 62
7
 10
-1.33808954E+02
 20
9.42258712E+01
 11
-1.33808954E+02
 21
8.72258712E+01
  0
LINE
  8
0
 62
7
 10
-1.32758954E+02
 20
9.52258712E+01
 11
-1.32758954E+02
 21
8.82258712E+01
  0
LINE
  8
0
 62
7
 10
-1.78248954E+02
 20
9.52258712E+01
 11
-1.78248954E+02
 21
8.82258712E+01
  0
LINE
  8
0
 62
7
 10
-1.77208954E+02
 20
9.42258712E+01
 11
-1.77208954E+02
 21
8.72258712E+01
  0
LINE
  8
0
 62
7
 10
-1.78248954E+02
 20
9.52258712E+01
 11
-1.72398954E+02
 21
9.52258712E+01
  0
LINE
  8
0
 62
7
 10
-1.77208954E+02
 20
9.42258712E+01
 11
-1.72678954E+02
 21
9.42258712E+01
  0
LINE
  8
0
 62
7
 10
-1.29258954E+02
 20
9.52258712E+01
 11
-1.27218954E+02
 21
9.52258712E+01
  0
LINE
  8
0
 62
7
 10
-1.29258954E+02
 20
9.42258712E+01
 11
-1.28268954E+02
 21
9.42258712E+01
  0
LINE
  8
0
 62
7
 10
-1.29258954E+02
 20
9.52258712E+01
 11
-1.29258954E+02
 21
8.82258712E+01
  0
LINE
  8
0
 62
7
 10
-1.81748954E+02
 20
9.52258712E+01
 11
-1.81748954E+02
 21
8.82258712E+01
  0
LINE
  8
0
 62
7
 10
-1.83788954E+02
 20
9.52258712E+01
 11
-1.81748954E+02
 21
9.52258712E+01
  0
LINE
  8
0
 62
7
 10
-1.82748954E+02
 20
9.42258712E+01
 11
-1.81748954E+02
 21
9.42258712E+01
  0
LINE
  8
0
 62
7
 10
-1.81748954E+02
 20
8.82258712E+01
 11
-1.78248954E+02
 21
8.82258712E+01
  0
LINE
  8
0
 62
7
 10
-1.27218954E+02
 20
8.82258712E+01
 11
-1.27008954E+02
 21
8.82258712E+01
  0
LINE
  8
0
 62
7
 10
-1.81748954E+02
 20
8.82258712E+01
 11
-1.80988954E+02
 21
8.72258712E+01
  0
LINE
  8
0
 62
7
 10
-1.28268954E+02
 20
9.42258712E+01
 11
-1.28268954E+02
 21
8.72258712E+01
  0
LINE
  8
0
 62
7
 10
-1.27218954E+02
 20
9.52258712E+01
 11
-1.27218954E+02
 21
8.82258712E+01
  0
LINE
  8
0
 62
7
 10
-1.82748954E+02
 20
9.42258712E+01
 11
-1.82748954E+02
 21
8.72258712E+01
  0
LINE
  8
0
 62
7
 10
-1.83788954E+02
 20
9.52258712E+01
 11
-1.83788954E+02
 21
8.82258712E+01
  0
LINE
  8
0
 62
7
 10
-1.83788954E+02
 20
8.82258712E+01
 11
-1.82748954E+02
 21
8.72258712E+01
  0
LINE
  8
0
 62
7
 10
-1.83788954E+02
 20
9.52258712E+01
 11
-1.82748954E+02
 21
9.42258712E+01
  0
LINE
  8
0
 62
7
 10
-1.28268954E+02
 20
8.72258712E+01
 11
-1.27218954E+02
 21
8.82258712E+01
  0
LINE
  8
0
 62
7
 10
-1.28268954E+02
 20
9.42258712E+01
 11
-1.27218954E+02
 21
9.52258712E+01
  0
LINE
  8
0
 62
7
 10
-1.78248954E+02
 20
8.82258712E+01
 11
-1.77208954E+02
 21
8.72258712E+01
  0
LINE
  8
0
 62
7
 10
-1.77208954E+02
 20
9.42258712E+01
 11
-1.78248954E+02
 21
9.52258712E+01
  0
LINE
  8
0
 62
7
 10
-1.72678954E+02
 20
9.42258712E+01
 11
-1.72398954E+02
 21
9.52258712E+01
  0
LINE
  8
0
 62
7
 10
-1.72678954E+02
 20
8.72258712E+01
 11
-1.72398954E+02
 21
8.82258712E+01
  0
LINE
  8
0
 62
7
 10
-1.38338954E+02
 20
9.42258712E+01
 11
-1.38618954E+02
 21
9.52258712E+01
  0
LINE
  8
0
 62
7
 10
-1.38338954E+02
 20
8.72258712E+01
 11
-1.38618954E+02
 21
8.82258712E+01
  0
LINE
  8
0
 62
7
 10
-1.33808954E+02
 20
9.42258712E+01
 11
-1.32758954E+02
 21
9.52258712E+01
  0
LINE
  8
0
 62
7
 10
-1.32758954E+02
 20
8.82258712E+01
 11
-1.33808954E+02
 21
8.72258712E+01
  0
LINE
  8
0
 62
7
 10
-1.29258954E+02
 20
8.82258712E+01
 11
-1.30028954E+02
 21
8.72258712E+01
  0
LINE
  8
0
 62
7
 10
-1.65998954E+02
 20
9.72258712E+01
 11
-1.65998954E+02
 21
8.82258712E+01
  0
LINE
  8
0
 62
7
 10
-1.45018954E+02
 20
9.72258712E+01
 11
-1.45018954E+02
 21
8.82258712E+01
  0
LINE
  8
0
 62
2
 10
-1.65998954E+02
 20
9.72258712E+01
 11
-1.45018954E+02
 21
8.82258712E+01
  0
LINE
  8
0
 62
2
 10
-1.45018954E+02
 20
9.72258712E+01
 11
-1.65998954E+02
 21
8.82258712E+01
  0
LINE
  8
0
 62
7
 10
-1.34008954E+02
 20
8.72258712E+01
 11
-1.34008954E+02
 21
8.62258712E+01
  0
LINE
  8
0
 62
7
 10
-1.75278954E+02
 20
8.52258712E+01
 11
-1.35738954E+02
 21
8.52258712E+01
  0
LINE
  8
0
 62
7
 10
-1.77008954E+02
 20
8.62258712E+01
 11
-1.34008954E+02
 21
8.62258712E+01
  0
LINE
  8
0
 62
7
 10
-1.77008954E+02
 20
8.62258712E+01
 11
-1.75278954E+02
 21
8.52258712E+01
  0
LINE
  8
0
 62
7
 10
-1.34008954E+02
 20
8.62258712E+01
 11
-1.35738954E+02
 21
8.52258712E+01
  0
LINE
  8
0
 62
7
 10
-1.77008954E+02
 20
8.72258712E+01
 11
-1.77008954E+02
 21
8.62258712E+01
  0
LINE
  8
0
 62
7
 10
-1.78008954E+02
 20
9.82258712E+01
 11
-1.78008954E+02
 21
9.72258712E+01
  0
LINE
  8
0
 62
2
 10
-1.77008954E+02
 20
9.82258712E+01
 11
-1.77008954E+02
 21
9.72258712E+01
  0
LINE
  8
0
 62
2
 10
-1.34008954E+02
 20
9.82258712E+01
 11
-1.34008954E+02
 21
9.72258712E+01
  0
LINE
  8
0
 62
7
 10
-1.33008954E+02
 20
9.82258712E+01
 11
-1.33008954E+02
 21
9.72258712E+01
  0
LINE
  8
0
 62
7
 10
-1.67268954E+02
 20
8.52258712E+01
 11
-1.67268954E+02
 21
6.73758712E+01
  0
LINE
  8
0
 62
7
 10
-1.74558954E+02
 20
8.52258712E+01
 11
-1.73948954E+02
 21
6.73758712E+01
  0
LINE
  8
0
 62
7
 10
-1.61418954E+02
 20
8.52258712E+01
 11
-1.61418954E+02
 21
6.73758712E+01
  0
LINE
  8
0
 62
7
 10
-1.49588954E+02
 20
8.52258712E+01
 11
-1.49588954E+02
 21
6.73758712E+01
  0
LINE
  8
0
 62
7
 10
-1.43738954E+02
 20
8.52258712E+01
 11
-1.43738954E+02
 21
6.73758712E+01
  0
LINE
  8
0
 62
7
 10
-1.36458954E+02
 20
8.52258712E+01
 11
-1.37068954E+02
 21
6.73758712E+01
  0
ARC
  8
0
 62
7
 10
-1.73537642E+02
 20
3.63780712E+01
 40
1.00220085E+00
 50
1.82413285E+02
 51
2.69924994E+02
  0
ARC
  8
0
 62
7
 10
-1.37474727E+02
 20
3.63722933E+01
 40
9.96438847E-01
 50
2.70331951E+02
 51
3.57905241E+02
  0
ARC
  8
0
 62
7
 10
-1.55508954E+02
 20
1.42729548E+02
 40
5.55039720E+01
 50
2.59105833E+02
 51
2.80894167E+02
  0
LINE
  8
0
 62
7
 10
-1.40808954E+02
 20
1.01725871E+02
 11
-1.40808954E+02
 21
1.04100708E+02
  0
LINE
  8
0
 62
7
 10
-1.40808954E+02
 20
1.01725871E+02
 11
-1.39308954E+02
 21
1.00225871E+02
  0
LINE
  8
0
 62
7
 10
-1.35758954E+02
 20
1.51225871E+02
 11
-1.35758954E+02
 21
1.50225871E+02
  0
LINE
  8
0
 62
7
 10
-2.05498954E+02
 20
1.01725871E+02
 11
-1.70208954E+02
 21
1.01725871E+02
  0
LINE
  8
0
 62
7
 10
-2.03998954E+02
 20
1.00225871E+02
 11
-1.71708954E+02
 21
1.00225871E+02
  0
LINE
  8
0
 62
7
 10
-2.05498954E+02
 20
1.48725871E+02
 11
-1.05508954E+02
 21
1.48725871E+02
  0
LINE
  8
0
 62
7
 10
-2.03998954E+02
 20
1.50225871E+02
 11
-1.07008954E+02
 21
1.50225871E+02
  0
LINE
  8
0
  6
CENTER
 62
2
 10
-3.17508954E+02
 20
1.25225871E+02
 11
-9.55089545E+01
 21
1.25225871E+02
  0
ARC
  8
0
 62
7
 10
-2.98940634E+02
 20
5.94855726E+01
 40
2.98478257E-01
 50
1.81862600E+02
 51
2.17017470E+02
  0
ARC
  8
0
 62
7
 10
-2.35650558E+02
 20
4.65274747E+01
 40
1.00160481E+00
 50
2.70091728E+02
 51
3.59908272E+02
  0
ARC
  8
0
 62
7
 10
-2.37482687E+02
 20
4.70296039E+01
 40
1.00373965E+00
 50
2.70213072E+02
 51
3.59786927E+02
  0
ARC
  8
0
 62
7
 10
-2.42550390E+02
 20
4.65244356E+01
 40
9.98565446E-01
 50
1.79917629E+02
 51
2.70082371E+02
  0
ARC
  8
0
 62
7
 10
-2.42550390E+02
 20
4.70244356E+01
 40
9.98565446E-01
 50
1.79917629E+02
 51
2.70082371E+02
  0
ARC
  8
0
 62
7
 10
-2.34790526E+02
 20
7.95242997E+01
 40
1.00157275E+00
 50
8.98997377E-02
 51
8.99101002E+01
  0
ARC
  8
0
 62
7
 10
-2.35389181E+02
 20
7.90256444E+01
 40
1.00022684E+00
 50
1.29923989E-02
 51
9.00000002E+01
  0
ARC
  8
0
 62
7
 10
-2.35647733E+02
 20
7.85270925E+01
 40
9.98779497E-01
 50
3.59929942E+02
 51
9.00700580E+01
  0
ARC
  8
0
 62
7
 10
-2.37479868E+02
 20
7.80249573E+01
 40
1.00091436E+00
 50
5.23175039E-02
 51
9.00000002E+01
  0
ARC
  8
0
 62
7
 10
-2.42934969E+02
 20
7.95318857E+01
 40
9.94003705E-01
 50
8.96533143E+01
 51
1.80346686E+02
  0
ARC
  8
0
 62
7
 10
-2.42934969E+02
 20
7.90318857E+01
 40
9.94003705E-01
 50
8.96533143E+01
 51
1.80346686E+02
  0
ARC
  8
0
 62
7
 10
-2.42553223E+02
 20
7.85301402E+01
 40
9.95740175E-01
 50
8.97543583E+01
 51
1.80245642E+02
  0
ARC
  8
0
 62
7
 10
-2.42553223E+02
 20
7.80301402E+01
 40
9.95740175E-01
 50
8.97543583E+01
 51
1.80245642E+02
  0
ARC
  8
0
 62
7
 10
-2.34793351E+02
 20
3.53026724E+00
 40
1.00440566E+00
 50
2.70250771E+02
 51
3.59749229E+02
  0
ARC
  8
0
 62
7
 10
-2.35392010E+02
 20
4.02892634E+00
 40
1.00305979E+00
 50
2.70174513E+02
 51
3.59825487E+02
  0
ARC
  8
0
 62
7
 10
-2.35650566E+02
 20
4.52748237E+00
 40
1.00161247E+00
 50
2.70092165E+02
 51
3.59907835E+02
  0
ARC
  8
0
 62
7
 10
-2.35647733E+02
 20
3.85270925E+01
 40
9.98779497E-01
 50
3.59929942E+02
 51
9.00700580E+01
  0
ARC
  8
0
 62
7
 10
-2.37482695E+02
 20
5.02961153E+00
 40
1.00374730E+00
 50
2.70213506E+02
 51
3.59786494E+02
  0
ARC
  8
0
 62
7
 10
-2.42932123E+02
 20
3.52270272E+00
 40
9.96836554E-01
 50
1.79817883E+02
 51
2.70182117E+02
  0
ARC
  8
0
 62
7
 10
-2.42932123E+02
 20
4.02270272E+00
 40
9.96836554E-01
 50
1.79817883E+02
 51
2.70182117E+02
  0
ARC
  8
0
 62
7
 10
-2.42550382E+02
 20
4.52444328E+00
 40
9.98573097E-01
 50
1.79918069E+02
 51
2.70081931E+02
  0
ARC
  8
0
 62
7
 10
-2.42550382E+02
 20
5.02444328E+00
 40
9.98573097E-01
 50
1.79918069E+02
 51
2.70081931E+02
  0
ARC
  8
0
 62
7
 10
-2.42553223E+02
 20
3.85301402E+01
 40
9.95740175E-01
 50
8.97543583E+01
 51
1.80245642E+02
  0
ARC
  8
0
 62
7
 10
-2.42553223E+02
 20
3.80301402E+01
 40
9.95740175E-01
 50
8.97543583E+01
 51
1.80245642E+02
  0
ARC
  8
0
 62
7
 10
-2.37479868E+02
 20
3.80249573E+01
 40
1.00091436E+00
 50
5.23175039E-02
 51
9.00000002E+01
  0
ARC
  8
0
 62
7
 10
-2.89370196E+02
 20
4.65246295E+01
 40
9.98759076E-01
 50
1.79928767E+02
 51
2.70071232E+02
  0
ARC
  8
0
 62
7
 10
-2.87538073E+02
 20
4.70267526E+01
 40
1.00088180E+00
 50
1.80050457E+02
 51
2.70000000E+02
  0
ARC
  8
0
 62
7
 10
-2.82470364E+02
 20
4.65272803E+01
 40
1.00141008E+00
 50
2.70080621E+02
 51
3.59919379E+02
  0
ARC
  8
0
 62
7
 10
-2.82470364E+02
 20
4.70272803E+01
 40
1.00141008E+00
 50
2.70080621E+02
 51
3.59919379E+02
  0
ARC
  8
0
 62
7
 10
-2.90230244E+02
 20
7.95271609E+01
 40
9.98711116E-01
 50
8.99260096E+01
 51
1.80073990E+02
  0
ARC
  8
0
 62
7
 10
-2.89631585E+02
 20
7.90285018E+01
 40
9.97372873E-01
 50
8.98488808E+01
 51
1.80151119E+02
  0
ARC
  8
0
 62
7
 10
-2.89373029E+02
 20
7.85299457E+01
 40
9.95933799E-01
 50
8.97655923E+01
 51
1.80234408E+02
  0
ARC
  8
0
 62
7
 10
-2.87540900E+02
 20
7.80278166E+01
 40
9.98056482E-01
 50
8.98883187E+01
 51
1.80111681E+02
  0
ARC
  8
0
 62
7
 10
-2.82080799E+02
 20
7.95240272E+01
 40
1.00184574E+00
 50
1.05461219E-01
 51
8.98945387E+01
  0
ARC
  8
0
 62
7
 10
-2.82080799E+02
 20
7.90240272E+01
 40
1.00184574E+00
 50
1.05461219E-01
 51
8.98945387E+01
  0
ARC
  8
0
 62
7
 10
-2.82467538E+02
 20
7.85272874E+01
 40
9.98584759E-01
 50
3.59918740E+02
 51
9.00812599E+01
  0
ARC
  8
0
 62
7
 10
-2.82467538E+02
 20
7.80272874E+01
 40
9.98584759E-01
 50
3.59918740E+02
 51
9.00812599E+01
  0
ARC
  8
0
 62
7
 10
-2.90227412E+02
 20
3.52741410E+00
 40
1.00154408E+00
 50
1.80088265E+02
 51
2.69911735E+02
  0
ARC
  8
0
 62
7
 10
-2.89628749E+02
 20
4.02607701E+00
 40
1.00020583E+00
 50
1.80011790E+02
 51
2.70000000E+02
  0
ARC
  8
0
 62
7
 10
-2.89370188E+02
 20
4.52463716E+00
 40
9.98766727E-01
 50
1.79929207E+02
 51
2.70070792E+02
  0
ARC
  8
0
 62
7
 10
-2.89373029E+02
 20
3.85299457E+01
 40
9.95933799E-01
 50
8.97655923E+01
 51
1.80234408E+02
  0
ARC
  8
0
 62
7
 10
-2.87538065E+02
 20
5.02676025E+00
 40
1.00088945E+00
 50
1.80050894E+02
 51
2.70000000E+02
  0
ARC
  8
0
 62
7
 10
-2.82083622E+02
 20
3.53053900E+00
 40
1.00467865E+00
 50
2.70266201E+02
 51
3.59733799E+02
  0
ARC
  8
0
 62
7
 10
-2.82083622E+02
 20
4.03053900E+00
 40
1.00467865E+00
 50
2.70266201E+02
 51
3.59733799E+02
  0
ARC
  8
0
 62
7
 10
-2.82470371E+02
 20
4.52728793E+00
 40
1.00141773E+00
 50
2.70081057E+02
 51
3.59918943E+02
  0
ARC
  8
0
 62
7
 10
-2.82470371E+02
 20
5.02728793E+00
 40
1.00141773E+00
 50
2.70081057E+02
 51
3.59918943E+02
  0
ARC
  8
0
 62
7
 10
-2.82467538E+02
 20
3.85272874E+01
 40
9.98584759E-01
 50
3.59918740E+02
 51
9.00812599E+01
  0
ARC
  8
0
 62
7
 10
-2.82467538E+02
 20
3.80272874E+01
 40
9.98584759E-01
 50
3.59918740E+02
 51
9.00812599E+01
  0
ARC
  8
0
 62
7
 10
-2.87540900E+02
 20
3.80278166E+01
 40
9.98056482E-01
 50
8.98883187E+01
 51
1.80111681E+02
  0
ARC
  8
0
 62
7
 10
-2.44093623E+02
 20
1.03114911E+00
 40
1.50052786E+01
 50
2.70017828E+02
 51
3.59483451E+02
  0
ARC
  8
0
 62
7
 10
-2.80922077E+02
 20
1.02328979E+00
 40
1.49974189E+01
 50
1.80486793E+02
 51
2.70011928E+02
  0
LINE
  8
0
 62
4
 10
-2.70578954E+02
 20
-1.49741288E+01
 11
-2.54428954E+02
 21
-1.49741288E+01
  0
LINE
  8
0
 62
4
 10
-2.54758954E+02
 20
-1.72641288E+01
 11
-2.70258954E+02
 21
-1.72641288E+01
  0
LINE
  8
0
 62
4
 10
-2.68768954E+02
 20
-2.97641288E+01
 11
-2.69518954E+02
 21
-2.97641288E+01
  0
LINE
  8
0
 62
4
 10
-2.55498954E+02
 20
-2.97641288E+01
 11
-2.56248954E+02
 21
-2.97641288E+01
  0
LINE
  8
0
 62
4
 10
-2.64348954E+02
 20
-2.97641288E+01
 11
-2.66158954E+02
 21
-2.97641288E+01
  0
LINE
  8
0
 62
4
 10
-2.68948954E+02
 20
-2.92641288E+01
 11
-2.68768954E+02
 21
-2.97641288E+01
  0
LINE
  8
0
 62
4
 10
-2.56068954E+02
 20
-2.92641288E+01
 11
-2.56248954E+02
 21
-2.97641288E+01
  0
LINE
  8
0
 62
4
 10
-2.55498954E+02
 20
-2.00541288E+01
 11
-2.54898954E+02
 21
-1.97641288E+01
  0
LINE
  8
0
 62
4
 10
-2.58848954E+02
 20
-2.00541288E+01
 11
-2.58188954E+02
 21
-1.97641288E+01
  0
LINE
  8
0
 62
4
 10
-2.60668954E+02
 20
-2.00541288E+01
 11
-2.61008954E+02
 21
-1.97641288E+01
  0
LINE
  8
0
 62
4
 10
-2.64348954E+02
 20
-2.00541288E+01
 11
-2.64008954E+02
 21
-1.97641288E+01
  0
LINE
  8
0
 62
4
 10
-2.66158954E+02
 20
-2.00541288E+01
 11
-2.66818954E+02
 21
-1.97641288E+01
  0
LINE
  8
0
 62
4
 10
-2.69518954E+02
 20
-2.00541288E+01
 11
-2.70108954E+02
 21
-1.97641288E+01
  0
LINE
  8
0
 62
4
 10
-2.69518954E+02
 20
-2.97641288E+01
 11
-2.70108954E+02
 21
-2.92641288E+01
  0
LINE
  8
0
 62
4
 10
-2.66158954E+02
 20
-2.97641288E+01
 11
-2.66818954E+02
 21
-2.92641288E+01
  0
LINE
  8
0
 62
4
 10
-2.64008954E+02
 20
-2.92641288E+01
 11
-2.64348954E+02
 21
-2.97641288E+01
  0
LINE
  8
0
 62
4
 10
-2.60668954E+02
 20
-2.97641288E+01
 11
-2.61008954E+02
 21
-2.92641288E+01
  0
LINE
  8
0
 62
4
 10
-2.58848954E+02
 20
-2.97641288E+01
 11
-2.58188954E+02
 21
-2.92641288E+01
  0
LINE
  8
0
 62
4
 10
-2.55498954E+02
 20
-2.97641288E+01
 11
-2.54898954E+02
 21
-2.92641288E+01
  0
LINE
  8
0
 62
4
 10
-2.58848954E+02
 20
-2.97641288E+01
 11
-2.60668954E+02
 21
-2.97641288E+01
  0
LINE
  8
0
 62
4
 10
-2.56068954E+02
 20
-2.92641288E+01
 11
-2.58188954E+02
 21
-2.92641288E+01
  0
LINE
  8
0
 62
4
 10
-2.70108954E+02
 20
-2.92641288E+01
 11
-2.70258954E+02
 21
-2.92641288E+01
  0
LINE
  8
0
 62
4
 10
-2.66818954E+02
 20
-2.92641288E+01
 11
-2.68948954E+02
 21
-2.92641288E+01
  0
LINE
  8
0
 62
4
 10
-2.61008954E+02
 20
-2.92641288E+01
 11
-2.64008954E+02
 21
-2.92641288E+01
  0
LINE
  8
0
 62
4
 10
-2.68948954E+02
 20
-2.00541288E+01
 11
-2.69518954E+02
 21
-2.00541288E+01
  0
LINE
  8
0
 62
4
 10
-2.68948954E+02
 20
-1.97641288E+01
 11
-2.70108954E+02
 21
-1.97641288E+01
  0
LINE
  8
0
 62
4
 10
-2.58848954E+02
 20
-2.00541288E+01
 11
-2.60668954E+02
 21
-2.00541288E+01
  0
LINE
  8
0
 62
4
 10
-2.58188954E+02
 20
-1.97641288E+01
 11
-2.61008954E+02
 21
-1.97641288E+01
  0
LINE
  8
0
 62
4
 10
-2.64348954E+02
 20
-2.00541288E+01
 11
-2.66158954E+02
 21
-2.00541288E+01
  0
LINE
  8
0
 62
4
 10
-2.64008954E+02
 20
-1.97641288E+01
 11
-2.66818954E+02
 21
-1.97641288E+01
  0
LINE
  8
0
 62
4
 10
-2.54758954E+02
 20
-2.92641288E+01
 11
-2.54898954E+02
 21
-2.92641288E+01
  0
LINE
  8
0
 62
4
 10
-2.55498954E+02
 20
-2.00541288E+01
 11
-2.56068954E+02
 21
-2.00541288E+01
  0
LINE
  8
0
 62
4
 10
-2.54898954E+02
 20
-1.97641288E+01
 11
-2.56068954E+02
 21
-1.97641288E+01
  0
LINE
  8
0
 62
4
 10
-2.54898954E+02
 20
-1.97641288E+01
 11
-2.54898954E+02
 21
-2.92641288E+01
  0
LINE
  8
0
 62
4
 10
-2.55498954E+02
 20
-2.00541288E+01
 11
-2.55498954E+02
 21
-2.97641288E+01
  0
LINE
  8
0
 62
4
 10
-2.56068954E+02
 20
-1.97641288E+01
 11
-2.56068954E+02
 21
-2.92641288E+01
  0
LINE
  8
0
 62
4
 10
-2.58188954E+02
 20
-1.97641288E+01
 11
-2.58188954E+02
 21
-2.92641288E+01
  0
LINE
  8
0
 62
4
 10
-2.58848954E+02
 20
-2.00541288E+01
 11
-2.58848954E+02
 21
-2.97641288E+01
  0
LINE
  8
0
 62
4
 10
-2.70108954E+02
 20
-1.97641288E+01
 11
-2.70108954E+02
 21
-2.92641288E+01
  0
LINE
  8
0
 62
4
 10
-2.69518954E+02
 20
-2.00541288E+01
 11
-2.69518954E+02
 21
-2.97641288E+01
  0
LINE
  8
0
 62
4
 10
-2.68948954E+02
 20
-1.97641288E+01
 11
-2.68948954E+02
 21
-2.92641288E+01
  0
LINE
  8
0
 62
4
 10
-2.66818954E+02
 20
-1.97641288E+01
 11
-2.66818954E+02
 21
-2.92641288E+01
  0
LINE
  8
0
 62
4
 10
-2.66158954E+02
 20
-2.00541288E+01
 11
-2.66158954E+02
 21
-2.97641288E+01
  0
LINE
  8
0
 62
4
 10
-2.64348954E+02
 20
-2.00541288E+01
 11
-2.64348954E+02
 21
-2.97641288E+01
  0
LINE
  8
0
 62
4
 10
-2.60668954E+02
 20
-2.00541288E+01
 11
-2.60668954E+02
 21
-2.97641288E+01
  0
LINE
  8
0
 62
4
 10
-2.61008954E+02
 20
-1.97641288E+01
 11
-2.61008954E+02
 21
-2.92641288E+01
  0
LINE
  8
0
 62
4
 10
-2.64008954E+02
 20
-1.97641288E+01
 11
-2.64008954E+02
 21
-2.92641288E+01
  0
LINE
  8
0
 62
6
 10
-2.57258954E+02
 20
-1.54741288E+01
 11
-2.57258954E+02
 21
-1.67641288E+01
  0
LINE
  8
0
 62
6
 10
-2.67758954E+02
 20
-1.54741288E+01
 11
-2.67758954E+02
 21
-1.67641288E+01
  0
LINE
  8
0
 62
4
 10
-2.68508954E+02
 20
-1.54741288E+01
 11
-2.68508954E+02
 21
-1.67641288E+01
  0
LINE
  8
0
 62
4
 10
-2.56508954E+02
 20
-1.54741288E+01
 11
-2.56508954E+02
 21
-1.67641288E+01
  0
LINE
  8
0
 62
4
 10
-2.69758954E+02
 20
-1.67641288E+01
 11
-2.70258954E+02
 21
-1.72641288E+01
  0
LINE
  8
0
 62
4
 10
-2.55258954E+02
 20
-1.67641288E+01
 11
-2.54758954E+02
 21
-1.72641288E+01
  0
LINE
  8
0
 62
4
 10
-2.55258954E+02
 20
-1.67641288E+01
 11
-2.69758954E+02
 21
-1.67641288E+01
  0
LINE
  8
0
 62
4
 10
-2.69258954E+02
 20
-3.02641288E+01
 11
-2.70258954E+02
 21
-2.92641288E+01
  0
LINE
  8
0
 62
4
 10
-2.54758954E+02
 20
-2.92641288E+01
 11
-2.55758954E+02
 21
-3.02641288E+01
  0
LINE
  8
0
 62
4
 10
-2.70258954E+02
 20
-1.72641288E+01
 11
-2.70258954E+02
 21
-2.92641288E+01
  0
LINE
  8
0
 62
4
 10
-2.54758954E+02
 20
-1.72641288E+01
 11
-2.54758954E+02
 21
-2.92641288E+01
  0
LINE
  8
0
 62
4
 10
-2.55758954E+02
 20
-3.02641288E+01
 11
-2.69258954E+02
 21
-3.02641288E+01
  0
LINE
  8
0
 62
4
 10
-2.70078954E+02
 20
-1.54741288E+01
 11
-2.70578954E+02
 21
-1.49741288E+01
  0
LINE
  8
0
 62
4
 10
-2.54928954E+02
 20
-1.54741288E+01
 11
-2.54428954E+02
 21
-1.49741288E+01
  0
LINE
  8
0
 62
4
 10
-2.54428954E+02
 20
-1.49741288E+01
 11
-2.54428954E+02
 21
-1.39741288E+01
  0
LINE
  8
0
 62
4
 10
-2.70578954E+02
 20
-1.49741288E+01
 11
-2.70578954E+02
 21
-1.39741288E+01
  0
LINE
  8
0
 62
4
 10
-2.70078954E+02
 20
-1.54741288E+01
 11
-2.54928954E+02
 21
-1.54741288E+01
  0
LINE
  8
0
 62
7
 10
-2.99428954E+02
 20
8.32158712E+01
 11
-2.99078954E+02
 21
6.91958712E+01
  0
LINE
  8
0
 62
7
 10
-2.98398954E+02
 20
8.52258712E+01
 11
-2.98348954E+02
 21
8.32458712E+01
  0
LINE
  8
0
 62
7
 10
-2.98968954E+02
 20
8.52258712E+01
 11
-2.98928954E+02
 21
8.32258712E+01
  0
LINE
  8
0
 62
7
 10
-2.99908954E+02
 20
8.27058712E+01
 11
-2.99428954E+02
 21
8.32158712E+01
  0
LINE
  8
0
 62
7
 10
-2.99368954E+02
 20
6.07058712E+01
 11
-2.99248954E+02
 21
6.05858712E+01
  0
LINE
  8
0
 62
7
 10
-2.99428954E+02
 20
8.32158712E+01
 11
-2.98348954E+02
 21
8.32458712E+01
  0
LINE
  8
0
 62
7
 10
-2.99908954E+02
 20
8.27058712E+01
 11
-2.99368954E+02
 21
6.07058712E+01
  0
LINE
  8
0
 62
7
 10
-2.96548954E+02
 20
7.31458712E+01
 11
-2.96658954E+02
 21
8.52258712E+01
  0
LINE
  8
0
 62
7
 10
-2.96548954E+02
 20
7.31458712E+01
 11
-2.99318954E+02
 21
6.88258712E+01
  0
LINE
  8
0
 62
7
 10
-2.99238954E+02
 20
5.94758712E+01
 11
-2.99318954E+02
 21
6.88258712E+01
  0
LINE
  8
0
 62
7
 10
-2.96398954E+02
 20
5.53258712E+01
 11
-2.99178954E+02
 21
5.93058712E+01
  0
LINE
  8
0
 62
7
 10
-2.33788954E+02
 20
7.95258712E+01
 11
-2.33788954E+02
 21
3.52587120E+00
  0
LINE
  8
0
 62
7
 10
-2.34388954E+02
 20
7.90258712E+01
 11
-2.34388954E+02
 21
4.02587120E+00
  0
LINE
  8
0
 62
7
 10
-2.34648954E+02
 20
7.85258712E+01
 11
-2.34648954E+02
 21
4.65258712E+01
  0
LINE
  8
0
 62
7
 10
-2.36478954E+02
 20
7.80258712E+01
 11
-2.36478954E+02
 21
4.70258712E+01
  0
LINE
  8
0
 62
7
 10
-2.43548954E+02
 20
7.85258712E+01
 11
-2.43548954E+02
 21
4.65258712E+01
  0
LINE
  8
0
 62
7
 10
-2.43928954E+02
 20
7.95258712E+01
 11
-2.43928954E+02
 21
3.52587120E+00
  0
LINE
  8
0
 62
7
 10
-2.34788954E+02
 20
8.05258712E+01
 11
-2.42928954E+02
 21
8.05258712E+01
  0
LINE
  8
0
 62
7
 10
-2.35388954E+02
 20
8.00258712E+01
 11
-2.42928954E+02
 21
8.00258712E+01
  0
LINE
  8
0
 62
7
 10
-2.42928954E+02
 20
2.52587120E+00
 11
-2.34788954E+02
 21
2.52587120E+00
  0
LINE
  8
0
 62
7
 10
-2.42928954E+02
 20
3.02587120E+00
 11
-2.35388954E+02
 21
3.02587120E+00
  0
LINE
  8
0
 62
7
 10
-2.43548954E+02
 20
3.85258712E+01
 11
-2.43548954E+02
 21
4.52587120E+00
  0
LINE
  8
0
 62
7
 10
-2.36478954E+02
 20
3.80258712E+01
 11
-2.36478954E+02
 21
5.02587120E+00
  0
LINE
  8
0
 62
7
 10
-2.34648954E+02
 20
3.85258712E+01
 11
-2.34648954E+02
 21
4.52587120E+00
  0
LINE
  8
0
 62
7
 10
-2.42548954E+02
 20
4.02587120E+00
 11
-2.37478954E+02
 21
4.02587120E+00
  0
LINE
  8
0
 62
7
 10
-2.42548954E+02
 20
4.60258712E+01
 11
-2.37478954E+02
 21
4.60258712E+01
  0
LINE
  8
0
 62
7
 10
-2.42548954E+02
 20
3.90258712E+01
 11
-2.37478954E+02
 21
3.90258712E+01
  0
LINE
  8
0
 62
7
 10
-2.37478954E+02
 20
7.90258712E+01
 11
-2.42548954E+02
 21
7.90258712E+01
  0
LINE
  8
0
 62
7
 10
-2.35648954E+02
 20
7.95258712E+01
 11
-2.42548954E+02
 21
7.95258712E+01
  0
LINE
  8
0
 62
7
 10
-2.42548954E+02
 20
4.55258712E+01
 11
-2.35648954E+02
 21
4.55258712E+01
  0
LINE
  8
0
 62
7
 10
-2.42548954E+02
 20
3.95258712E+01
 11
-2.35648954E+02
 21
3.95258712E+01
  0
LINE
  8
0
 62
7
 10
-2.42548954E+02
 20
3.52587120E+00
 11
-2.35648954E+02
 21
3.52587120E+00
  0
LINE
  8
0
 62
7
 10
-2.91228954E+02
 20
7.95258712E+01
 11
-2.91228954E+02
 21
3.52587120E+00
  0
LINE
  8
0
 62
7
 10
-2.90628954E+02
 20
7.90258712E+01
 11
-2.90628954E+02
 21
4.02587120E+00
  0
LINE
  8
0
 62
7
 10
-2.90368954E+02
 20
7.85258712E+01
 11
-2.90368954E+02
 21
4.65258712E+01
  0
LINE
  8
0
 62
7
 10
-2.88538954E+02
 20
7.80258712E+01
 11
-2.88538954E+02
 21
4.70258712E+01
  0
LINE
  8
0
 62
7
 10
-2.81468954E+02
 20
7.85258712E+01
 11
-2.81468954E+02
 21
4.65258712E+01
  0
LINE
  8
0
 62
7
 10
-2.81078954E+02
 20
7.95258712E+01
 11
-2.81078954E+02
 21
3.52587120E+00
  0
LINE
  8
0
 62
7
 10
-2.90228954E+02
 20
8.05258712E+01
 11
-2.82078954E+02
 21
8.05258712E+01
  0
LINE
  8
0
 62
7
 10
-2.89628954E+02
 20
8.00258712E+01
 11
-2.82078954E+02
 21
8.00258712E+01
  0
LINE
  8
0
 62
7
 10
-2.82078954E+02
 20
2.52587120E+00
 11
-2.90228954E+02
 21
2.52587120E+00
  0
LINE
  8
0
 62
7
 10
-2.82078954E+02
 20
3.02587120E+00
 11
-2.89628954E+02
 21
3.02587120E+00
  0
LINE
  8
0
 62
7
 10
-2.81468954E+02
 20
3.85258712E+01
 11
-2.81468954E+02
 21
4.52587120E+00
  0
LINE
  8
0
 62
7
 10
-2.88538954E+02
 20
3.80258712E+01
 11
-2.88538954E+02
 21
5.02587120E+00
  0
LINE
  8
0
 62
7
 10
-2.90368954E+02
 20
3.85258712E+01
 11
-2.90368954E+02
 21
4.52587120E+00
  0
LINE
  8
0
 62
7
 10
-2.82468954E+02
 20
4.02587120E+00
 11
-2.87538954E+02
 21
4.02587120E+00
  0
LINE
  8
0
 62
7
 10
-2.82468954E+02
 20
4.60258712E+01
 11
-2.87538954E+02
 21
4.60258712E+01
  0
LINE
  8
0
 62
7
 10
-2.82468954E+02
 20
3.90258712E+01
 11
-2.87538954E+02
 21
3.90258712E+01
  0
LINE
  8
0
 62
7
 10
-2.87538954E+02
 20
7.90258712E+01
 11
-2.82468954E+02
 21
7.90258712E+01
  0
LINE
  8
0
 62
7
 10
-2.95918954E+02
 20
8.95871200E-01
 11
-2.96398954E+02
 21
5.53258712E+01
  0
LINE
  8
0
 62
7
 10
-2.29088954E+02
 20
8.95871200E-01
 11
-2.28358954E+02
 21
8.52258712E+01
  0
LINE
  8
0
 62
7
 10
-2.89368954E+02
 20
7.95258712E+01
 11
-2.82468954E+02
 21
7.95258712E+01
  0
LINE
  8
0
 62
7
 10
-2.82468954E+02
 20
4.55258712E+01
 11
-2.89368954E+02
 21
4.55258712E+01
  0
LINE
  8
0
 62
7
 10
-2.82468954E+02
 20
3.95258712E+01
 11
-2.89368954E+02
 21
3.95258712E+01
  0
LINE
  8
0
 62
7
 10
-2.82468954E+02
 20
3.52587120E+00
 11
-2.89368954E+02
 21
3.52587120E+00
  0
LINE
  8
0
 62
7
 10
-2.80918954E+02
 20
-1.39741288E+01
 11
-2.44088954E+02
 21
-1.39741288E+01
  0
CIRCLE
  8
0
 62
7
 10
-2.11511807E+02
 20
1.13728693E+02
 40
2.88675117E+00
  0
CIRCLE
  8
0
 62
7
 10
-2.11511807E+02
 20
1.13728693E+02
 40
4.30717945E+00
  0
CIRCLE
  8
0
 62
7
 10
-2.11511807E+02
 20
1.13728693E+02
 40
4.99999905E+00
  0
LINE
  8
0
 62
7
 10
-2.10071807E+02
 20
1.11228693E+02
 11
-2.08631807E+02
 21
1.13728693E+02
  0
LINE
  8
0
 62
7
 10
-2.12951807E+02
 20
1.11228693E+02
 11
-2.10071807E+02
 21
1.11228693E+02
  0
LINE
  8
0
 62
7
 10
-2.12951807E+02
 20
1.11228693E+02
 11
-2.14391807E+02
 21
1.13728693E+02
  0
LINE
  8
0
 62
7
 10
-2.14391807E+02
 20
1.13728693E+02
 11
-2.12951807E+02
 21
1.16228693E+02
  0
LINE
  8
0
 62
7
 10
-2.12951807E+02
 20
1.16228693E+02
 11
-2.10071807E+02
 21
1.16228693E+02
  0
LINE
  8
0
 62
7
 10
-2.08631807E+02
 20
1.13728693E+02
 11
-2.10071807E+02
 21
1.16228693E+02
  0
CIRCLE
  8
0
 62
7
 10
-2.11511807E+02
 20
1.36728693E+02
 40
2.88675117E+00
  0
CIRCLE
  8
0
 62
7
 10
-2.11511807E+02
 20
1.36728693E+02
 40
4.30717945E+00
  0
CIRCLE
  8
0
 62
7
 10
-2.11511807E+02
 20
1.36728693E+02
 40
4.99999905E+00
  0
LINE
  8
0
 62
7
 10
-2.10071807E+02
 20
1.34228693E+02
 11
-2.08631807E+02
 21
1.36728693E+02
  0
LINE
  8
0
 62
7
 10
-2.12951807E+02
 20
1.34228693E+02
 11
-2.10071807E+02
 21
1.34228693E+02
  0
LINE
  8
0
 62
7
 10
-2.12951807E+02
 20
1.34228693E+02
 11
-2.14391807E+02
 21
1.36728693E+02
  0
LINE
  8
0
 62
7
 10
-2.14391807E+02
 20
1.36728693E+02
 11
-2.12951807E+02
 21
1.39228693E+02
  0
LINE
  8
0
 62
7
 10
-2.12951807E+02
 20
1.39228693E+02
 11
-2.10071807E+02
 21
1.39228693E+02
  0
LINE
  8
0
 62
7
 10
-2.08631807E+02
 20
1.36728693E+02
 11
-2.10071807E+02
 21
1.39228693E+02
  0
ARC
  8
0
 62
7
 10
-2.39874831E+02
 20
1.07724707E+02
 40
1.49884184E+00
 50
1.84547487E+02
 51
2.69842375E+02
  0
ARC
  8
0
 62
7
 10
-2.85145707E+02
 20
1.07727546E+02
 40
1.50169006E+00
 50
2.70257640E+02
 51
3.55352498E+02
  0
ARC
  8
0
 62
7
 10
-2.09508954E+02
 20
8.02258712E+01
 40
4.50000090E+00
 50
2.70000000E+02
 51
9.00000002E+01
  0
ARC
  8
0
 62
7
 10
-2.13508954E+02
 20
8.02258712E+01
 40
4.50000090E+00
 50
9.00000002E+01
 51
2.70000000E+02
  0
ARC
  8
0
 62
7
 10
-2.13508954E+02
 20
1.70225871E+02
 40
4.50000090E+00
 50
9.00000002E+01
 51
2.70000000E+02
  0
ARC
  8
0
 62
7
 10
-2.09508954E+02
 20
1.70225871E+02
 40
4.50000090E+00
 50
2.70000000E+02
 51
9.00000002E+01
  0
CIRCLE
  8
0
 62
7
 10
-2.11511807E+02
 20
1.13728693E+02
 40
5.50000000E+00
  0
CIRCLE
  8
0
 62
7
 10
-2.11511807E+02
 20
1.36728693E+02
 40
5.50000000E+00
  0
LINE
  8
0
 62
7
 10
-2.26508954E+02
 20
7.02258712E+01
 11
-2.25888954E+02
 21
7.17258712E+01
  0
LINE
  8
0
 62
7
 10
-2.28468954E+02
 20
7.21858712E+01
 11
-2.26508954E+02
 21
7.02258712E+01
  0
LINE
  8
0
 62
7
 10
-2.28448954E+02
 20
7.42858712E+01
 11
-2.25888954E+02
 21
7.17258712E+01
  0
LINE
  8
0
 62
7
 10
-2.17508954E+02
 20
1.02225871E+02
 11
-2.17508954E+02
 21
1.00225871E+02
  0
LINE
  8
0
 62
7
 10
-2.19008954E+02
 20
1.02225871E+02
 11
-2.19008954E+02
 21
1.00225871E+02
  0
LINE
  8
0
 62
7
 10
-2.19008954E+02
 20
1.50225871E+02
 11
-2.19008954E+02
 21
1.48225871E+02
  0
LINE
  8
0
 62
7
 10
-2.37628954E+02
 20
1.10835871E+02
 11
-2.38508954E+02
 21
1.10225871E+02
  0
LINE
  8
0
 62
7
 10
-2.37628954E+02
 20
1.39605871E+02
 11
-2.38508954E+02
 21
1.40225871E+02
  0
LINE
  8
0
 62
7
 10
-2.30508954E+02
 20
1.39605871E+02
 11
-2.37628954E+02
 21
1.39605871E+02
  0
LINE
  8
0
 62
7
 10
-2.30508954E+02
 20
1.10835871E+02
 11
-2.37628954E+02
 21
1.10835871E+02
  0
LINE
  8
0
 62
7
 10
-2.30508954E+02
 20
1.10225871E+02
 11
-2.38508954E+02
 21
1.10225871E+02
  0
LINE
  8
0
 62
7
 10
-2.30508954E+02
 20
1.40225871E+02
 11
-2.38508954E+02
 21
1.40225871E+02
  0
LINE
  8
0
 62
7
 10
-2.37628954E+02
 20
1.39605871E+02
 11
-2.37628954E+02
 21
1.10835871E+02
  0
LINE
  8
0
 62
7
 10
-2.38508954E+02
 20
1.40225871E+02
 11
-2.38508954E+02
 21
1.10225871E+02
  0
LINE
  8
0
 62
7
 10
-2.99628954E+02
 20
1.10835871E+02
 11
-3.00508954E+02
 21
1.10225871E+02
  0
LINE
  8
0
 62
7
 10
-2.87388954E+02
 20
1.10835871E+02
 11
-2.86508954E+02
 21
1.10225871E+02
  0
LINE
  8
0
 62
7
 10
-2.87388954E+02
 20
1.39605871E+02
 11
-2.86508954E+02
 21
1.40225871E+02
  0
LINE
  8
0
 62
7
 10
-3.00508954E+02
 20
1.40225871E+02
 11
-2.99628954E+02
 21
1.39605871E+02
  0
LINE
  8
0
 62
7
 10
-2.99628954E+02
 20
1.39605871E+02
 11
-2.87388954E+02
 21
1.39605871E+02
  0
LINE
  8
0
 62
7
 10
-2.99628954E+02
 20
1.10835871E+02
 11
-2.87388954E+02
 21
1.10835871E+02
  0
LINE
  8
0
 62
7
 10
-3.00508954E+02
 20
1.10225871E+02
 11
-2.86508954E+02
 21
1.10225871E+02
  0
LINE
  8
0
 62
7
 10
-3.00508954E+02
 20
1.40225871E+02
 11
-2.86508954E+02
 21
1.40225871E+02
  0
LINE
  8
0
 62
7
 10
-2.87388954E+02
 20
1.39605871E+02
 11
-2.87388954E+02
 21
1.10835871E+02
  0
LINE
  8
0
 62
7
 10
-2.99628954E+02
 20
1.39605871E+02
 11
-2.99628954E+02
 21
1.10835871E+02
  0
LINE
  8
0
 62
7
 10
-2.86508954E+02
 20
1.40225871E+02
 11
-2.86508954E+02
 21
1.10225871E+02
  0
LINE
  8
0
 62
7
 10
-3.00508954E+02
 20
1.40225871E+02
 11
-3.00508954E+02
 21
1.10225871E+02
  0
LINE
  8
0
 62
7
 10
-3.02508954E+02
 20
1.51225871E+02
 11
-2.91508954E+02
 21
1.51225871E+02
  0
LINE
  8
0
 62
7
 10
-2.91508954E+02
 20
1.51225871E+02
 11
-2.91508954E+02
 21
1.50225871E+02
  0
LINE
  8
0
 62
7
 10
-3.02508954E+02
 20
1.51225871E+02
 11
-3.02508954E+02
 21
1.50225871E+02
  0
LINE
  8
0
 62
7
 10
-2.80738954E+02
 20
1.45725871E+02
 11
-2.44278954E+02
 21
1.45725871E+02
  0
LINE
  8
0
 62
7
 10
-2.45888954E+02
 20
1.47225871E+02
 11
-2.44268954E+02
 21
1.45605871E+02
  0
LINE
  8
0
 62
7
 10
-2.80738954E+02
 20
1.45725871E+02
 11
-2.78998954E+02
 21
1.47225871E+02
  0
LINE
  8
0
 62
7
 10
-2.44268954E+02
 20
1.45605871E+02
 11
-2.41368954E+02
 21
1.07605871E+02
  0
LINE
  8
0
 62
7
 10
-2.80738954E+02
 20
1.45725871E+02
 11
-2.83648954E+02
 21
1.07605871E+02
  0
LINE
  8
0
 62
7
 10
-2.78998954E+02
 20
1.47225871E+02
 11
-2.45888954E+02
 21
1.47225871E+02
  0
LINE
  8
0
 62
7
 10
-2.93088954E+02
 20
1.05225871E+02
 11
-2.31928954E+02
 21
1.05225871E+02
  0
LINE
  8
0
 62
7
 10
-2.31928954E+02
 20
1.05225871E+02
 11
-2.32928954E+02
 21
1.06225871E+02
  0
LINE
  8
0
 62
7
 10
-2.93088954E+02
 20
1.05225871E+02
 11
-2.92088954E+02
 21
1.06225871E+02
  0
LINE
  8
0
 62
7
 10
-2.92088954E+02
 20
1.06225871E+02
 11
-2.32928954E+02
 21
1.06225871E+02
  0
LINE
  8
0
 62
7
 10
-2.31928954E+02
 20
1.05225871E+02
 11
-2.31928954E+02
 21
1.00225871E+02
  0
LINE
  8
0
 62
7
 10
-2.93088954E+02
 20
1.05225871E+02
 11
-2.93088954E+02
 21
1.00225871E+02
  0
LINE
  8
0
 62
7
 10
-3.06008954E+02
 20
1.50225871E+02
 11
-3.06008954E+02
 21
1.00225871E+02
  0
LINE
  8
0
 62
7
 10
-3.07508954E+02
 20
1.48725871E+02
 11
-2.17508954E+02
 21
1.48725871E+02
  0
LINE
  8
0
 62
7
 10
-3.02008954E+02
 20
8.62258712E+01
 11
-2.23008954E+02
 21
8.62258712E+01
  0
LINE
  8
0
 62
7
 10
-2.23008954E+02
 20
8.62258712E+01
 11
-2.24008954E+02
 21
8.52258712E+01
  0
LINE
  8
0
 62
7
 10
-3.02008954E+02
 20
8.62258712E+01
 11
-3.01008954E+02
 21
8.52258712E+01
  0
LINE
  8
0
 62
7
 10
-2.23008954E+02
 20
1.00225871E+02
 11
-2.23008954E+02
 21
8.62258712E+01
  0
LINE
  8
0
 62
7
 10
-3.02008954E+02
 20
1.00225871E+02
 11
-3.02008954E+02
 21
8.62258712E+01
  0
LINE
  8
0
 62
7
 10
-2.31928954E+02
 20
1.00225871E+02
 11
-2.17508954E+02
 21
1.00225871E+02
  0
LINE
  8
0
 62
7
 10
-3.07508954E+02
 20
1.00225871E+02
 11
-2.93088954E+02
 21
1.00225871E+02
  0
LINE
  8
0
 62
7
 10
-2.19008954E+02
 20
1.50225871E+02
 11
-2.17508954E+02
 21
1.48725871E+02
  0
LINE
  8
0
 62
7
 10
-3.07508954E+02
 20
1.48725871E+02
 11
-3.06008954E+02
 21
1.50225871E+02
  0
LINE
  8
0
 62
7
 10
-3.01008954E+02
 20
8.52258712E+01
 11
-2.24008954E+02
 21
8.52258712E+01
  0
LINE
  8
0
 62
7
 10
-3.06008954E+02
 20
1.50225871E+02
 11
-2.19008954E+02
 21
1.50225871E+02
  0
LINE
  8
0
  6
CENTER
 62
2
 10
-2.62508954E+02
 20
1.55225871E+02
 11
-2.62508954E+02
 21
-3.51641288E+01
  0
LINE
  8
0
 62
7
 10
-3.07508954E+02
 20
1.48725871E+02
 11
-3.07508954E+02
 21
1.00225871E+02
  0
LINE
  8
0
 62
7
 10
-2.17508954E+02
 20
1.48725871E+02
 11
-2.17508954E+02
 21
1.48225871E+02
  0
LINE
  8
0
 62
7
 10
-1.94008954E+02
 20
7.48458712E+01
 11
-1.92508954E+02
 21
7.42258712E+01
  0
LINE
  8
0
 62
7
 10
-1.96508954E+02
 20
7.02258712E+01
 11
-1.97128954E+02
 21
7.17258712E+01
  0
LINE
  8
0
 62
7
 10
-2.26508954E+02
 20
1.80225871E+02
 11
-2.25888954E+02
 21
1.78725871E+02
  0
LINE
  8
0
 62
7
 10
-1.96508954E+02
 20
1.80225871E+02
 11
-1.97128954E+02
 21
1.78725871E+02
  0
LINE
  8
0
 62
7
 10
-1.94008954E+02
 20
1.75605871E+02
 11
-1.92508954E+02
 21
1.76225871E+02
  0
LINE
  8
0
 62
7
 10
-2.29008954E+02
 20
1.75605871E+02
 11
-2.30508954E+02
 21
1.76225871E+02
  0
LINE
  8
0
 62
7
 10
-2.23008954E+02
 20
9.22258712E+01
 11
-1.96008954E+02
 21
9.22258712E+01
  0
LINE
  8
0
 62
7
 10
-2.27008954E+02
 20
1.58225871E+02
 11
-1.96008954E+02
 21
1.58225871E+02
  0
LINE
  8
0
  6
CENTER
 62
2
 10
-2.13508954E+02
 20
7.37258712E+01
 11
-2.13508954E+02
 21
8.67258712E+01
  0
LINE
  8
0
  6
CENTER
 62
2
 10
-2.09508954E+02
 20
7.37258712E+01
 11
-2.09508954E+02
 21
8.67258712E+01
  0
LINE
  8
0
 62
7
 10
-2.09508954E+02
 20
8.47258712E+01
 11
-2.13508954E+02
 21
8.47258712E+01
  0
LINE
  8
0
 62
7
 10
-2.09508954E+02
 20
7.57258712E+01
 11
-2.13508954E+02
 21
7.57258712E+01
  0
LINE
  8
0
  6
CENTER
 62
2
 10
-2.01008954E+02
 20
8.02258712E+01
 11
-2.22008954E+02
 21
8.02258712E+01
  0
LINE
  8
0
 62
7
 10
-1.94008954E+02
 20
7.48458712E+01
 11
-1.97128954E+02
 21
7.17258712E+01
  0
LINE
  8
0
 62
7
 10
-1.97128954E+02
 20
7.17258712E+01
 11
-2.25888954E+02
 21
7.17258712E+01
  0
LINE
  8
0
 62
7
 10
-1.94008954E+02
 20
7.48458712E+01
 11
-1.94008954E+02
 21
9.92258712E+01
  0
LINE
  8
0
 62
7
 10
-1.92508954E+02
 20
7.42258712E+01
 11
-1.96508954E+02
 21
7.02258712E+01
  0
LINE
  8
0
 62
7
 10
-1.92508954E+02
 20
7.42258712E+01
 11
-1.92508954E+02
 21
9.92258712E+01
  0
LINE
  8
0
 62
7
 10
-1.96508954E+02
 20
7.02258712E+01
 11
-2.26508954E+02
 21
7.02258712E+01
  0
LINE
  8
0
  6
CENTER
 62
2
 10
-2.13508954E+02
 20
1.76725871E+02
 11
-2.13508954E+02
 21
1.63725871E+02
  0
LINE
  8
0
  6
CENTER
 62
2
 10
-2.09508954E+02
 20
1.76725871E+02
 11
-2.09508954E+02
 21
1.63725871E+02
  0
LINE
  8
0
 62
7
 10
-2.09508954E+02
 20
1.65725871E+02
 11
-2.13508954E+02
 21
1.65725871E+02
  0
LINE
  8
0
 62
7
 10
-2.09508954E+02
 20
1.74725871E+02
 11
-2.13508954E+02
 21
1.74725871E+02
  0
LINE
  8
0
  6
CENTER
 62
2
 10
-2.01008954E+02
 20
1.70225871E+02
 11
-2.22008954E+02
 21
1.70225871E+02
  0
LINE
  8
0
 62
7
 10
-1.94008954E+02
 20
1.75605871E+02
 11
-1.97128954E+02
 21
1.78725871E+02
  0
LINE
  8
0
 62
7
 10
-2.29008954E+02
 20
1.75605871E+02
 11
-2.25888954E+02
 21
1.78725871E+02
  0
LINE
  8
0
 62
7
 10
-1.97128954E+02
 20
1.78725871E+02
 11
-2.25888954E+02
 21
1.78725871E+02
  0
LINE
  8
0
 62
7
 10
-2.29008954E+02
 20
1.75605871E+02
 11
-2.29008954E+02
 21
1.50225871E+02
  0
LINE
  8
0
 62
7
 10
-1.94008954E+02
 20
1.75605871E+02
 11
-1.94008954E+02
 21
1.51225871E+02
  0
LINE
  8
0
 62
7
 10
-2.30508954E+02
 20
1.76225871E+02
 11
-2.26508954E+02
 21
1.80225871E+02
  0
LINE
  8
0
 62
7
 10
-1.92508954E+02
 20
1.76225871E+02
 11
-1.96508954E+02
 21
1.80225871E+02
  0
LINE
  8
0
 62
7
 10
-2.30508954E+02
 20
1.76225871E+02
 11
-2.30508954E+02
 21
1.50225871E+02
  0
LINE
  8
0
 62
7
 10
-1.92508954E+02
 20
1.76225871E+02
 11
-1.92508954E+02
 21
1.51225871E+02
  0
LINE
  8
0
 62
7
 10
-1.96508954E+02
 20
1.80225871E+02
 11
-2.26508954E+02
 21
1.80225871E+02
  0
LINE
  8
0
 62
7
 10
-1.84508954E+02
 20
1.40225871E+02
 11
-1.85388954E+02
 21
1.39615871E+02
  0
LINE
  8
0
 62
7
 10
-1.85388954E+02
 20
1.10835871E+02
 11
-1.84508954E+02
 21
1.10225871E+02
  0
LINE
  8
0
 62
7
 10
-1.92508954E+02
 20
1.10835871E+02
 11
-1.85388954E+02
 21
1.10835871E+02
  0
LINE
  8
0
 62
7
 10
-1.92508954E+02
 20
1.39605871E+02
 11
-1.85388954E+02
 21
1.39605871E+02
  0
LINE
  8
0
 62
7
 10
-1.85388954E+02
 20
1.39605871E+02
 11
-1.85388954E+02
 21
1.10835871E+02
  0
LINE
  8
0
 62
7
 10
-1.92508954E+02
 20
1.10225871E+02
 11
-1.84508954E+02
 21
1.10225871E+02
  0
LINE
  8
0
 62
7
 10
-1.92508954E+02
 20
1.40225871E+02
 11
-1.84508954E+02
 21
1.40225871E+02
  0
LINE
  8
0
 62
7
 10
-2.04008954E+02
 20
1.48225871E+02
 11
-2.04008954E+02
 21
1.50225871E+02
  0
LINE
  8
0
 62
7
 10
-2.05508954E+02
 20
1.02225871E+02
 11
-2.05508954E+02
 21
1.01725871E+02
  0
LINE
  8
0
 62
7
 10
-1.84508954E+02
 20
1.40225871E+02
 11
-1.84508954E+02
 21
1.10225871E+02
  0
LINE
  8
0
 62
7
 10
-1.89508954E+02
 20
9.92258712E+01
 11
-1.89508954E+02
 21
1.00225871E+02
  0
LINE
  8
0
 62
7
 10
-2.00508954E+02
 20
9.92258712E+01
 11
-2.00508954E+02
 21
1.00225871E+02
  0
LINE
  8
0
 62
7
 10
-2.00508954E+02
 20
9.92258712E+01
 11
-1.89508954E+02
 21
9.92258712E+01
  0
LINE
  8
0
 62
7
 10
-2.04008954E+02
 20
1.00225871E+02
 11
-2.04008954E+02
 21
1.02225871E+02
  0
LINE
  8
0
 62
7
 10
-2.05508954E+02
 20
1.01725871E+02
 11
-2.04008954E+02
 21
1.00225871E+02
  0
LINE
  8
0
 62
7
 10
-2.00508954E+02
 20
1.51225871E+02
 11
-1.89508954E+02
 21
1.51225871E+02
  0
LINE
  8
0
 62
7
 10
-1.89508954E+02
 20
1.51225871E+02
 11
-1.89508954E+02
 21
1.50225871E+02
  0
LINE
  8
0
 62
7
 10
-2.00508954E+02
 20
1.51225871E+02
 11
-2.00508954E+02
 21
1.50225871E+02
  0
LINE
  8
0
 62
7
 10
-2.05508954E+02
 20
1.48725871E+02
 11
-2.04008954E+02
 21
1.50225871E+02
  0
LINE
  8
0
 62
7
 10
-2.05508954E+02
 20
1.48725871E+02
 11
-2.05508954E+02
 21
1.48225871E+02
  0
LINE
  8
0
 62
7
 10
-1.92508954E+02
 20
1.48225871E+02
 11
-2.30508954E+02
 21
1.48225871E+02
  0
LINE
  8
0
  6
CENTER
 62
2
 10
-2.03008954E+02
 20
1.36725871E+02
 11
-2.20008954E+02
 21
1.36725871E+02
  0
LINE
  8
0
 62
7
 10
-2.02028954E+02
 20
1.07725871E+02
 11
-1.92508954E+02
 21
1.02225871E+02
  0
LINE
  8
0
 62
7
 10
-2.20978954E+02
 20
1.07725871E+02
 11
-2.30508954E+02
 21
1.02225871E+02
  0
LINE
  8
0
 62
7
 10
-2.20978954E+02
 20
1.42725871E+02
 11
-2.30508954E+02
 21
1.48225871E+02
  0
LINE
  8
0
 62
7
 10
-2.02028954E+02
 20
1.42725871E+02
 11
-1.92508954E+02
 21
1.48225871E+02
  0
LINE
  8
0
 62
7
 10
-2.20978954E+02
 20
1.42725871E+02
 11
-2.20978954E+02
 21
1.07725871E+02
  0
LINE
  8
0
 62
7
 10
-2.02028954E+02
 20
1.42725871E+02
 11
-2.02028954E+02
 21
1.07725871E+02
  0
LINE
  8
0
 62
7
 10
-2.02028954E+02
 20
1.42725871E+02
 11
-2.20978954E+02
 21
1.42725871E+02
  0
LINE
  8
0
 62
7
 10
-2.02028954E+02
 20
1.07725871E+02
 11
-2.20978954E+02
 21
1.07725871E+02
  0
LINE
  8
0
 62
7
 10
-1.92508954E+02
 20
1.48225871E+02
 11
-1.92508954E+02
 21
1.02225871E+02
  0
LINE
  8
0
 62
7
 10
-2.30508954E+02
 20
1.48225871E+02
 11
-2.30508954E+02
 21
1.02225871E+02
  0
LINE
  8
0
  6
CENTER
 62
2
 10
-2.11508954E+02
 20
1.85225871E+02
 11
-2.11508954E+02
 21
6.52258712E+01
  0
LINE
  8
0
 62
7
 10
-1.92508954E+02
 20
1.02225871E+02
 11
-2.30508954E+02
 21
1.02225871E+02
  0
LINE
  8
0
  6
CENTER
 62
2
 10
-2.03008954E+02
 20
1.13725871E+02
 11
-2.20008954E+02
 21
1.13725871E+02
  0
POLYLINE
  8
0
 62
7
 66
1
  0
VERTEX
  8
0
 62
7
 10
-2.96548954E+02
 20
7.31458712E+01
  0
VERTEX
  8
0
 62
7
 10
-2.96329451E+02
 20
7.23827298E+01
  0
VERTEX
  8
0
 62
7
 10
-2.96128016E+02
 20
7.16141520E+01
  0
VERTEX
  8
0
 62
7
 10
-2.95944999E+02
 20
7.08406048E+01
  0
VERTEX
  8
0
 62
7
 10
-2.95780748E+02
 20
7.00625554E+01
  0
VERTEX
  8
0
 62
7
 10
-2.95635616E+02
 20
6.92804710E+01
  0
VERTEX
  8
0
 62
7
 10
-2.95509950E+02
 20
6.84948185E+01
  0
VERTEX
  8
0
 62
7
 10
-2.95404101E+02
 20
6.77060652E+01
  0
VERTEX
  8
0
 62
7
 10
-2.95318419E+02
 20
6.69146781E+01
  0
VERTEX
  8
0
 62
7
 10
-2.95253253E+02
 20
6.61211244E+01
  0
VERTEX
  8
0
 62
7
 10
-2.95208954E+02
 20
6.53258712E+01
  0
VERTEX
  8
0
 62
7
 10
-2.95183248E+02
 20
6.43148380E+01
  0
VERTEX
  8
0
 62
7
 10
-2.95191384E+02
 20
6.33031088E+01
  0
VERTEX
  8
0
 62
7
 10
-2.95232730E+02
 20
6.22918641E+01
  0
VERTEX
  8
0
 62
7
 10
-2.95306653E+02
 20
6.12822842E+01
  0
VERTEX
  8
0
 62
7
 10
-2.95412524E+02
 20
6.02755496E+01
  0
VERTEX
  8
0
 62
7
 10
-2.95549708E+02
 20
5.92728407E+01
  0
VERTEX
  8
0
 62
7
 10
-2.95717575E+02
 20
5.82753380E+01
  0
VERTEX
  8
0
 62
7
 10
-2.95915493E+02
 20
5.72842219E+01
  0
VERTEX
  8
0
 62
7
 10
-2.96142830E+02
 20
5.63006728E+01
  0
VERTEX
  8
0
 62
7
 10
-2.96398954E+02
 20
5.53258712E+01
  0
SEQEND
  8
0
  0
LINE
  8
0
 62
4
 10
-2.12989545E+01
 20
1.32225871E+02
 11
-2.12989545E+01
 21
1.18225871E+02
  0
LINE
  8
0
 62
7
 10
-6.21895446E+00
 20
-1.39741288E+01
 11
3.06210455E+01
 21
-1.39741288E+01
  0
ARC
  8
0
 62
7
 10
3.06171746E+01
 20
1.03034428E+00
 40
1.50044736E+01
 50
2.70014782E+02
 51
3.59486497E+02
  0
ARC
  8
0
 62
4
 10
-3.07989529E+01
 20
1.44225873E+02
 40
1.99999847E+00
 50
3.59999956E+02
 51
9.00000002E+01
  0
ARC
  8
0
 62
4
 10
-3.07989529E+01
 20
1.06225870E+02
 40
1.99999847E+00
 50
2.70000000E+02
 51
4.37132272E-05
  0
LINE
  8
0
 62
4
 10
-5.42989545E+01
 20
1.46475871E+02
 11
-5.42989545E+01
 21
1.03975871E+02
  0
LINE
  8
0
 62
4
 10
-5.52989545E+01
 20
1.04975871E+02
 11
-5.42989545E+01
 21
1.03975871E+02
  0
LINE
  8
0
 62
4
 10
-5.52989545E+01
 20
1.45475871E+02
 11
-5.42989545E+01
 21
1.46475871E+02
  0
LINE
  8
0
 62
4
 10
-5.22989545E+01
 20
1.04225871E+02
 11
-3.07989545E+01
 21
1.04225871E+02
  0
LINE
  8
0
 62
4
 10
-5.22989545E+01
 20
1.46225871E+02
 11
-3.07989545E+01
 21
1.46225871E+02
  0
LINE
  8
0
 62
4
 10
-2.87989545E+01
 20
1.44225871E+02
 11
-2.87989545E+01
 21
1.06225871E+02
  0
LINE
  8
0
 62
4
 10
-5.22989545E+01
 20
1.46475871E+02
 11
-5.22989545E+01
 21
1.03975871E+02
  0
LINE
  8
0
 62
4
 10
-5.42989545E+01
 20
1.03975871E+02
 11
-5.22989545E+01
 21
1.03975871E+02
  0
LINE
  8
0
 62
4
 10
-5.42989545E+01
 20
1.46475871E+02
 11
-5.22989545E+01
 21
1.46475871E+02
  0
LINE
  8
0
 62
4
 10
-5.52989545E+01
 20
1.45475871E+02
 11
-5.52989545E+01
 21
1.04975871E+02
  0
LINE
  8
0
 62
4
 10
-2.87989545E+01
 20
1.18225871E+02
 11
-2.12989545E+01
 21
1.18225871E+02
  0
LINE
  8
0
 62
4
 10
-2.87989545E+01
 20
1.32225871E+02
 11
-2.12989545E+01
 21
1.32225871E+02
  0
LINE
  8
0
 62
6
 10
-2.87989545E+01
 20
1.18225871E+02
 11
-2.12989545E+01
 21
1.32225871E+02
  0
LINE
  8
0
 62
6
 10
-2.87989545E+01
 20
1.32225871E+02
 11
-2.12989545E+01
 21
1.18225871E+02
  0
LINE
  8
0
  6
CENTER
 62
2
 10
-6.02989545E+01
 20
1.25225871E+02
 11
7.70738342E+01
 21
1.25225871E+02
  0
LINE
  8
0
 62
7
 10
3.07710455E+01
 20
3.55358712E+01
 11
3.07710455E+01
 21
3.52587120E+00
  0
LINE
  8
0
 62
7
 10
-6.37895446E+00
 20
3.55358712E+01
 11
-6.37895446E+00
 21
3.52587120E+00
  0
ARC
  8
0
 62
7
 10
-1.46631673E+01
 20
4.65316583E+01
 40
1.00580380E+00
 50
1.80329668E+02
 51
2.69670332E+02
  0
ARC
  8
0
 62
7
 10
-1.28260574E+01
 20
4.70287682E+01
 40
1.00290122E+00
 50
1.80165508E+02
 51
2.69834492E+02
  0
ARC
  8
0
 62
7
 10
-1.55181143E+01
 20
7.95250311E+01
 40
1.00084048E+00
 50
9.00000002E+01
 51
1.79951905E+02
  0
ARC
  8
0
 62
7
 10
-1.49195345E+01
 20
7.90264513E+01
 40
9.99420103E-01
 50
9.00000002E+01
 51
1.80033255E+02
  0
ARC
  8
0
 62
7
 10
-1.46659803E+01
 20
7.85228970E+01
 40
1.00297859E+00
 50
9.01699022E+01
 51
1.79830098E+02
  0
ARC
  8
0
 62
7
 10
-1.28288786E+01
 20
7.80257953E+01
 40
1.00007592E+00
 50
9.00000002E+01
 51
1.79995651E+02
  0
ARC
  8
0
 62
7
 10
-7.37176526E+00
 20
7.95288442E+01
 40
9.97052923E-01
 50
4.59840492E+01
 51
9.04131320E+01
  0
ARC
  8
0
 62
7
 10
-7.37186289E+00
 20
7.90288910E+01
 40
9.97005441E-01
 50
4.43527289E+01
 51
9.04075411E+01
  0
ARC
  8
0
 62
7
 10
-7.75541315E+00
 20
7.85294125E+01
 40
9.96464984E-01
 50
3.59796378E+02
 51
9.02036225E+01
  0
ARC
  8
0
 62
7
 10
-7.75541315E+00
 20
7.80294125E+01
 40
9.96464984E-01
 50
3.59796378E+02
 51
9.02036225E+01
  0
ARC
  8
0
 62
7
 10
-1.55152877E+01
 20
3.52953792E+00
 40
1.00367342E+00
 50
1.80209319E+02
 51
2.69790681E+02
  0
ARC
  8
0
 62
7
 10
-1.49167039E+01
 20
4.02812174E+00
 40
1.00225307E+00
 50
1.80128657E+02
 51
2.69871343E+02
  0
ARC
  8
0
 62
7
 10
-1.46631597E+01
 20
4.53166596E+00
 40
1.00581145E+00
 50
1.80330099E+02
 51
2.69669901E+02
  0
ARC
  8
0
 62
7
 10
-1.46659803E+01
 20
3.85228970E+01
 40
1.00297859E+00
 50
9.01699022E+01
 51
1.79830098E+02
  0
ARC
  8
0
 62
7
 10
-1.28260498E+01
 20
5.02877587E+00
 40
1.00290887E+00
 50
1.80165943E+02
 51
2.69834058E+02
  0
ARC
  8
0
 62
7
 10
-7.37660897E+00
 20
3.52352571E+00
 40
9.97657266E-01
 50
2.69865298E+02
 51
1.34702426E-01
  0
ARC
  8
0
 62
7
 10
-7.37660897E+00
 20
4.02352571E+00
 40
9.97657266E-01
 50
2.69865298E+02
 51
1.34702426E-01
  0
ARC
  8
0
 62
7
 10
-7.75825214E+00
 20
4.52516888E+00
 40
9.99297927E-01
 50
2.70000000E+02
 51
4.02682315E-02
  0
ARC
  8
0
 62
7
 10
-7.75825214E+00
 20
5.02516888E+00
 40
9.99297927E-01
 50
2.70000000E+02
 51
4.02682315E-02
  0
ARC
  8
0
 62
7
 10
-1.28288786E+01
 20
3.80257953E+01
 40
1.00007592E+00
 50
9.00000002E+01
 51
1.79995651E+02
  0
ARC
  8
0
 62
7
 10
3.90615463E+01
 20
4.65253705E+01
 40
9.99499389E-01
 50
2.70000000E+02
 51
2.87044763E-02
  0
ARC
  8
0
 62
7
 10
3.72293149E+01
 20
4.70276018E+01
 40
1.00173214E+00
 50
2.70098987E+02
 51
3.59901013E+02
  0
ARC
  8
0
 62
7
 10
3.99164977E+01
 20
7.95313234E+01
 40
9.94562776E-01
 50
3.59685904E+02
 51
9.03140956E+01
  0
ARC
  8
0
 62
7
 10
3.93229167E+01
 20
7.90277424E+01
 40
9.98130566E-01
 50
3.59892588E+02
 51
9.01074120E+01
  0
ARC
  8
0
 62
7
 10
3.90643770E+01
 20
7.85292027E+01
 40
9.96674092E-01
 50
3.59808483E+02
 51
9.01915171E+01
  0
ARC
  8
0
 62
7
 10
3.72321393E+01
 20
7.80269650E+01
 40
9.98906819E-01
 50
3.59937262E+02
 51
9.00627373E+01
  0
ARC
  8
0
 62
7
 10
3.17741589E+01
 20
7.95280205E+01
 40
9.97855607E-01
 50
9.01787653E+01
 51
1.33995578E+02
  0
ARC
  8
0
 62
7
 10
3.17742820E+01
 20
7.90280449E+01
 40
9.97831578E-01
 50
9.01858396E+01
 51
1.35625700E+02
  0
ARC
  8
0
 62
7
 10
3.21538086E+01
 20
7.85231082E+01
 40
1.00276683E+00
 50
9.01578730E+01
 51
1.79842127E+02
  0
ARC
  8
0
 62
7
 10
3.21538086E+01
 20
7.80231082E+01
 40
1.00276683E+00
 50
9.01578730E+01
 51
1.79842127E+02
  0
ARC
  8
0
 62
7
 10
3.99136533E+01
 20
3.52326344E+00
 40
9.97395652E-01
 50
2.69850196E+02
 51
1.49803785E-01
  0
ARC
  8
0
 62
7
 10
3.93200825E+01
 20
4.02683427E+00
 40
1.00096353E+00
 50
2.70000000E+02
 51
3.59944873E+02
  0
ARC
  8
0
 62
7
 10
3.90615386E+01
 20
4.52537812E+00
 40
9.99507040E-01
 50
2.70000000E+02
 51
2.82654501E-02
  0
ARC
  8
0
 62
7
 10
3.90643770E+01
 20
3.85292027E+01
 40
9.96674092E-01
 50
3.59808483E+02
 51
9.01915171E+01
  0
ARC
  8
0
 62
7
 10
3.72293073E+01
 20
5.02760948E+00
 40
1.00173979E+00
 50
2.70099423E+02
 51
3.59900577E+02
  0
ARC
  8
0
 62
7
 10
3.17748540E+01
 20
3.52967965E+00
 40
1.00381568E+00
 50
1.80217379E+02
 51
2.69782621E+02
  0
ARC
  8
0
 62
7
 10
3.17748540E+01
 20
4.02967965E+00
 40
1.00381568E+00
 50
1.80217379E+02
 51
2.69782621E+02
  0
ARC
  8
0
 62
7
 10
3.21566297E+01
 20
4.53145540E+00
 40
1.00559970E+00
 50
1.80318171E+02
 51
2.69681829E+02
  0
ARC
  8
0
 62
7
 10
3.21566297E+01
 20
5.03145540E+00
 40
1.00559970E+00
 50
1.80318171E+02
 51
2.69681829E+02
  0
ARC
  8
0
 62
7
 10
3.72321393E+01
 20
3.80269650E+01
 40
9.98906819E-01
 50
3.59937262E+02
 51
9.00627373E+01
  0
ARC
  8
0
 62
7
 10
-6.21508348E+00
 20
1.03034428E+00
 40
1.50044736E+01
 50
1.80513503E+02
 51
2.69985218E+02
  0
LINE
  8
0
 62
4
 10
4.12104554E+00
 20
-1.49741288E+01
 11
2.02710455E+01
 21
-1.49741288E+01
  0
LINE
  8
0
 62
7
 10
-1.65189545E+01
 20
7.95258712E+01
 11
-1.65189545E+01
 21
3.52587120E+00
  0
LINE
  8
0
 62
7
 10
-1.59189545E+01
 20
7.90258712E+01
 11
-1.59189545E+01
 21
4.02587120E+00
  0
LINE
  8
0
 62
7
 10
-1.56689545E+01
 20
7.85258712E+01
 11
-1.56689545E+01
 21
4.65258712E+01
  0
LINE
  8
0
 62
7
 10
-1.38289545E+01
 20
7.80258712E+01
 11
-1.38289545E+01
 21
4.70258712E+01
  0
LINE
  8
0
 62
7
 10
-6.75895446E+00
 20
7.85258712E+01
 11
-6.75895446E+00
 21
6.73758712E+01
  0
LINE
  8
0
 62
7
 10
-6.37895446E+00
 20
7.13658712E+01
 11
-6.37895446E+00
 21
6.73758712E+01
  0
LINE
  8
0
 62
7
 10
-1.55189545E+01
 20
8.05258712E+01
 11
-7.37895446E+00
 21
8.05258712E+01
  0
LINE
  8
0
 62
7
 10
-1.49189545E+01
 20
8.00258712E+01
 11
-7.37895446E+00
 21
8.00258712E+01
  0
LINE
  8
0
 62
7
 10
-7.37895446E+00
 20
2.52587120E+00
 11
-1.55189545E+01
 21
2.52587120E+00
  0
LINE
  8
0
 62
7
 10
-7.37895446E+00
 20
3.02587120E+00
 11
-1.49189545E+01
 21
3.02587120E+00
  0
LINE
  8
0
 62
7
 10
-6.75895446E+00
 20
3.59858712E+01
 11
-6.75895446E+00
 21
4.52587120E+00
  0
LINE
  8
0
 62
7
 10
-1.38289545E+01
 20
3.80258712E+01
 11
-1.38289545E+01
 21
5.02587120E+00
  0
LINE
  8
0
 62
7
 10
-1.56689545E+01
 20
3.85258712E+01
 11
-1.56689545E+01
 21
4.52587120E+00
  0
LINE
  8
0
 62
7
 10
-7.75895446E+00
 20
4.02587120E+00
 11
-1.28289545E+01
 21
4.02587120E+00
  0
LINE
  8
0
 62
7
 10
-8.32895446E+00
 20
4.60258712E+01
 11
-1.28289545E+01
 21
4.60258712E+01
  0
LINE
  8
0
 62
7
 10
-8.08895446E+00
 20
3.90258712E+01
 11
-1.28289545E+01
 21
3.90258712E+01
  0
LINE
  8
0
 62
7
 10
-1.28289545E+01
 20
7.90258712E+01
 11
-7.75895446E+00
 21
7.90258712E+01
  0
LINE
  8
0
 62
7
 10
-1.46689545E+01
 20
7.95258712E+01
 11
-7.75895446E+00
 21
7.95258712E+01
  0
LINE
  8
0
 62
7
 10
-8.30895446E+00
 20
4.55258712E+01
 11
-1.46689545E+01
 21
4.55258712E+01
  0
LINE
  8
0
 62
7
 10
-8.09895446E+00
 20
3.95258712E+01
 11
-1.46689545E+01
 21
3.95258712E+01
  0
LINE
  8
0
 62
7
 10
-7.75895446E+00
 20
3.52587120E+00
 11
-1.46689545E+01
 21
3.52587120E+00
  0
LINE
  8
0
 62
7
 10
4.09110455E+01
 20
7.95258712E+01
 11
4.09110455E+01
 21
3.52587120E+00
  0
LINE
  8
0
 62
7
 10
4.03210455E+01
 20
7.90258712E+01
 11
4.03210455E+01
 21
4.02587120E+00
  0
LINE
  8
0
 62
7
 10
4.00610455E+01
 20
7.85258712E+01
 11
4.00610455E+01
 21
4.65258712E+01
  0
LINE
  8
0
 62
7
 10
3.82310455E+01
 20
7.80258712E+01
 11
3.82310455E+01
 21
4.70258712E+01
  0
LINE
  8
0
 62
7
 10
3.11510455E+01
 20
7.85258712E+01
 11
3.11510455E+01
 21
6.73758712E+01
  0
LINE
  8
0
 62
7
 10
3.07710455E+01
 20
7.13458712E+01
 11
3.07710455E+01
 21
6.73758712E+01
  0
LINE
  8
0
 62
7
 10
3.99110455E+01
 20
8.05258712E+01
 11
3.17710455E+01
 21
8.05258712E+01
  0
LINE
  8
0
 62
7
 10
3.93210455E+01
 20
8.00258712E+01
 11
3.17710455E+01
 21
8.00258712E+01
  0
LINE
  8
0
 62
7
 10
3.17710455E+01
 20
2.52587120E+00
 11
3.99110455E+01
 21
2.52587120E+00
  0
LINE
  8
0
 62
7
 10
3.17710455E+01
 20
3.02587120E+00
 11
3.93210455E+01
 21
3.02587120E+00
  0
LINE
  8
0
 62
7
 10
3.11510455E+01
 20
3.59858712E+01
 11
3.11510455E+01
 21
4.52587120E+00
  0
LINE
  8
0
 62
7
 10
3.82310455E+01
 20
3.80258712E+01
 11
3.82310455E+01
 21
5.02587120E+00
  0
LINE
  8
0
 62
7
 10
4.00610455E+01
 20
3.85258712E+01
 11
4.00610455E+01
 21
4.52587120E+00
  0
LINE
  8
0
 62
7
 10
3.21510455E+01
 20
4.02587120E+00
 11
3.72310455E+01
 21
4.02587120E+00
  0
LINE
  8
0
 62
7
 10
3.27210455E+01
 20
4.60258712E+01
 11
3.72310455E+01
 21
4.60258712E+01
  0
LINE
  8
0
 62
7
 10
3.24810455E+01
 20
3.90258712E+01
 11
3.72310455E+01
 21
3.90258712E+01
  0
LINE
  8
0
 62
7
 10
3.72310455E+01
 20
7.90258712E+01
 11
3.21510455E+01
 21
7.90258712E+01
  0
LINE
  8
0
 62
7
 10
4.56110455E+01
 20
8.95871200E-01
 11
4.63510455E+01
 21
8.52258712E+01
  0
LINE
  8
0
 62
7
 10
-2.12189545E+01
 20
8.95871200E-01
 11
-2.19489545E+01
 21
8.52258712E+01
  0
LINE
  8
0
 62
7
 10
3.90610455E+01
 20
7.95258712E+01
 11
3.21510455E+01
 21
7.95258712E+01
  0
LINE
  8
0
 62
7
 10
3.27110455E+01
 20
4.55258712E+01
 11
3.90610455E+01
 21
4.55258712E+01
  0
LINE
  8
0
 62
7
 10
3.25010455E+01
 20
3.95258712E+01
 11
3.90610455E+01
 21
3.95258712E+01
  0
LINE
  8
0
 62
7
 10
3.21510455E+01
 20
3.52587120E+00
 11
3.90610455E+01
 21
3.52587120E+00
  0
LINE
  8
0
 62
4
 10
1.99510455E+01
 20
-1.72641288E+01
 11
4.45104554E+00
 21
-1.72641288E+01
  0
LINE
  8
0
 62
4
 10
5.94104554E+00
 20
-2.97641288E+01
 11
5.19104554E+00
 21
-2.97641288E+01
  0
LINE
  8
0
 62
4
 10
1.92110455E+01
 20
-2.97641288E+01
 11
1.84610455E+01
 21
-2.97641288E+01
  0
LINE
  8
0
 62
4
 10
1.03610455E+01
 20
-2.97641288E+01
 11
8.54104554E+00
 21
-2.97641288E+01
  0
LINE
  8
0
 62
4
 10
5.76104554E+00
 20
-2.92641288E+01
 11
5.94104554E+00
 21
-2.97641288E+01
  0
LINE
  8
0
 62
4
 10
1.86310455E+01
 20
-2.92641288E+01
 11
1.84610455E+01
 21
-2.97641288E+01
  0
LINE
  8
0
 62
4
 10
1.92110455E+01
 20
-2.00541288E+01
 11
1.98010455E+01
 21
-1.97641288E+01
  0
LINE
  8
0
 62
4
 10
1.58510455E+01
 20
-2.00541288E+01
 11
1.65110455E+01
 21
-1.97641288E+01
  0
LINE
  8
0
 62
4
 10
1.40410455E+01
 20
-2.00541288E+01
 11
1.37010455E+01
 21
-1.97641288E+01
  0
LINE
  8
0
 62
4
 10
1.03610455E+01
 20
-2.00541288E+01
 11
1.07010455E+01
 21
-1.97641288E+01
  0
LINE
  8
0
 62
4
 10
8.54104554E+00
 20
-2.00541288E+01
 11
7.88104554E+00
 21
-1.97641288E+01
  0
LINE
  8
0
 62
4
 10
5.18104554E+00
 20
-2.00541288E+01
 11
4.59104554E+00
 21
-1.97641288E+01
  0
LINE
  8
0
 62
4
 10
5.19104554E+00
 20
-2.97641288E+01
 11
4.59104554E+00
 21
-2.92641288E+01
  0
LINE
  8
0
 62
4
 10
8.54104554E+00
 20
-2.97641288E+01
 11
7.88104554E+00
 21
-2.92641288E+01
  0
LINE
  8
0
 62
4
 10
1.07010455E+01
 20
-2.92641288E+01
 11
1.03610455E+01
 21
-2.97641288E+01
  0
LINE
  8
0
 62
4
 10
1.40410455E+01
 20
-2.97641288E+01
 11
1.37010455E+01
 21
-2.92641288E+01
  0
LINE
  8
0
 62
4
 10
1.58510455E+01
 20
-2.97641288E+01
 11
1.65110455E+01
 21
-2.92641288E+01
  0
LINE
  8
0
 62
4
 10
1.92110455E+01
 20
-2.97641288E+01
 11
1.98010455E+01
 21
-2.92641288E+01
  0
LINE
  8
0
 62
4
 10
1.58510455E+01
 20
-2.97641288E+01
 11
1.40410455E+01
 21
-2.97641288E+01
  0
LINE
  8
0
 62
4
 10
1.86310455E+01
 20
-2.92641288E+01
 11
1.65110455E+01
 21
-2.92641288E+01
  0
LINE
  8
0
 62
4
 10
4.59104554E+00
 20
-2.92641288E+01
 11
4.45104554E+00
 21
-2.92641288E+01
  0
LINE
  8
0
 62
4
 10
7.88104554E+00
 20
-2.92641288E+01
 11
5.76104554E+00
 21
-2.92641288E+01
  0
LINE
  8
0
 62
4
 10
1.37010455E+01
 20
-2.92641288E+01
 11
1.07010455E+01
 21
-2.92641288E+01
  0
LINE
  8
0
 62
4
 10
5.76104554E+00
 20
-2.00541288E+01
 11
5.19104554E+00
 21
-2.00541288E+01
  0
LINE
  8
0
 62
4
 10
5.76104554E+00
 20
-1.97641288E+01
 11
4.59104554E+00
 21
-1.97641288E+01
  0
LINE
  8
0
 62
4
 10
1.58510455E+01
 20
-2.00541288E+01
 11
1.40410455E+01
 21
-2.00541288E+01
  0
LINE
  8
0
 62
4
 10
1.65110455E+01
 20
-1.97641288E+01
 11
1.37010455E+01
 21
-1.97641288E+01
  0
LINE
  8
0
 62
4
 10
1.03610455E+01
 20
-2.00541288E+01
 11
8.54104554E+00
 21
-2.00541288E+01
  0
LINE
  8
0
 62
4
 10
1.07010455E+01
 20
-1.97641288E+01
 11
7.88104554E+00
 21
-1.97641288E+01
  0
LINE
  8
0
 62
4
 10
1.99510455E+01
 20
-2.92641288E+01
 11
1.98010455E+01
 21
-2.92641288E+01
  0
LINE
  8
0
 62
4
 10
1.92110455E+01
 20
-2.00541288E+01
 11
1.86310455E+01
 21
-2.00541288E+01
  0
LINE
  8
0
 62
4
 10
1.98010455E+01
 20
-1.97641288E+01
 11
1.86310455E+01
 21
-1.97641288E+01
  0
LINE
  8
0
 62
4
 10
1.98010455E+01
 20
-1.97641288E+01
 11
1.98010455E+01
 21
-2.92641288E+01
  0
LINE
  8
0
 62
4
 10
1.92110455E+01
 20
-2.00541288E+01
 11
1.92110455E+01
 21
-2.97641288E+01
  0
LINE
  8
0
 62
4
 10
1.86310455E+01
 20
-1.97641288E+01
 11
1.86310455E+01
 21
-2.92641288E+01
  0
LINE
  8
0
 62
4
 10
1.65110455E+01
 20
-1.97641288E+01
 11
1.65110455E+01
 21
-2.92641288E+01
  0
LINE
  8
0
 62
4
 10
1.58510455E+01
 20
-2.00541288E+01
 11
1.58510455E+01
 21
-2.97641288E+01
  0
LINE
  8
0
 62
4
 10
4.59104554E+00
 20
-1.97641288E+01
 11
4.59104554E+00
 21
-2.92641288E+01
  0
LINE
  8
0
 62
4
 10
5.19104554E+00
 20
-2.00541288E+01
 11
5.19104554E+00
 21
-2.97641288E+01
  0
LINE
  8
0
 62
4
 10
5.76104554E+00
 20
-1.97641288E+01
 11
5.76104554E+00
 21
-2.92641288E+01
  0
LINE
  8
0
 62
4
 10
7.88104554E+00
 20
-1.97641288E+01
 11
7.88104554E+00
 21
-2.92641288E+01
  0
LINE
  8
0
 62
4
 10
8.54104554E+00
 20
-2.00541288E+01
 11
8.54104554E+00
 21
-2.97641288E+01
  0
LINE
  8
0
 62
4
 10
1.03610455E+01
 20
-2.00541288E+01
 11
1.03610455E+01
 21
-2.97641288E+01
  0
LINE
  8
0
 62
4
 10
1.40410455E+01
 20
-2.00541288E+01
 11
1.40410455E+01
 21
-2.97641288E+01
  0
LINE
  8
0
 62
4
 10
1.37010455E+01
 20
-1.97641288E+01
 11
1.37010455E+01
 21
-2.92641288E+01
  0
LINE
  8
0
 62
4
 10
1.07010455E+01
 20
-1.97641288E+01
 11
1.07010455E+01
 21
-2.92641288E+01
  0
LINE
  8
0
 62
2
 10
1.74510455E+01
 20
-1.54741288E+01
 11
1.74510455E+01
 21
-1.67641288E+01
  0
LINE
  8
0
 62
2
 10
6.95104554E+00
 20
-1.54741288E+01
 11
6.95104554E+00
 21
-1.67641288E+01
  0
LINE
  8
0
 62
4
 10
6.20104554E+00
 20
-1.54741288E+01
 11
6.20104554E+00
 21
-1.67641288E+01
  0
LINE
  8
0
 62
4
 10
1.82010455E+01
 20
-1.54741288E+01
 11
1.82010455E+01
 21
-1.67641288E+01
  0
LINE
  8
0
 62
4
 10
4.95104554E+00
 20
-1.67641288E+01
 11
4.45104554E+00
 21
-1.72641288E+01
  0
LINE
  8
0
 62
4
 10
1.94510455E+01
 20
-1.67641288E+01
 11
1.99510455E+01
 21
-1.72641288E+01
  0
LINE
  8
0
 62
4
 10
1.94510455E+01
 20
-1.67641288E+01
 11
4.95104554E+00
 21
-1.67641288E+01
  0
LINE
  8
0
 62
4
 10
5.45104554E+00
 20
-3.02641288E+01
 11
4.45104554E+00
 21
-2.92641288E+01
  0
LINE
  8
0
 62
4
 10
1.99510455E+01
 20
-2.92641288E+01
 11
1.89510455E+01
 21
-3.02641288E+01
  0
LINE
  8
0
 62
4
 10
4.45104554E+00
 20
-1.72641288E+01
 11
4.45104554E+00
 21
-2.92641288E+01
  0
LINE
  8
0
 62
4
 10
1.99510455E+01
 20
-1.72641288E+01
 11
1.99510455E+01
 21
-2.92641288E+01
  0
LINE
  8
0
 62
4
 10
1.89510455E+01
 20
-3.02641288E+01
 11
5.45104554E+00
 21
-3.02641288E+01
  0
LINE
  8
0
 62
4
 10
4.62104554E+00
 20
-1.54741288E+01
 11
4.12104554E+00
 21
-1.49741288E+01
  0
LINE
  8
0
 62
4
 10
1.97710455E+01
 20
-1.54741288E+01
 11
2.02710455E+01
 21
-1.49741288E+01
  0
LINE
  8
0
 62
4
 10
2.02710455E+01
 20
-1.49741288E+01
 11
2.02710455E+01
 21
-1.39741288E+01
  0
LINE
  8
0
 62
4
 10
4.12104554E+00
 20
-1.49741288E+01
 11
4.12104554E+00
 21
-1.39741288E+01
  0
LINE
  8
0
 62
4
 10
4.62104554E+00
 20
-1.54741288E+01
 11
1.97710455E+01
 21
-1.54741288E+01
  0
ARC
  8
0
 62
7
 10
1.22023342E+01
 20
1.28225871E+02
 40
6.99912433E+00
 50
3.08204105E+02
 51
5.17958952E+01
  0
CIRCLE
  8
0
 62
2
 10
1.22023346E+01
 20
1.25228693E+02
 40
1.32205000E+01
  0
CIRCLE
  8
0
 62
7
 10
1.22023346E+01
 20
1.25228693E+02
 40
1.20585012E+01
  0
ARC
  8
0
 62
7
 10
1.22023350E+01
 20
1.28225871E+02
 40
7.00071911E+00
 50
1.28220685E+02
 51
2.31779315E+02
  0
CIRCLE
  8
0
 62
7
 10
1.22023346E+01
 20
1.25228755E+02
 40
2.10000000E+01
  0
CIRCLE
  8
0
 62
7
 10
4.72023346E+01
 20
1.25228693E+02
 40
2.30940056E+00
  0
CIRCLE
  8
0
 62
7
 10
4.72023346E+01
 20
1.25228693E+02
 40
3.73038483E+00
  0
CIRCLE
  8
0
 62
7
 10
4.72023346E+01
 20
1.25228693E+02
 40
4.25000000E+00
  0
CIRCLE
  8
0
 62
7
 10
4.72023346E+01
 20
1.25228693E+02
 40
4.75000000E+00
  0
ARC
  8
0
 62
7
 10
-5.83455070E+00
 20
3.63812918E+01
 40
1.00543023E+00
 50
1.82589234E+02
 51
2.69749044E+02
  0
ARC
  8
0
 62
7
 10
3.02327873E+01
 20
3.63748902E+01
 40
9.99020498E-01
 50
2.69900105E+02
 51
3.57761616E+02
  0
ARC
  8
0
 62
7
 10
5.68456642E+01
 20
1.00233486E+02
 40
3.60286722E+00
 50
2.98339764E+01
 51
7.57742207E+01
  0
ARC
  8
0
 62
7
 10
5.68480531E+01
 20
1.50225725E+02
 40
3.60952246E+00
 50
2.84159886E+02
 51
3.29906613E+02
  0
ARC
  8
0
 62
7
 10
5.68509673E+01
 20
1.00229286E+02
 40
1.99658532E+00
 50
2.99434411E+01
 51
9.00000002E+01
  0
ARC
  8
0
 62
7
 10
5.68485201E+01
 20
1.50226690E+02
 40
2.00082055E+00
 50
2.70072318E+02
 51
3.29986486E+02
  0
ARC
  8
0
 62
7
 10
6.07030814E+01
 20
9.07761968E+01
 40
4.99796416E+00
 50
3.59996267E+02
 51
3.00091648E+01
  0
ARC
  8
0
 62
7
 10
5.92027474E+01
 20
9.01561073E+01
 40
4.99829814E+00
 50
3.59997294E+02
 51
3.00081384E+01
  0
ARC
  8
0
 62
7
 10
6.07016625E+01
 20
1.59675926E+02
 40
4.99938300E+00
 50
3.29995194E+02
 51
3.59999374E+02
  0
ARC
  8
0
 62
7
 10
5.92013272E+01
 20
1.60296016E+02
 40
4.99971831E+00
 50
3.29996224E+02
 51
3.59998344E+02
  0
LINE
  8
0
 62
7
 10
-2.72989545E+01
 20
1.05225871E+02
 11
-2.62989545E+01
 21
1.06225871E+02
  0
LINE
  8
0
 62
7
 10
7.87104554E+00
 20
1.33725871E+02
 11
1.65310455E+01
 21
1.33725871E+02
  0
LINE
  8
0
 62
7
 10
7.87104554E+00
 20
1.22725871E+02
 11
1.65310455E+01
 21
1.22725871E+02
  0
LINE
  8
0
 62
7
 10
-2.02989545E+01
 20
1.07725871E+02
 11
-1.67989545E+01
 21
1.04225871E+02
  0
LINE
  8
0
 62
7
 10
-2.02989545E+01
 20
1.18495871E+02
 11
-2.02989545E+01
 21
1.07725871E+02
  0
LINE
  8
0
 62
7
 10
-2.02989545E+01
 20
1.42725871E+02
 11
-2.02989545E+01
 21
1.31955871E+02
  0
LINE
  8
0
 62
7
 10
-1.47989545E+01
 20
1.48225871E+02
 11
-1.27989545E+01
 21
1.48225871E+02
  0
LINE
  8
0
 62
7
 10
-1.47989545E+01
 20
1.48225871E+02
 11
-1.47989545E+01
 21
1.34725871E+02
  0
LINE
  8
0
 62
7
 10
-2.02989545E+01
 20
1.42725871E+02
 11
-1.47989545E+01
 21
1.48225871E+02
  0
LINE
  8
0
 62
7
 10
7.83104554E+00
 20
3.74158712E+01
 11
6.93104554E+00
 21
6.33758712E+01
  0
LINE
  8
0
 62
7
 10
8.20104554E+00
 20
3.80958712E+01
 11
7.29104554E+00
 21
6.40558712E+01
  0
LINE
  8
0
 62
7
 10
6.93104554E+00
 20
6.33758712E+01
 11
7.29104554E+00
 21
6.40558712E+01
  0
LINE
  8
0
 62
7
 10
3.11104554E+00
 20
6.33758712E+01
 11
6.93104554E+00
 21
6.33758712E+01
  0
LINE
  8
0
 62
7
 10
1.90104554E+00
 20
6.40558712E+01
 11
7.29104554E+00
 21
6.40558712E+01
  0
LINE
  8
0
 62
7
 10
3.11104554E+00
 20
6.33758712E+01
 11
1.90104554E+00
 21
6.40558712E+01
  0
LINE
  8
0
 62
7
 10
2.21104554E+00
 20
3.74158712E+01
 11
3.11104554E+00
 21
6.33758712E+01
  0
LINE
  8
0
 62
7
 10
9.91045537E-01
 20
3.80958712E+01
 11
1.90104554E+00
 21
6.40558712E+01
  0
LINE
  8
0
 62
7
 10
-4.66895446E+00
 20
3.80958712E+01
 11
-5.56895446E+00
 21
6.40558712E+01
  0
LINE
  8
0
 62
7
 10
-7.27895446E+00
 20
6.33758712E+01
 11
-5.54895446E+00
 21
6.33758712E+01
  0
LINE
  8
0
 62
7
 10
-6.36895446E+00
 20
3.74158712E+01
 11
-7.27895446E+00
 21
6.33758712E+01
  0
LINE
  8
0
 62
7
 10
-7.64895446E+00
 20
3.80958712E+01
 11
-8.55895446E+00
 21
6.40558712E+01
  0
LINE
  8
0
 62
7
 10
-7.27895446E+00
 20
6.33758712E+01
 11
-8.55895446E+00
 21
6.40558712E+01
  0
LINE
  8
0
 62
7
 10
-8.55895446E+00
 20
6.40558712E+01
 11
-5.56895446E+00
 21
6.40558712E+01
  0
LINE
  8
0
 62
7
 10
-8.04895446E+00
 20
3.80958712E+01
 11
-9.05895446E+00
 21
6.68958712E+01
  0
LINE
  8
0
 62
7
 10
-8.57895446E+00
 20
6.73758712E+01
 11
-9.05895446E+00
 21
6.68958712E+01
  0
LINE
  8
0
 62
7
 10
-9.05895446E+00
 20
6.68958712E+01
 11
3.34510455E+01
 21
6.68958712E+01
  0
LINE
  8
0
 62
7
 10
-8.57895446E+00
 20
6.73758712E+01
 11
3.29710455E+01
 21
6.73758712E+01
  0
LINE
  8
0
 62
7
 10
-2.72989545E+01
 20
8.62258712E+01
 11
-2.62989545E+01
 21
8.52258712E+01
  0
LINE
  8
0
 62
7
 10
-2.72989545E+01
 20
1.05225871E+02
 11
-2.72989545E+01
 21
8.62258712E+01
  0
LINE
  8
0
 62
7
 10
-2.72989545E+01
 20
1.05225871E+02
 11
-1.77989545E+01
 21
1.05225871E+02
  0
LINE
  8
0
 62
7
 10
-2.62989545E+01
 20
1.06225871E+02
 11
-1.87989545E+01
 21
1.06225871E+02
  0
LINE
  8
0
 62
7
 10
-2.72989545E+01
 20
8.62258712E+01
 11
5.17010455E+01
 21
8.62258712E+01
  0
LINE
  8
0
 62
7
 10
-2.62989545E+01
 20
8.52258712E+01
 11
5.07010455E+01
 21
8.52258712E+01
  0
LINE
  8
0
 62
2
 10
-9.29895446E+00
 20
9.82258712E+01
 11
-9.29895446E+00
 21
9.72258712E+01
  0
LINE
  8
0
 62
7
 10
8.70104554E+00
 20
8.82258712E+01
 11
8.42104554E+00
 21
8.72258712E+01
  0
LINE
  8
0
 62
7
 10
8.42104554E+00
 20
9.42258712E+01
 11
8.70104554E+00
 21
9.52258712E+01
  0
LINE
  8
0
 62
7
 10
1.09104554E+00
 20
9.52258712E+01
 11
1.85104554E+00
 21
9.42258712E+01
  0
LINE
  8
0
 62
7
 10
1.09104554E+00
 20
8.82258712E+01
 11
1.85104554E+00
 21
8.72258712E+01
  0
LINE
  8
0
 62
7
 10
-4.97895446E+00
 20
8.72258712E+01
 11
-4.69895446E+00
 21
8.82258712E+01
  0
LINE
  8
0
 62
7
 10
-4.97895446E+00
 20
9.42258712E+01
 11
-4.69895446E+00
 21
9.52258712E+01
  0
LINE
  8
0
 62
7
 10
-9.49895446E+00
 20
9.42258712E+01
 11
-1.05489545E+01
 21
9.52258712E+01
  0
LINE
  8
0
 62
7
 10
-1.05489545E+01
 20
8.82258712E+01
 11
-9.49895446E+00
 21
8.72258712E+01
  0
LINE
  8
0
 62
7
 10
-1.60889545E+01
 20
9.52258712E+01
 11
-1.50389545E+01
 21
9.42258712E+01
  0
LINE
  8
0
 62
7
 10
-1.60889545E+01
 20
8.82258712E+01
 11
-1.50389545E+01
 21
8.72258712E+01
  0
LINE
  8
0
 62
7
 10
-1.60889545E+01
 20
9.52258712E+01
 11
-1.60889545E+01
 21
8.82258712E+01
  0
LINE
  8
0
 62
7
 10
-1.50389545E+01
 20
9.42258712E+01
 11
-1.50389545E+01
 21
8.72258712E+01
  0
LINE
  8
0
 62
7
 10
-1.40489545E+01
 20
8.82258712E+01
 11
-1.32789545E+01
 21
8.72258712E+01
  0
LINE
  8
0
 62
7
 10
-1.40489545E+01
 20
8.82258712E+01
 11
-1.05489545E+01
 21
8.82258712E+01
  0
LINE
  8
0
 62
7
 10
-1.50389545E+01
 20
9.42258712E+01
 11
-1.40489545E+01
 21
9.42258712E+01
  0
LINE
  8
0
 62
7
 10
-1.60889545E+01
 20
9.52258712E+01
 11
-1.40489545E+01
 21
9.52258712E+01
  0
LINE
  8
0
 62
7
 10
-1.40489545E+01
 20
9.52258712E+01
 11
-1.40489545E+01
 21
8.82258712E+01
  0
LINE
  8
0
 62
7
 10
-9.49895446E+00
 20
9.42258712E+01
 11
-4.97895446E+00
 21
9.42258712E+01
  0
LINE
  8
0
 62
7
 10
-1.05489545E+01
 20
9.52258712E+01
 11
-4.69895446E+00
 21
9.52258712E+01
  0
LINE
  8
0
 62
7
 10
-9.49895446E+00
 20
9.42258712E+01
 11
-9.49895446E+00
 21
8.72258712E+01
  0
LINE
  8
0
 62
7
 10
-1.05489545E+01
 20
9.52258712E+01
 11
-1.05489545E+01
 21
8.82258712E+01
  0
LINE
  8
0
 62
7
 10
-4.69895446E+00
 20
8.82258712E+01
 11
1.09104554E+00
 21
8.82258712E+01
  0
LINE
  8
0
 62
7
 10
-4.69895446E+00
 20
9.52258712E+01
 11
-4.69895446E+00
 21
8.82258712E+01
  0
LINE
  8
0
 62
7
 10
-4.97895446E+00
 20
9.42258712E+01
 11
-4.97895446E+00
 21
8.72258712E+01
  0
LINE
  8
0
 62
7
 10
1.85104554E+00
 20
9.42258712E+01
 11
1.85104554E+00
 21
8.72258712E+01
  0
LINE
  8
0
 62
7
 10
1.09104554E+00
 20
9.52258712E+01
 11
1.09104554E+00
 21
8.82258712E+01
  0
LINE
  8
0
 62
7
 10
8.42104554E+00
 20
9.42258712E+01
 11
8.42104554E+00
 21
8.72258712E+01
  0
LINE
  8
0
 62
7
 10
8.70104554E+00
 20
9.52258712E+01
 11
8.70104554E+00
 21
8.82258712E+01
  0
LINE
  8
0
 62
7
 10
1.85104554E+00
 20
9.42258712E+01
 11
8.42104554E+00
 21
9.42258712E+01
  0
LINE
  8
0
 62
7
 10
1.09104554E+00
 20
9.52258712E+01
 11
8.70104554E+00
 21
9.52258712E+01
  0
LINE
  8
0
 62
7
 10
8.70104554E+00
 20
8.82258712E+01
 11
1.57010455E+01
 21
8.82258712E+01
  0
LINE
  8
0
 62
7
 10
-1.62989545E+01
 20
8.82258712E+01
 11
-1.60889545E+01
 21
8.82258712E+01
  0
LINE
  8
0
 62
7
 10
-1.62989545E+01
 20
8.82258712E+01
 11
-1.52989545E+01
 21
8.72258712E+01
  0
LINE
  8
0
 62
7
 10
-1.52989545E+01
 20
8.72258712E+01
 11
3.97010455E+01
 21
8.72258712E+01
  0
LINE
  8
0
 62
7
 10
-1.62989545E+01
 20
9.72258712E+01
 11
-1.62989545E+01
 21
8.82258712E+01
  0
LINE
  8
0
 62
7
 10
-1.62989545E+01
 20
9.72258712E+01
 11
4.07010455E+01
 21
9.72258712E+01
  0
LINE
  8
0
 62
7
 10
-7.39895446E+00
 20
1.60225871E+02
 11
-6.30895446E+00
 21
1.61225871E+02
  0
LINE
  8
0
 62
7
 10
7.91104554E+00
 20
1.54225871E+02
 11
8.20104554E+00
 21
1.53645871E+02
  0
LINE
  8
0
 62
7
 10
7.91104554E+00
 20
1.61225871E+02
 11
8.20104554E+00
 21
1.60225871E+02
  0
LINE
  8
0
 62
7
 10
1.17104554E+00
 20
1.60225871E+02
 11
2.14104554E+00
 21
1.61225871E+02
  0
LINE
  8
0
 62
7
 10
2.14104554E+00
 20
1.54225871E+02
 11
1.17104554E+00
 21
1.53645871E+02
  0
LINE
  8
0
 62
7
 10
-6.30895446E+00
 20
1.54225871E+02
 11
-7.39895446E+00
 21
1.53645871E+02
  0
LINE
  8
0
 62
7
 10
-7.39895446E+00
 20
1.60225871E+02
 11
-7.39895446E+00
 21
1.53645871E+02
  0
LINE
  8
0
 62
7
 10
-6.30895446E+00
 20
1.61225871E+02
 11
-6.30895446E+00
 21
1.54225871E+02
  0
LINE
  8
0
 62
7
 10
-4.48895446E+00
 20
1.60225871E+02
 11
-3.91895446E+00
 21
1.61225871E+02
  0
LINE
  8
0
 62
7
 10
-4.48895446E+00
 20
1.60225871E+02
 11
1.17104554E+00
 21
1.60225871E+02
  0
LINE
  8
0
 62
7
 10
-4.48895446E+00
 20
1.60225871E+02
 11
-4.48895446E+00
 21
1.53645871E+02
  0
LINE
  8
0
 62
7
 10
1.17104554E+00
 20
1.53645871E+02
 11
8.20104554E+00
 21
1.53645871E+02
  0
LINE
  8
0
 62
7
 10
1.17104554E+00
 20
1.60225871E+02
 11
1.17104554E+00
 21
1.53645871E+02
  0
LINE
  8
0
 62
7
 10
2.14104554E+00
 20
1.54225871E+02
 11
7.91104554E+00
 21
1.54225871E+02
  0
LINE
  8
0
 62
7
 10
2.14104554E+00
 20
1.61225871E+02
 11
2.14104554E+00
 21
1.54225871E+02
  0
LINE
  8
0
 62
7
 10
8.20104554E+00
 20
1.60225871E+02
 11
1.62010455E+01
 21
1.60225871E+02
  0
LINE
  8
0
 62
7
 10
-7.79895446E+00
 20
1.60225871E+02
 11
-7.39895446E+00
 21
1.60225871E+02
  0
LINE
  8
0
 62
7
 10
7.91104554E+00
 20
1.61225871E+02
 11
7.91104554E+00
 21
1.54225871E+02
  0
LINE
  8
0
 62
7
 10
8.20104554E+00
 20
1.60225871E+02
 11
8.20104554E+00
 21
1.53645871E+02
  0
LINE
  8
0
 62
7
 10
-7.39895446E+00
 20
1.53645871E+02
 11
-4.48895446E+00
 21
1.53645871E+02
  0
LINE
  8
0
 62
7
 10
-6.30895446E+00
 20
1.54225871E+02
 11
-4.48895446E+00
 21
1.54225871E+02
  0
LINE
  8
0
 62
7
 10
-7.79895446E+00
 20
1.60225871E+02
 11
-6.79895446E+00
 21
1.61225871E+02
  0
LINE
  8
0
 62
7
 10
-7.79895446E+00
 20
1.60225871E+02
 11
-7.79895446E+00
 21
1.51225871E+02
  0
LINE
  8
0
 62
7
 10
-6.79895446E+00
 20
1.61225871E+02
 11
3.12010455E+01
 21
1.61225871E+02
  0
LINE
  8
0
  6
CENTER
 62
2
 10
3.20104554E+00
 20
1.28225871E+02
 11
2.12010455E+01
 21
1.28225871E+02
  0
LINE
  8
0
 62
7
 10
-1.52989545E+01
 20
1.16225871E+02
 11
-1.42989545E+01
 21
1.15225871E+02
  0
LINE
  8
0
 62
7
 10
-1.42989545E+01
 20
1.15225871E+02
 11
-1.27989545E+01
 21
1.15225871E+02
  0
LINE
  8
0
 62
7
 10
-1.42989545E+01
 20
1.35225871E+02
 11
-1.42989545E+01
 21
1.15225871E+02
  0
LINE
  8
0
 62
7
 10
-1.52989545E+01
 20
1.34225871E+02
 11
-1.42989545E+01
 21
1.35225871E+02
  0
LINE
  8
0
 62
7
 10
-1.42989545E+01
 20
1.35225871E+02
 11
-1.27989545E+01
 21
1.35225871E+02
  0
LINE
  8
0
 62
7
 10
-1.52989545E+01
 20
1.34225871E+02
 11
-1.52989545E+01
 21
1.16225871E+02
  0
LINE
  8
0
 62
7
 10
-1.67989545E+01
 20
1.17225871E+02
 11
-1.52989545E+01
 21
1.17225871E+02
  0
LINE
  8
0
 62
7
 10
-1.67989545E+01
 20
1.17225871E+02
 11
-1.57989545E+01
 21
1.18225871E+02
  0
LINE
  8
0
 62
7
 10
-1.57989545E+01
 20
1.18225871E+02
 11
-1.52989545E+01
 21
1.18225871E+02
  0
LINE
  8
0
 62
7
 10
-1.12989545E+01
 20
1.00225871E+02
 11
-1.12989545E+01
 21
1.50225871E+02
  0
LINE
  8
0
 62
7
 10
-9.29895446E+00
 20
8.62258712E+01
 11
-7.56895446E+00
 21
8.52258712E+01
  0
LINE
  8
0
 62
7
 10
-1.27989545E+01
 20
1.01725871E+02
 11
3.72010455E+01
 21
1.01725871E+02
  0
LINE
  8
0
 62
7
 10
-1.27989545E+01
 20
1.48725871E+02
 11
-1.12989545E+01
 21
1.50225871E+02
  0
LINE
  8
0
 62
7
 10
-1.27989545E+01
 20
1.01725871E+02
 11
-1.12989545E+01
 21
1.00225871E+02
  0
LINE
  8
0
 62
7
 10
-1.67989545E+01
 20
9.92258712E+01
 11
4.12010455E+01
 21
9.92258712E+01
  0
LINE
  8
0
 62
7
 10
-1.67989545E+01
 20
9.92258712E+01
 11
-1.57989545E+01
 21
9.82258712E+01
  0
LINE
  8
0
 62
7
 10
-1.67989545E+01
 20
1.17225871E+02
 11
-1.67989545E+01
 21
9.92258712E+01
  0
LINE
  8
0
 62
7
 10
-7.54895446E+00
 20
1.51225871E+02
 11
-7.54895446E+00
 21
1.50225871E+02
  0
LINE
  8
0
 62
7
 10
-1.27989545E+01
 20
1.48725871E+02
 11
-1.27989545E+01
 21
1.01725871E+02
  0
LINE
  8
0
 62
7
 10
-1.57989545E+01
 20
9.82258712E+01
 11
4.02010455E+01
 21
9.82258712E+01
  0
LINE
  8
0
 62
7
 10
-1.12989545E+01
 20
1.00225871E+02
 11
3.57010455E+01
 21
1.00225871E+02
  0
LINE
  8
0
 62
7
 10
-1.12989545E+01
 20
1.50225871E+02
 11
3.57010455E+01
 21
1.50225871E+02
  0
LINE
  8
0
 62
7
 10
-7.79895446E+00
 20
1.51225871E+02
 11
3.22010455E+01
 21
1.51225871E+02
  0
LINE
  8
0
 62
7
 10
-1.02989545E+01
 20
9.82258712E+01
 11
-1.02989545E+01
 21
9.72258712E+01
  0
LINE
  8
0
 62
7
 10
-9.29895446E+00
 20
8.72258712E+01
 11
-9.29895446E+00
 21
8.62258712E+01
  0
LINE
  8
0
 62
6
 10
-1.92989545E+01
 20
1.31055871E+02
 11
-2.08589545E+01
 21
1.31955871E+02
  0
LINE
  8
0
 62
4
 10
-1.92989545E+01
 20
1.31905871E+02
 11
-1.92989545E+01
 21
1.18535871E+02
  0
LINE
  8
0
 62
4
 10
-1.52989545E+01
 20
1.18555871E+02
 11
-2.12989545E+01
 21
1.18485871E+02
  0
LINE
  8
0
 62
6
 10
-1.52989545E+01
 20
1.19405871E+02
 11
-1.92989545E+01
 21
1.19395871E+02
  0
LINE
  8
0
 62
4
 10
-1.52989545E+01
 20
1.31895871E+02
 11
-2.12989545E+01
 21
1.31965871E+02
  0
LINE
  8
0
 62
6
 10
-1.52989545E+01
 20
1.31045871E+02
 11
-1.92989545E+01
 21
1.31055871E+02
  0
LINE
  8
0
 62
7
 10
4.31045537E-01
 20
8.52258712E+01
 11
4.31045537E-01
 21
6.73758712E+01
  0
LINE
  8
0
 62
7
 10
6.28104554E+00
 20
8.52258712E+01
 11
6.28104554E+00
 21
6.73758712E+01
  0
LINE
  8
0
 62
7
 10
-6.84895446E+00
 20
8.52258712E+01
 11
-6.23895446E+00
 21
6.73758712E+01
  0
LINE
  8
0
 62
6
 10
-1.92989545E+01
 20
1.19395871E+02
 11
-2.08589545E+01
 21
1.18495871E+02
  0
LINE
  8
0
 62
7
 10
-1.27989545E+01
 20
1.48725871E+02
 11
3.72010455E+01
 21
1.48725871E+02
  0
LINE
  8
0
 62
7
 10
4.92010455E+01
 20
1.26375871E+02
 11
4.92010455E+01
 21
1.24065871E+02
  0
LINE
  8
0
 62
7
 10
4.72010455E+01
 20
1.22915871E+02
 11
4.92010455E+01
 21
1.24065871E+02
  0
LINE
  8
0
 62
7
 10
4.52010455E+01
 20
1.24065871E+02
 11
4.72010455E+01
 21
1.22915871E+02
  0
LINE
  8
0
 62
7
 10
4.52010455E+01
 20
1.26375871E+02
 11
4.52010455E+01
 21
1.24065871E+02
  0
LINE
  8
0
 62
7
 10
4.52010455E+01
 20
1.26375871E+02
 11
4.72010455E+01
 21
1.27535871E+02
  0
LINE
  8
0
 62
7
 10
4.72010455E+01
 20
1.27535871E+02
 11
4.92010455E+01
 21
1.26375871E+02
  0
LINE
  8
0
  6
CENTER
 62
2
 10
3.97010455E+01
 20
1.18645871E+02
 11
4.06710455E+01
 21
1.18615871E+02
  0
LINE
  8
0
  6
CENTER
 62
2
 10
3.97010455E+01
 20
1.19505871E+02
 11
4.11510455E+01
 21
1.19465871E+02
  0
LINE
  8
0
  6
CENTER
 62
2
 10
4.06710455E+01
 20
1.18615871E+02
 11
4.13710455E+01
 21
1.19835871E+02
  0
LINE
  8
0
  6
CENTER
 62
2
 10
4.06710455E+01
 20
1.31825871E+02
 11
4.13710455E+01
 21
1.30615871E+02
  0
LINE
  8
0
  6
CENTER
 62
2
 10
3.97010455E+01
 20
1.31805871E+02
 11
4.06710455E+01
 21
1.31825871E+02
  0
LINE
  8
0
  6
CENTER
 62
2
 10
3.97010455E+01
 20
1.30945871E+02
 11
4.11510455E+01
 21
1.30985871E+02
  0
LINE
  8
0
  6
CENTER
 62
2
 10
4.06710455E+01
 20
1.31825871E+02
 11
4.06710455E+01
 21
1.18615871E+02
  0
LINE
  8
0
  6
CENTER
 62
2
 10
4.13710455E+01
 20
1.30615871E+02
 11
4.13710455E+01
 21
1.19835871E+02
  0
LINE
  8
0
 62
7
 10
2.39610455E+01
 20
8.52258712E+01
 11
2.39610455E+01
 21
6.73758712E+01
  0
LINE
  8
0
 62
7
 10
1.81110455E+01
 20
8.52258712E+01
 11
1.81110455E+01
 21
6.73758712E+01
  0
LINE
  8
0
 62
7
 10
3.12510455E+01
 20
8.52258712E+01
 11
3.06310455E+01
 21
6.73758712E+01
  0
LINE
  8
0
 62
7
 10
3.47010455E+01
 20
9.82258712E+01
 11
3.47010455E+01
 21
9.72258712E+01
  0
LINE
  8
0
 62
7
 10
3.37010455E+01
 20
8.72258712E+01
 11
3.37010455E+01
 21
8.62258712E+01
  0
LINE
  8
0
 62
7
 10
3.37010455E+01
 20
8.62258712E+01
 11
3.19710455E+01
 21
8.52258712E+01
  0
LINE
  8
0
 62
2
 10
3.37010455E+01
 20
9.82258712E+01
 11
3.37010455E+01
 21
9.72258712E+01
  0
LINE
  8
0
 62
7
 10
3.39010455E+01
 20
9.42258712E+01
 11
3.49410455E+01
 21
9.52258712E+01
  0
LINE
  8
0
 62
7
 10
2.93710455E+01
 20
8.72258712E+01
 11
2.90910455E+01
 21
8.82258712E+01
  0
LINE
  8
0
 62
7
 10
2.93710455E+01
 20
9.42258712E+01
 11
2.90910455E+01
 21
9.52258712E+01
  0
LINE
  8
0
 62
7
 10
2.33110455E+01
 20
9.52258712E+01
 11
2.25410455E+01
 21
9.42258712E+01
  0
LINE
  8
0
 62
7
 10
2.33110455E+01
 20
8.82258712E+01
 11
2.25410455E+01
 21
8.72258712E+01
  0
LINE
  8
0
 62
7
 10
1.57010455E+01
 20
8.82258712E+01
 11
1.59810455E+01
 21
8.72258712E+01
  0
LINE
  8
0
 62
7
 10
1.59810455E+01
 20
9.42258712E+01
 11
1.57010455E+01
 21
9.52258712E+01
  0
LINE
  8
0
 62
7
 10
3.94410455E+01
 20
9.42258712E+01
 11
4.04810455E+01
 21
9.52258712E+01
  0
LINE
  8
0
 62
7
 10
3.94410455E+01
 20
8.72258712E+01
 11
4.04810455E+01
 21
8.82258712E+01
  0
LINE
  8
0
 62
7
 10
4.04810455E+01
 20
9.52258712E+01
 11
4.04810455E+01
 21
8.82258712E+01
  0
LINE
  8
0
 62
7
 10
3.94410455E+01
 20
9.42258712E+01
 11
3.94410455E+01
 21
8.72258712E+01
  0
LINE
  8
0
 62
7
 10
3.84410455E+01
 20
8.82258712E+01
 11
3.76810455E+01
 21
8.72258712E+01
  0
LINE
  8
0
 62
7
 10
4.04810455E+01
 20
8.82258712E+01
 11
4.07010455E+01
 21
8.82258712E+01
  0
LINE
  8
0
 62
7
 10
3.84410455E+01
 20
9.52258712E+01
 11
3.84410455E+01
 21
8.82258712E+01
  0
LINE
  8
0
 62
7
 10
3.84410455E+01
 20
9.42258712E+01
 11
3.94410455E+01
 21
9.42258712E+01
  0
LINE
  8
0
 62
7
 10
3.84410455E+01
 20
9.52258712E+01
 11
4.04810455E+01
 21
9.52258712E+01
  0
LINE
  8
0
 62
7
 10
3.49410455E+01
 20
9.52258712E+01
 11
3.49410455E+01
 21
8.82258712E+01
  0
LINE
  8
0
 62
7
 10
3.39010455E+01
 20
9.42258712E+01
 11
3.39010455E+01
 21
8.72258712E+01
  0
LINE
  8
0
 62
7
 10
3.49410455E+01
 20
8.82258712E+01
 11
3.84410455E+01
 21
8.82258712E+01
  0
LINE
  8
0
 62
7
 10
2.90910455E+01
 20
9.52258712E+01
 11
2.90910455E+01
 21
8.82258712E+01
  0
LINE
  8
0
 62
7
 10
2.93710455E+01
 20
9.42258712E+01
 11
2.93710455E+01
 21
8.72258712E+01
  0
LINE
  8
0
 62
7
 10
2.25410455E+01
 20
9.42258712E+01
 11
2.25410455E+01
 21
8.72258712E+01
  0
LINE
  8
0
 62
7
 10
2.33110455E+01
 20
9.52258712E+01
 11
2.33110455E+01
 21
8.82258712E+01
  0
LINE
  8
0
 62
7
 10
1.59810455E+01
 20
9.42258712E+01
 11
1.59810455E+01
 21
8.72258712E+01
  0
LINE
  8
0
 62
7
 10
1.57010455E+01
 20
9.52258712E+01
 11
1.57010455E+01
 21
8.82258712E+01
  0
LINE
  8
0
 62
7
 10
2.93710455E+01
 20
9.42258712E+01
 11
3.39010455E+01
 21
9.42258712E+01
  0
LINE
  8
0
 62
7
 10
2.90910455E+01
 20
9.52258712E+01
 11
3.49410455E+01
 21
9.52258712E+01
  0
LINE
  8
0
 62
7
 10
1.59810455E+01
 20
9.42258712E+01
 11
2.25410455E+01
 21
9.42258712E+01
  0
LINE
  8
0
 62
7
 10
1.57010455E+01
 20
9.52258712E+01
 11
2.33110455E+01
 21
9.52258712E+01
  0
LINE
  8
0
 62
7
 10
2.33110455E+01
 20
8.82258712E+01
 11
2.90910455E+01
 21
8.82258712E+01
  0
LINE
  8
0
 62
7
 10
4.07010455E+01
 20
8.82258712E+01
 11
3.97010455E+01
 21
8.72258712E+01
  0
LINE
  8
0
 62
7
 10
4.07010455E+01
 20
9.72258712E+01
 11
4.07010455E+01
 21
8.82258712E+01
  0
LINE
  8
0
 62
7
 10
3.49410455E+01
 20
8.82258712E+01
 11
3.39010455E+01
 21
8.72258712E+01
  0
LINE
  8
0
 62
7
 10
3.07110455E+01
 20
1.61225871E+02
 11
3.17910455E+01
 21
1.60225871E+02
  0
LINE
  8
0
 62
7
 10
1.62010455E+01
 20
3.80958712E+01
 11
1.71010455E+01
 21
6.40558712E+01
  0
LINE
  8
0
 62
7
 10
2.90610455E+01
 20
3.80958712E+01
 11
2.99710455E+01
 21
6.40558712E+01
  0
LINE
  8
0
 62
7
 10
3.07610455E+01
 20
3.74158712E+01
 11
3.16710455E+01
 21
6.33758712E+01
  0
LINE
  8
0
 62
7
 10
3.20510455E+01
 20
3.80958712E+01
 11
3.29610455E+01
 21
6.40558712E+01
  0
LINE
  8
0
 62
7
 10
3.16710455E+01
 20
6.33758712E+01
 11
2.99510455E+01
 21
6.33758712E+01
  0
LINE
  8
0
 62
7
 10
2.90610455E+01
 20
3.80958712E+01
 11
2.83610455E+01
 21
3.74158712E+01
  0
LINE
  8
0
 62
7
 10
2.90610455E+01
 20
3.80958712E+01
 11
2.34110455E+01
 21
3.80958712E+01
  0
LINE
  8
0
 62
7
 10
2.83610455E+01
 20
3.74158712E+01
 11
2.21910455E+01
 21
3.74158712E+01
  0
LINE
  8
0
 62
7
 10
2.12810455E+01
 20
6.33758712E+01
 11
1.74710455E+01
 21
6.33758712E+01
  0
LINE
  8
0
 62
7
 10
2.25010455E+01
 20
6.40558712E+01
 11
1.71010455E+01
 21
6.40558712E+01
  0
LINE
  8
0
 62
7
 10
1.65610455E+01
 20
3.74158712E+01
 11
1.74710455E+01
 21
6.33758712E+01
  0
LINE
  8
0
 62
7
 10
2.34110455E+01
 20
3.80958712E+01
 11
2.25010455E+01
 21
6.40558712E+01
  0
LINE
  8
0
 62
7
 10
3.12710455E+01
 20
3.74158712E+01
 11
3.07610455E+01
 21
3.74158712E+01
  0
LINE
  8
0
 62
7
 10
3.24510455E+01
 20
3.80958712E+01
 11
3.20510455E+01
 21
3.80958712E+01
  0
LINE
  8
0
 62
7
 10
3.29510455E+01
 20
6.40558712E+01
 11
2.99710455E+01
 21
6.40558712E+01
  0
LINE
  8
0
 62
7
 10
1.65610455E+01
 20
3.74158712E+01
 11
1.62010455E+01
 21
3.80958712E+01
  0
LINE
  8
0
 62
7
 10
1.74710455E+01
 20
6.33758712E+01
 11
1.71010455E+01
 21
6.40558712E+01
  0
LINE
  8
0
 62
7
 10
2.34110455E+01
 20
3.80958712E+01
 11
2.21910455E+01
 21
3.74158712E+01
  0
LINE
  8
0
 62
7
 10
2.21910455E+01
 20
3.74158712E+01
 11
2.12810455E+01
 21
6.33758712E+01
  0
LINE
  8
0
 62
7
 10
2.12810455E+01
 20
6.33758712E+01
 11
2.25010455E+01
 21
6.40558712E+01
  0
LINE
  8
0
 62
7
 10
3.16710455E+01
 20
6.33758712E+01
 11
3.29510455E+01
 21
6.40558712E+01
  0
LINE
  8
0
 62
7
 10
3.20510455E+01
 20
3.80958712E+01
 11
3.07610455E+01
 21
3.74158712E+01
  0
LINE
  8
0
 62
7
 10
-7.64895446E+00
 20
3.80958712E+01
 11
-6.36895446E+00
 21
3.74158712E+01
  0
LINE
  8
0
 62
7
 10
9.91045537E-01
 20
3.80958712E+01
 11
2.21104554E+00
 21
3.74158712E+01
  0
LINE
  8
0
 62
7
 10
7.83104554E+00
 20
3.74158712E+01
 11
8.20104554E+00
 21
3.80958712E+01
  0
LINE
  8
0
 62
7
 10
-4.66895446E+00
 20
3.80958712E+01
 11
-3.95895446E+00
 21
3.74158712E+01
  0
LINE
  8
0
 62
7
 10
-4.66895446E+00
 20
3.80958712E+01
 11
9.91045537E-01
 21
3.80958712E+01
  0
LINE
  8
0
 62
7
 10
-3.95895446E+00
 20
3.74158712E+01
 11
2.21104554E+00
 21
3.74158712E+01
  0
LINE
  8
0
 62
7
 10
7.83104554E+00
 20
3.74158712E+01
 11
1.65610455E+01
 21
3.74158712E+01
  0
LINE
  8
0
 62
7
 10
8.20104554E+00
 20
3.80958712E+01
 11
1.62010455E+01
 21
3.80958712E+01
  0
LINE
  8
0
 62
7
 10
-6.86895446E+00
 20
3.74158712E+01
 11
-6.36895446E+00
 21
3.74158712E+01
  0
LINE
  8
0
 62
7
 10
-8.04895446E+00
 20
3.80958712E+01
 11
-7.64895446E+00
 21
3.80958712E+01
  0
LINE
  8
0
 62
7
 10
3.29710455E+01
 20
6.73758712E+01
 11
3.34510455E+01
 21
6.68958712E+01
  0
LINE
  8
0
 62
7
 10
3.24510455E+01
 20
3.80958712E+01
 11
3.34510455E+01
 21
6.68958712E+01
  0
LINE
  8
0
 62
7
 10
3.12310455E+01
 20
3.63358712E+01
 11
3.12710455E+01
 21
3.74158712E+01
  0
LINE
  8
0
 62
7
 10
-6.83895446E+00
 20
3.63358712E+01
 11
-6.86895446E+00
 21
3.74158712E+01
  0
LINE
  8
0
 62
7
 10
3.12710455E+01
 20
3.74158712E+01
 11
3.24510455E+01
 21
3.80958712E+01
  0
LINE
  8
0
 62
7
 10
-6.86895446E+00
 20
3.74158712E+01
 11
-8.04895446E+00
 21
3.80958712E+01
  0
LINE
  8
0
 62
7
 10
-5.83895446E+00
 20
3.53758712E+01
 11
3.02310455E+01
 21
3.53758712E+01
  0
LINE
  8
0
 62
7
 10
3.07110455E+01
 20
1.54225871E+02
 11
3.17910455E+01
 21
1.53645871E+02
  0
LINE
  8
0
 62
7
 10
2.32310455E+01
 20
1.60225871E+02
 11
2.22510455E+01
 21
1.61225871E+02
  0
LINE
  8
0
 62
7
 10
2.22510455E+01
 20
1.54225871E+02
 11
2.32310455E+01
 21
1.53645871E+02
  0
LINE
  8
0
 62
7
 10
1.62010455E+01
 20
1.53645871E+02
 11
1.64910455E+01
 21
1.54225871E+02
  0
LINE
  8
0
 62
7
 10
1.62010455E+01
 20
1.60225871E+02
 11
1.64910455E+01
 21
1.61225871E+02
  0
LINE
  8
0
 62
7
 10
3.17910455E+01
 20
1.60225871E+02
 11
3.17910455E+01
 21
1.53645871E+02
  0
LINE
  8
0
 62
7
 10
3.07110455E+01
 20
1.61225871E+02
 11
3.07110455E+01
 21
1.54225871E+02
  0
LINE
  8
0
 62
7
 10
2.83210455E+01
 20
1.61225871E+02
 11
2.88810455E+01
 21
1.60225871E+02
  0
LINE
  8
0
 62
7
 10
3.17910455E+01
 20
1.60225871E+02
 11
3.22010455E+01
 21
1.60225871E+02
  0
LINE
  8
0
 62
7
 10
2.88810455E+01
 20
1.60225871E+02
 11
2.88810455E+01
 21
1.53645871E+02
  0
LINE
  8
0
 62
7
 10
2.88810455E+01
 20
1.53645871E+02
 11
3.17910455E+01
 21
1.53645871E+02
  0
LINE
  8
0
 62
7
 10
2.32310455E+01
 20
1.60225871E+02
 11
2.32310455E+01
 21
1.53645871E+02
  0
LINE
  8
0
 62
7
 10
2.88810455E+01
 20
1.54225871E+02
 11
3.07110455E+01
 21
1.54225871E+02
  0
LINE
  8
0
 62
7
 10
2.22510455E+01
 20
1.61225871E+02
 11
2.22510455E+01
 21
1.54225871E+02
  0
LINE
  8
0
 62
7
 10
1.62010455E+01
 20
1.53645871E+02
 11
2.32310455E+01
 21
1.53645871E+02
  0
LINE
  8
0
 62
7
 10
1.64910455E+01
 20
1.54225871E+02
 11
2.22510455E+01
 21
1.54225871E+02
  0
LINE
  8
0
 62
7
 10
2.32310455E+01
 20
1.60225871E+02
 11
2.88810455E+01
 21
1.60225871E+02
  0
LINE
  8
0
 62
7
 10
1.64910455E+01
 20
1.61225871E+02
 11
1.64910455E+01
 21
1.54225871E+02
  0
LINE
  8
0
 62
7
 10
1.62010455E+01
 20
1.60225871E+02
 11
1.62010455E+01
 21
1.53645871E+02
  0
LINE
  8
0
 62
7
 10
3.22010455E+01
 20
1.60225871E+02
 11
3.12010455E+01
 21
1.61225871E+02
  0
LINE
  8
0
 62
7
 10
3.22010455E+01
 20
1.60225871E+02
 11
3.22010455E+01
 21
1.51225871E+02
  0
LINE
  8
0
 62
7
 10
3.87010455E+01
 20
1.35225871E+02
 11
3.72010455E+01
 21
1.35225871E+02
  0
LINE
  8
0
 62
7
 10
3.97010455E+01
 20
1.34225871E+02
 11
3.87010455E+01
 21
1.35225871E+02
  0
LINE
  8
0
 62
7
 10
3.97010455E+01
 20
1.16225871E+02
 11
3.87010455E+01
 21
1.15225871E+02
  0
LINE
  8
0
 62
7
 10
3.87010455E+01
 20
1.15225871E+02
 11
3.72010455E+01
 21
1.15225871E+02
  0
LINE
  8
0
 62
7
 10
3.97010455E+01
 20
1.34225871E+02
 11
3.97010455E+01
 21
1.16225871E+02
  0
LINE
  8
0
 62
7
 10
3.87010455E+01
 20
1.35225871E+02
 11
3.87010455E+01
 21
1.15225871E+02
  0
LINE
  8
0
 62
7
 10
4.12010455E+01
 20
1.17225871E+02
 11
3.97010455E+01
 21
1.17225871E+02
  0
LINE
  8
0
 62
7
 10
4.12010455E+01
 20
1.17225871E+02
 11
4.02010455E+01
 21
1.18225871E+02
  0
LINE
  8
0
 62
7
 10
3.97010455E+01
 20
1.18225871E+02
 11
4.02010455E+01
 21
1.18225871E+02
  0
LINE
  8
0
 62
7
 10
3.57010455E+01
 20
1.50225871E+02
 11
3.57010455E+01
 21
1.00225871E+02
  0
LINE
  8
0
 62
7
 10
3.72010455E+01
 20
1.01725871E+02
 11
3.57010455E+01
 21
1.00225871E+02
  0
LINE
  8
0
 62
7
 10
4.12010455E+01
 20
9.92258712E+01
 11
4.02010455E+01
 21
9.82258712E+01
  0
LINE
  8
0
 62
7
 10
4.12010455E+01
 20
1.17225871E+02
 11
4.12010455E+01
 21
9.92258712E+01
  0
LINE
  8
0
 62
7
 10
3.19510455E+01
 20
1.51225871E+02
 11
3.19510455E+01
 21
1.50225871E+02
  0
LINE
  8
0
 62
7
 10
3.72010455E+01
 20
1.48725871E+02
 11
3.72010455E+01
 21
1.01725871E+02
  0
LINE
  8
0
  6
CENTER
 62
2
 10
4.72010455E+01
 20
1.30725871E+02
 11
4.72010455E+01
 21
1.19725871E+02
  0
LINE
  8
0
 62
7
 10
4.12010455E+01
 20
1.05225871E+02
 11
5.17010455E+01
 21
1.05225871E+02
  0
LINE
  8
0
 62
7
 10
4.12010455E+01
 20
1.06225871E+02
 11
5.07010455E+01
 21
1.06225871E+02
  0
LINE
  8
0
 62
7
 10
5.17010455E+01
 20
1.05225871E+02
 11
5.07010455E+01
 21
1.06225871E+02
  0
LINE
  8
0
 62
7
 10
5.17010455E+01
 20
8.62258712E+01
 11
5.07010455E+01
 21
8.52258712E+01
  0
LINE
  8
0
 62
7
 10
5.17010455E+01
 20
1.05225871E+02
 11
5.17010455E+01
 21
8.62258712E+01
  0
LINE
  8
0
 62
7
 10
5.99710455E+01
 20
1.02025871E+02
 11
6.50310455E+01
 21
9.32758712E+01
  0
LINE
  8
0
 62
7
 10
6.50310455E+01
 20
1.57175871E+02
 11
5.99710455E+01
 21
1.48415871E+02
  0
LINE
  8
0
 62
7
 10
5.85810455E+01
 20
1.01225871E+02
 11
6.35310455E+01
 21
9.26558712E+01
  0
LINE
  8
0
 62
7
 10
6.35310455E+01
 20
1.57795871E+02
 11
5.85810455E+01
 21
1.49225871E+02
  0
LINE
  8
0
  6
CENTER
 62
2
 10
6.02010455E+01
 20
1.70225871E+02
 11
7.62010455E+01
 21
1.70225871E+02
  0
LINE
  8
0
  6
CENTER
 62
2
 10
6.02010455E+01
 20
8.02258712E+01
 11
7.62010455E+01
 21
8.02258712E+01
  0
LINE
  8
0
 62
7
 10
6.42010455E+01
 20
1.75605871E+02
 11
6.57010455E+01
 21
1.76225871E+02
  0
LINE
  8
0
 62
7
 10
6.42010455E+01
 20
7.48458712E+01
 11
6.57010455E+01
 21
7.42258712E+01
  0
LINE
  8
0
 62
7
 10
6.57010455E+01
 20
7.42258712E+01
 11
7.22010455E+01
 21
7.42258712E+01
  0
LINE
  8
0
 62
7
 10
6.57010455E+01
 20
1.76225871E+02
 11
7.22010455E+01
 21
1.76225871E+02
  0
LINE
  8
0
 62
7
 10
5.17010455E+01
 20
1.03725871E+02
 11
5.77310455E+01
 21
1.03725871E+02
  0
LINE
  8
0
 62
7
 10
3.72010455E+01
 20
1.46725871E+02
 11
5.77310455E+01
 21
1.46725871E+02
  0
LINE
  8
0
 62
7
 10
6.57010455E+01
 20
9.07758712E+01
 11
6.57010455E+01
 21
7.02258712E+01
  0
LINE
  8
0
 62
7
 10
6.57010455E+01
 20
1.80225871E+02
 11
6.57010455E+01
 21
1.59675871E+02
  0
LINE
  8
0
 62
7
 10
6.42010455E+01
 20
9.01558712E+01
 11
6.42010455E+01
 21
7.17258712E+01
  0
LINE
  8
0
 62
7
 10
6.57010455E+01
 20
1.80225871E+02
 11
6.42010455E+01
 21
1.78725871E+02
  0
LINE
  8
0
 62
7
 10
6.57010455E+01
 20
7.02258712E+01
 11
6.42010455E+01
 21
7.17258712E+01
  0
LINE
  8
0
 62
7
 10
6.42010455E+01
 20
1.78725871E+02
 11
6.42010455E+01
 21
1.60295871E+02
  0
LINE
  8
0
 62
7
 10
6.57010455E+01
 20
7.02258712E+01
 11
7.22010455E+01
 21
7.02258712E+01
  0
LINE
  8
0
 62
7
 10
6.57010455E+01
 20
1.80225871E+02
 11
7.22010455E+01
 21
1.80225871E+02
  0
LINE
  8
0
 62
7
 10
3.72010455E+01
 20
1.48225871E+02
 11
5.68510455E+01
 21
1.48225871E+02
  0
LINE
  8
0
 62
7
 10
5.17010455E+01
 20
1.02225871E+02
 11
5.68510455E+01
 21
1.02225871E+02
  0
LINE
  8
0
 62
7
 10
5.72010455E+01
 20
1.48225871E+02
 11
5.72010455E+01
 21
1.02225871E+02
  0
LINE
  8
0
 62
7
 10
7.22010455E+01
 20
1.80225871E+02
 11
7.22010455E+01
 21
7.02258712E+01
  0
LINE
  8
0
  6
CENTER
 62
2
 10
1.22010455E+01
 20
1.66225871E+02
 11
1.22010455E+01
 21
-3.51641288E+01
  0
LINE
  8
0
 62
7
 10
3.72010455E+01
 20
1.48725871E+02
 11
3.57010455E+01
 21
1.50225871E+02
  0
LINE
  8
0
 62
4
 10
2.00741333E+02
 20
-1.49741288E+01
 11
2.16891333E+02
 21
-1.49741288E+01
  0
LINE
  8
0
 62
4
 10
2.02321333E+02
 20
-3.12641288E+01
 11
2.15321333E+02
 21
-3.12641288E+01
  0
LINE
  8
0
 62
4
 10
2.05971333E+02
 20
-3.35641288E+01
 11
2.05971333E+02
 21
-3.17641288E+01
  0
LINE
  8
0
 62
4
 10
2.11671333E+02
 20
-3.35641288E+01
 11
2.11671333E+02
 21
-3.17641288E+01
  0
LINE
  8
0
 62
4
 10
2.12071333E+02
 20
-3.37641288E+01
 11
2.11651333E+02
 21
-3.61641288E+01
  0
LINE
  8
0
 62
4
 10
2.12071333E+02
 20
-3.63641288E+01
 11
2.11651333E+02
 21
-3.87641288E+01
  0
LINE
  8
0
 62
4
 10
2.05571333E+02
 20
-3.63641288E+01
 11
2.05991333E+02
 21
-3.87641288E+01
  0
LINE
  8
0
 62
4
 10
2.05571333E+02
 20
-3.37641288E+01
 11
2.05991333E+02
 21
-3.61641288E+01
  0
LINE
  8
0
 62
4
 10
2.12071333E+02
 20
-3.37641288E+01
 11
2.12071333E+02
 21
-3.35641288E+01
  0
LINE
  8
0
 62
4
 10
2.05571333E+02
 20
-3.37641288E+01
 11
2.05571333E+02
 21
-3.35641288E+01
  0
LINE
  8
0
 62
4
 10
2.12071333E+02
 20
-3.63641288E+01
 11
2.05571333E+02
 21
-3.63641288E+01
  0
LINE
  8
0
 62
4
 10
2.12071333E+02
 20
-3.37641288E+01
 11
2.05571333E+02
 21
-3.37641288E+01
  0
LINE
  8
0
 62
4
 10
2.12071333E+02
 20
-3.35641288E+01
 11
2.05571333E+02
 21
-3.35641288E+01
  0
LINE
  8
0
 62
4
 10
2.12071333E+02
 20
-3.61641288E+01
 11
2.05571333E+02
 21
-3.61641288E+01
  0
LINE
  8
0
 62
4
 10
2.12071333E+02
 20
-3.63641288E+01
 11
2.12071333E+02
 21
-3.61641288E+01
  0
LINE
  8
0
 62
4
 10
2.05571333E+02
 20
-3.63641288E+01
 11
2.05571333E+02
 21
-3.61641288E+01
  0
LINE
  8
0
 62
4
 10
2.11651333E+02
 20
-3.87641288E+01
 11
2.05991333E+02
 21
-3.87641288E+01
  0
LINE
  8
0
 62
4
 10
2.14821333E+02
 20
-3.17641288E+01
 11
2.15321333E+02
 21
-3.12641288E+01
  0
LINE
  8
0
 62
4
 10
2.02321333E+02
 20
-3.12641288E+01
 11
2.02821333E+02
 21
-3.17641288E+01
  0
LINE
  8
0
 62
4
 10
2.02321333E+02
 20
-3.12641288E+01
 11
2.02321333E+02
 21
-3.02641288E+01
  0
LINE
  8
0
 62
4
 10
2.15321333E+02
 20
-3.12641288E+01
 11
2.15321333E+02
 21
-3.02641288E+01
  0
LINE
  8
0
 62
4
 10
2.14821333E+02
 20
-3.17641288E+01
 11
2.02821333E+02
 21
-3.17641288E+01
  0
LINE
  8
0
 62
4
 10
2.16571333E+02
 20
-1.72641288E+01
 11
2.01071333E+02
 21
-1.72641288E+01
  0
LINE
  8
0
 62
4
 10
2.02561333E+02
 20
-2.97641288E+01
 11
2.01811333E+02
 21
-2.97641288E+01
  0
LINE
  8
0
 62
4
 10
2.15831333E+02
 20
-2.97641288E+01
 11
2.15081333E+02
 21
-2.97641288E+01
  0
LINE
  8
0
 62
4
 10
2.06981333E+02
 20
-2.97641288E+01
 11
2.05161333E+02
 21
-2.97641288E+01
  0
LINE
  8
0
 62
4
 10
2.02381333E+02
 20
-2.92641288E+01
 11
2.02561333E+02
 21
-2.97641288E+01
  0
LINE
  8
0
 62
4
 10
2.15261333E+02
 20
-2.92641288E+01
 11
2.15081333E+02
 21
-2.97641288E+01
  0
LINE
  8
0
 62
4
 10
2.15831333E+02
 20
-2.00541288E+01
 11
2.16421333E+02
 21
-1.97641288E+01
  0
LINE
  8
0
 62
4
 10
2.12471333E+02
 20
-2.00541288E+01
 11
2.13131333E+02
 21
-1.97641288E+01
  0
LINE
  8
0
 62
4
 10
2.10661333E+02
 20
-2.00541288E+01
 11
2.10321333E+02
 21
-1.97641288E+01
  0
LINE
  8
0
 62
4
 10
2.06981333E+02
 20
-2.00541288E+01
 11
2.07321333E+02
 21
-1.97641288E+01
  0
LINE
  8
0
 62
4
 10
2.05161333E+02
 20
-2.00541288E+01
 11
2.04501333E+02
 21
-1.97641288E+01
  0
LINE
  8
0
 62
4
 10
2.01811333E+02
 20
-2.00541288E+01
 11
2.01211333E+02
 21
-1.97641288E+01
  0
LINE
  8
0
 62
4
 10
2.01811333E+02
 20
-2.97641288E+01
 11
2.01211333E+02
 21
-2.92641288E+01
  0
LINE
  8
0
 62
4
 10
2.05161333E+02
 20
-2.97641288E+01
 11
2.04501333E+02
 21
-2.92641288E+01
  0
LINE
  8
0
 62
4
 10
2.07321333E+02
 20
-2.92641288E+01
 11
2.06981333E+02
 21
-2.97641288E+01
  0
LINE
  8
0
 62
4
 10
2.10661333E+02
 20
-2.97641288E+01
 11
2.10321333E+02
 21
-2.92641288E+01
  0
LINE
  8
0
 62
4
 10
2.12471333E+02
 20
-2.97641288E+01
 11
2.13131333E+02
 21
-2.92641288E+01
  0
LINE
  8
0
 62
4
 10
2.15831333E+02
 20
-2.97641288E+01
 11
2.16421333E+02
 21
-2.92641288E+01
  0
LINE
  8
0
 62
4
 10
2.12471333E+02
 20
-2.97641288E+01
 11
2.10661333E+02
 21
-2.97641288E+01
  0
LINE
  8
0
 62
4
 10
2.15261333E+02
 20
-2.92641288E+01
 11
2.13131333E+02
 21
-2.92641288E+01
  0
LINE
  8
0
 62
4
 10
2.01211333E+02
 20
-2.92641288E+01
 11
2.01071333E+02
 21
-2.92641288E+01
  0
LINE
  8
0
 62
4
 10
2.04501333E+02
 20
-2.92641288E+01
 11
2.02381333E+02
 21
-2.92641288E+01
  0
LINE
  8
0
 62
4
 10
2.10321333E+02
 20
-2.92641288E+01
 11
2.07321333E+02
 21
-2.92641288E+01
  0
LINE
  8
0
 62
4
 10
2.02381333E+02
 20
-2.00541288E+01
 11
2.01811333E+02
 21
-2.00541288E+01
  0
LINE
  8
0
 62
4
 10
2.02381333E+02
 20
-1.97641288E+01
 11
2.01211333E+02
 21
-1.97641288E+01
  0
LINE
  8
0
 62
4
 10
2.12471333E+02
 20
-2.00541288E+01
 11
2.10661333E+02
 21
-2.00541288E+01
  0
LINE
  8
0
 62
4
 10
2.13131333E+02
 20
-1.97641288E+01
 11
2.10321333E+02
 21
-1.97641288E+01
  0
LINE
  8
0
 62
4
 10
2.06981333E+02
 20
-2.00541288E+01
 11
2.05161333E+02
 21
-2.00541288E+01
  0
LINE
  8
0
 62
4
 10
2.07321333E+02
 20
-1.97641288E+01
 11
2.04501333E+02
 21
-1.97641288E+01
  0
LINE
  8
0
 62
4
 10
2.16571333E+02
 20
-2.92641288E+01
 11
2.16421333E+02
 21
-2.92641288E+01
  0
LINE
  8
0
 62
4
 10
2.15831333E+02
 20
-2.00541288E+01
 11
2.15261333E+02
 21
-2.00541288E+01
  0
LINE
  8
0
 62
4
 10
2.16421333E+02
 20
-1.97641288E+01
 11
2.15261333E+02
 21
-1.97641288E+01
  0
LINE
  8
0
 62
4
 10
2.16421333E+02
 20
-1.97641288E+01
 11
2.16421333E+02
 21
-2.92641288E+01
  0
LINE
  8
0
 62
4
 10
2.15831333E+02
 20
-2.00541288E+01
 11
2.15831333E+02
 21
-2.97641288E+01
  0
LINE
  8
0
 62
4
 10
2.15261333E+02
 20
-1.97641288E+01
 11
2.15261333E+02
 21
-2.92641288E+01
  0
LINE
  8
0
 62
4
 10
2.13131333E+02
 20
-1.97641288E+01
 11
2.13131333E+02
 21
-2.92641288E+01
  0
LINE
  8
0
 62
4
 10
2.12471333E+02
 20
-2.00541288E+01
 11
2.12471333E+02
 21
-2.97641288E+01
  0
LINE
  8
0
 62
4
 10
2.01211333E+02
 20
-1.97641288E+01
 11
2.01211333E+02
 21
-2.92641288E+01
  0
LINE
  8
0
 62
4
 10
2.01811333E+02
 20
-2.00541288E+01
 11
2.01811333E+02
 21
-2.97641288E+01
  0
LINE
  8
0
 62
4
 10
2.02381333E+02
 20
-1.97641288E+01
 11
2.02381333E+02
 21
-2.92641288E+01
  0
LINE
  8
0
 62
4
 10
2.04501333E+02
 20
-1.97641288E+01
 11
2.04501333E+02
 21
-2.92641288E+01
  0
LINE
  8
0
 62
4
 10
2.05161333E+02
 20
-2.00541288E+01
 11
2.05161333E+02
 21
-2.97641288E+01
  0
LINE
  8
0
 62
4
 10
2.06981333E+02
 20
-2.00541288E+01
 11
2.06981333E+02
 21
-2.97641288E+01
  0
LINE
  8
0
 62
4
 10
2.10661333E+02
 20
-2.00541288E+01
 11
2.10661333E+02
 21
-2.97641288E+01
  0
LINE
  8
0
 62
4
 10
2.10321333E+02
 20
-1.97641288E+01
 11
2.10321333E+02
 21
-2.92641288E+01
  0
LINE
  8
0
 62
4
 10
2.07321333E+02
 20
-1.97641288E+01
 11
2.07321333E+02
 21
-2.92641288E+01
  0
LINE
  8
0
 62
6
 10
2.14071333E+02
 20
-1.54741288E+01
 11
2.14071333E+02
 21
-1.67641288E+01
  0
LINE
  8
0
 62
6
 10
2.03571333E+02
 20
-1.54741288E+01
 11
2.03571333E+02
 21
-1.67641288E+01
  0
LINE
  8
0
 62
4
 10
2.02821333E+02
 20
-1.54741288E+01
 11
2.02821333E+02
 21
-1.67641288E+01
  0
LINE
  8
0
 62
4
 10
2.14821333E+02
 20
-1.54741288E+01
 11
2.14821333E+02
 21
-1.67641288E+01
  0
LINE
  8
0
 62
4
 10
2.01571333E+02
 20
-1.67641288E+01
 11
2.01071333E+02
 21
-1.72641288E+01
  0
LINE
  8
0
 62
4
 10
2.16071333E+02
 20
-1.67641288E+01
 11
2.16571333E+02
 21
-1.72641288E+01
  0
LINE
  8
0
 62
4
 10
2.16071333E+02
 20
-1.67641288E+01
 11
2.01571333E+02
 21
-1.67641288E+01
  0
LINE
  8
0
 62
4
 10
2.02071333E+02
 20
-3.02641288E+01
 11
2.01071333E+02
 21
-2.92641288E+01
  0
LINE
  8
0
 62
4
 10
2.16571333E+02
 20
-2.92641288E+01
 11
2.15571333E+02
 21
-3.02641288E+01
  0
LINE
  8
0
 62
4
 10
2.01071333E+02
 20
-1.72641288E+01
 11
2.01071333E+02
 21
-2.92641288E+01
  0
LINE
  8
0
 62
4
 10
2.16571333E+02
 20
-1.72641288E+01
 11
2.16571333E+02
 21
-2.92641288E+01
  0
LINE
  8
0
 62
4
 10
2.15571333E+02
 20
-3.02641288E+01
 11
2.02071333E+02
 21
-3.02641288E+01
  0
LINE
  8
0
 62
4
 10
2.01241333E+02
 20
-1.54741288E+01
 11
2.00741333E+02
 21
-1.49741288E+01
  0
LINE
  8
0
 62
4
 10
2.16391333E+02
 20
-1.54741288E+01
 11
2.16891333E+02
 21
-1.49741288E+01
  0
LINE
  8
0
 62
4
 10
2.16891333E+02
 20
-1.49741288E+01
 11
2.16891333E+02
 21
-1.39741288E+01
  0
LINE
  8
0
 62
4
 10
2.00741333E+02
 20
-1.49741288E+01
 11
2.00741333E+02
 21
-1.39741288E+01
  0
LINE
  8
0
 62
4
 10
2.01241333E+02
 20
-1.54741288E+01
 11
2.16391333E+02
 21
-1.54741288E+01
  0
LINE
  8
0
  6
CENTER
 62
6
 10
-2.49302584E+02
 20
-1.95100372E+02
 11
-2.42302584E+02
 21
-1.95100372E+02
  0
LINE
  8
0
  6
CENTER
 62
6
 10
-2.09302584E+02
 20
-1.55100372E+02
 11
-2.02302584E+02
 21
-1.55100372E+02
  0
LINE
  8
0
  6
CENTER
 62
6
 10
-2.49302584E+02
 20
-1.55100372E+02
 11
-2.42302584E+02
 21
-1.55100372E+02
  0
LINE
  8
0
  6
CENTER
 62
2
 10
-2.25802584E+02
 20
-1.43850372E+02
 11
-2.25802584E+02
 21
-2.06350372E+02
  0
LINE
  8
0
  6
CENTER
 62
2
 10
-1.87069996E+02
 20
-1.75100372E+02
 11
-2.97802584E+02
 21
-1.75100372E+02
  0
ARC
  8
0
 62
4
 10
-2.25800403E+02
 20
-1.75082109E+02
 40
3.49676556E+00
 50
4.52784072E+01
 51
1.55048472E+02
  0
ARC
  8
0
 62
4
 10
-2.40193687E+02
 20
-1.73326329E+02
 40
4.93700744E-01
 50
8.55225138E+01
 51
2.60461526E+02
  0
ARC
  8
0
 62
4
 10
-2.41579901E+02
 20
-1.82796592E+02
 40
4.45083167E-01
 50
1.17096987E+02
 51
2.94881480E+02
  0
CIRCLE
  8
0
 62
4
 10
-2.25802636E+02
 20
-1.75100363E+02
 40
1.99999993E+00
  0
ARC
  8
0
 62
4
 10
-2.25803067E+02
 20
-1.75100591E+02
 40
2.49244846E+00
 50
5.29873950E+01
 51
1.82754352E+02
  0
LINE
  8
0
 62
4
 10
-2.23302636E+02
 20
-1.75140363E+02
 11
-2.18232637E+02
 21
-1.72890363E+02
  0
ARC
  8
0
 62
4
 10
-2.25800403E+02
 20
-1.75082109E+02
 40
3.49676556E+00
 50
2.21827547E+02
 51
6.17427376E+00
  0
ARC
  8
0
 62
4
 10
-2.25796547E+02
 20
-1.75097646E+02
 40
2.49427605E+00
 50
2.29009213E+02
 51
3.59018699E+02
  0
INSERT
  8
0
  2
PP1
  6
BYBLOCK
 62
0
 10
0.00000000E+00
 20
0.00000000E+00
 41
1.00000000E+00
 42
1.00000000E+00
 50
0.00000000E+00
  0
LINE
  8
0
 62
4
 10
-2.18162637E+02
 20
-1.71380363E+02
 11
-2.18232637E+02
 21
-1.72890363E+02
  0
LINE
  8
0
 62
4
 10
-2.19402637E+02
 20
-1.70500363E+02
 11
-2.18162637E+02
 21
-1.71380363E+02
  0
LINE
  8
0
 62
4
 10
-2.24302636E+02
 20
-1.73110363E+02
 11
-2.19402637E+02
 21
-1.70500363E+02
  0
LINE
  8
0
 62
4
 10
-2.40155145E+02
 20
-1.72834135E+02
 11
-2.28970798E+02
 21
-1.73606994E+02
  0
LINE
  8
0
 62
4
 10
-2.41782636E+02
 20
-1.82400363E+02
 11
-2.28292636E+02
 21
-1.75220363E+02
  0
LINE
  8
0
 62
4
 10
-2.41392636E+02
 20
-1.83200363E+02
 11
-2.27432636E+02
 21
-1.76980363E+02
  0
LINE
  8
0
 62
4
 10
-2.40275498E+02
 20
-1.73813204E+02
 11
-2.29296292E+02
 21
-1.75754555E+02
  0
CIRCLE
  8
0
 62
4
 10
-2.25802584E+02
 20
-1.75100372E+02
 40
2.25000000E+01
  0
CIRCLE
  8
0
 62
4
 10
-2.45802584E+02
 20
-1.55108967E+02
 40
2.25000000E+00
  0
CIRCLE
  8
0
 62
4
 10
-2.05802584E+02
 20
-1.55108967E+02
 40
1.62099934E+00
  0
CIRCLE
  8
0
 62
6
 10
-2.05802584E+02
 20
-1.55108967E+02
 40
2.00000000E+00
  0
CIRCLE
  8
0
 62
4
 10
-2.05802584E+02
 20
-1.55108967E+02
 40
2.25000000E+00
  0
CIRCLE
  8
0
 62
4
 10
-2.45802584E+02
 20
-1.95108967E+02
 40
1.62099934E+00
  0
CIRCLE
  8
0
 62
6
 10
-2.45802584E+02
 20
-1.95108967E+02
 40
2.00000000E+00
  0
CIRCLE
  8
0
 62
4
 10
-2.45802584E+02
 20
-1.95108967E+02
 40
2.25000000E+00
  0
LINE
  8
0
  6
CENTER
 62
6
 10
-2.05802584E+02
 20
-1.51600372E+02
 11
-2.05802584E+02
 21
-1.58600372E+02
  0
LINE
  8
0
  6
CENTER
 62
6
 10
-2.45802584E+02
 20
-1.51600372E+02
 11
-2.45802584E+02
 21
-1.58600372E+02
  0
LINE
  8
0
  6
CENTER
 62
6
 10
-2.45802584E+02
 20
-1.91600372E+02
 11
-2.45802584E+02
 21
-1.98600372E+02
  0
LINE
  8
0
 62
4
 10
-1.99552584E+02
 20
-1.53850372E+02
 11
-1.99552584E+02
 21
-1.96350372E+02
  0
LINE
  8
0
 62
4
 10
-2.52052584E+02
 20
-1.53850372E+02
 11
-2.52052584E+02
 21
-1.96350372E+02
  0
ARC
  8
0
 62
4
 10
-2.04556883E+02
 20
-1.53854671E+02
 40
5.00430118E+00
 50
4.92243793E-02
 51
8.99507757E+01
  0
LINE
  8
0
 62
4
 10
-2.04552584E+02
 20
-1.48850372E+02
 11
-2.47052584E+02
 21
-1.48850372E+02
  0
ARC
  8
0
 62
4
 10
-2.47048285E+02
 20
-1.53854671E+02
 40
5.00430118E+00
 50
9.00492241E+01
 51
1.79950776E+02
  0
ARC
  8
0
 62
4
 10
-2.47056880E+02
 20
-1.96354667E+02
 40
4.99570621E+00
 50
1.79950733E+02
 51
2.70049267E+02
  0
LINE
  8
0
 62
4
 10
-2.04552584E+02
 20
-2.01350372E+02
 11
-2.47052584E+02
 21
-2.01350372E+02
  0
ARC
  8
0
 62
4
 10
-2.04548288E+02
 20
-1.96354667E+02
 40
4.99570621E+00
 50
2.69950733E+02
 51
4.92667057E-02
  0
LINE
  8
0
  6
CENTER
 62
2
 10
-8.08025840E+01
 20
-1.75100372E+02
 11
-1.66320530E+02
 21
-1.75100372E+02
  0
LINE
  8
0
 62
4
 10
-1.22802584E+02
 20
-1.68100372E+02
 11
-1.14302584E+02
 21
-1.68100372E+02
  0
LINE
  8
0
 62
4
 10
-1.22802584E+02
 20
-1.82100372E+02
 11
-1.14302584E+02
 21
-1.82100372E+02
  0
LINE
  8
0
 62
4
 10
-1.22802584E+02
 20
-1.75100372E+02
 11
-1.14302584E+02
 21
-1.75100372E+02
  0
ARC
  8
0
 62
4
 10
-1.24798299E+02
 20
-1.99354657E+02
 40
1.99571935E+00
 50
2.69876973E+02
 51
1.23026933E-01
  0
ARC
  8
0
  6
PHANTOM
 62
6
 10
-1.28297919E+02
 20
-2.18366273E+02
 40
5.99877189E+00
 50
2.03417686E+02
 51
2.21617335E+02
  0
ARC
  8
0
  6
PHANTOM
 62
6
 10
-1.28300899E+02
 20
-2.18363602E+02
 40
4.00170714E+00
 50
1.79810574E+02
 51
2.20084575E+02
  0
ARC
  8
0
  6
PHANTOM
 62
6
 10
-1.41294549E+02
 20
-2.18346451E+02
 40
5.99504049E+00
 50
3.18096947E+02
 51
3.36360234E+02
  0
ARC
  8
0
  6
PHANTOM
 62
6
 10
-1.41300471E+02
 20
-2.18353193E+02
 40
3.99788799E+00
 50
3.19673959E+02
 51
4.04345272E-02
  0
ARC
  8
0
  6
PHANTOM
 62
6
 10
-1.32668567E+02
 20
-2.33529623E+02
 40
6.65983090E-01
 50
2.99306140E+02
 51
3.59935608E+02
  0
ARC
  8
0
  6
PHANTOM
 62
6
 10
-1.36934127E+02
 20
-2.33533922E+02
 40
6.68466455E-01
 50
1.79695693E+02
 51
2.39581074E+02
  0
ARC
  8
0
  6
PHANTOM
 62
6
 10
-1.34807584E+02
 20
-2.29758958E+02
 40
5.00110216E+00
 50
2.40469201E+02
 51
2.99530799E+02
  0
ARC
  8
0
  6
PHANTOM
 62
6
 10
-1.41706860E+02
 20
-2.31854648E+02
 40
4.95742500E-01
 50
1.79505799E+02
 51
2.70494201E+02
  0
ARC
  8
0
  6
PHANTOM
 62
6
 10
-1.27898308E+02
 20
-2.31854648E+02
 40
4.95742500E-01
 50
2.69505799E+02
 51
4.94200946E-01
  0
ARC
  8
0
 62
4
 10
-1.54806878E+02
 20
-1.98354666E+02
 40
2.99570867E+00
 50
1.79917865E+02
 51
2.70082135E+02
  0
ARC
  8
0
 62
4
 10
-1.54798276E+02
 20
-1.51854680E+02
 40
3.00431129E+00
 50
9.00821623E+01
 51
1.79917838E+02
  0
ARC
  8
0
 62
4
 10
-1.24806894E+02
 20
-1.50854681E+02
 40
2.00431438E+00
 50
1.23199522E-01
 51
8.98768005E+01
  0
LINE
  8
0
 62
4
 10
-1.22802584E+02
 20
-1.50850372E+02
 11
-1.22802584E+02
 21
-1.99350372E+02
  0
LINE
  8
0
  6
PHANTOM
 62
6
 10
-1.28172584E+02
 20
-2.24820372E+02
 11
-1.28882584E+02
 21
-2.25530372E+02
  0
LINE
  8
0
  6
PHANTOM
 62
6
 10
-1.26802584E+02
 20
-2.01350372E+02
 11
-1.26802584E+02
 21
-2.09350372E+02
  0
LINE
  8
0
  6
CENTER
 62
6
 10
-1.34802584E+02
 20
-2.02350372E+02
 11
-1.34802584E+02
 21
-2.14090372E+02
  0
LINE
  8
0
  6
PHANTOM
 62
6
 10
-1.32302584E+02
 20
-2.14720372E+02
 11
-1.32302584E+02
 21
-2.18350372E+02
  0
LINE
  8
0
  6
PHANTOM
 62
6
 10
-1.37302584E+02
 20
-2.16060372E+02
 11
-1.37302584E+02
 21
-2.18350372E+02
  0
LINE
  8
0
  6
PHANTOM
 62
6
 10
-1.28882584E+02
 20
-2.25530372E+02
 11
-1.32422584E+02
 21
-2.22000372E+02
  0
LINE
  8
0
  6
PHANTOM
 62
6
 10
-1.28172584E+02
 20
-2.24820372E+02
 11
-1.31712584E+02
 21
-2.21290372E+02
  0
LINE
  8
0
  6
PHANTOM
 62
6
 10
-1.31362584E+02
 20
-2.20940372E+02
 11
-1.32782584E+02
 21
-2.22360372E+02
  0
LINE
  8
0
  6
PHANTOM
 62
6
 10
-1.41432584E+02
 20
-2.24820372E+02
 11
-1.37902584E+02
 21
-2.21290372E+02
  0
LINE
  8
0
  6
PHANTOM
 62
6
 10
-1.40732584E+02
 20
-2.25530372E+02
 11
-1.37192584E+02
 21
-2.22000372E+02
  0
LINE
  8
0
  6
PHANTOM
 62
6
 10
-1.41432584E+02
 20
-2.24820372E+02
 11
-1.40732584E+02
 21
-2.25530372E+02
  0
LINE
  8
0
  6
PHANTOM
 62
6
 10
-1.38252584E+02
 20
-2.20940372E+02
 11
-1.36832584E+02
 21
-2.22350372E+02
  0
LINE
  8
0
  6
PHANTOM
 62
6
 10
-1.32302584E+02
 20
-2.02350372E+02
 11
-1.32302584E+02
 21
-2.13680372E+02
  0
LINE
  8
0
  6
PHANTOM
 62
6
 10
-1.37302584E+02
 20
-2.02350372E+02
 11
-1.37302584E+02
 21
-2.15020372E+02
  0
LINE
  8
0
  6
PHANTOM
 62
6
 10
-1.35302584E+02
 20
-2.22350372E+02
 11
-1.35302584E+02
 21
-2.27350372E+02
  0
LINE
  8
0
  6
PHANTOM
 62
6
 10
-1.34302584E+02
 20
-2.22350372E+02
 11
-1.34302584E+02
 21
-2.27350372E+02
  0
LINE
  8
0
  6
PHANTOM
 62
6
 10
-1.35302584E+02
 20
-2.27350372E+02
 11
-1.34302584E+02
 21
-2.27350372E+02
  0
LINE
  8
0
  6
PHANTOM
 62
6
 10
-1.35802584E+02
 20
-2.15660372E+02
 11
-1.35802584E+02
 21
-2.22350372E+02
  0
LINE
  8
0
  6
PHANTOM
 62
6
 10
-1.33802584E+02
 20
-2.15120372E+02
 11
-1.33802584E+02
 21
-2.22350372E+02
  0
LINE
  8
0
  6
PHANTOM
 62
6
 10
-1.35802584E+02
 20
-2.22350372E+02
 11
-1.33802584E+02
 21
-2.22350372E+02
  0
LINE
  8
0
 62
6
 10
-1.38302584E+02
 20
-2.16330372E+02
 11
-1.31302584E+02
 21
-2.14450372E+02
  0
LINE
  8
0
 62
6
 10
-1.38302584E+02
 20
-2.15290372E+02
 11
-1.31302584E+02
 21
-2.13420372E+02
  0
LINE
  8
0
  6
PHANTOM
 62
6
 10
-1.35802584E+02
 20
-2.02350372E+02
 11
-1.35802584E+02
 21
-2.14620372E+02
  0
LINE
  8
0
  6
PHANTOM
 62
6
 10
-1.33802584E+02
 20
-2.02350372E+02
 11
-1.33802584E+02
 21
-2.14090372E+02
  0
LINE
  8
0
  6
PHANTOM
 62
6
 10
-1.42802584E+02
 20
-2.02350372E+02
 11
-1.26802584E+02
 21
-2.02350372E+02
  0
LINE
  8
0
  6
PHANTOM
 62
6
 10
-1.42802584E+02
 20
-2.09350372E+02
 11
-1.26802584E+02
 21
-2.09350372E+02
  0
LINE
  8
0
  6
PHANTOM
 62
6
 10
-1.42802584E+02
 20
-2.01350372E+02
 11
-1.42802584E+02
 21
-2.09350372E+02
  0
LINE
  8
0
 62
4
 10
-1.25802584E+02
 20
-1.48850372E+02
 11
-1.25802584E+02
 21
-2.01350372E+02
  0
LINE
  8
0
  6
PHANTOM
 62
6
 10
-1.42202584E+02
 20
-2.09850372E+02
 11
-1.27402584E+02
 21
-2.09850372E+02
  0
LINE
  8
0
  6
PHANTOM
 62
6
 10
-1.31552584E+02
 20
-2.32850372E+02
 11
-1.31552584E+02
 21
-2.32350372E+02
  0
LINE
  8
0
  6
PHANTOM
 62
6
 10
-1.38052584E+02
 20
-2.32850372E+02
 11
-1.38052584E+02
 21
-2.32350372E+02
  0
LINE
  8
0
  6
PHANTOM
 62
6
 10
-1.38052584E+02
 20
-2.32850372E+02
 11
-1.31552584E+02
 21
-2.32850372E+02
  0
LINE
  8
0
  6
PHANTOM
 62
6
 10
-1.32002584E+02
 20
-2.33530372E+02
 11
-1.32002584E+02
 21
-2.32850372E+02
  0
LINE
  8
0
  6
PHANTOM
 62
6
 10
-1.37602584E+02
 20
-2.33530372E+02
 11
-1.37602584E+02
 21
-2.32850372E+02
  0
LINE
  8
0
  6
PHANTOM
 62
6
 10
-1.27902584E+02
 20
-2.32350372E+02
 11
-1.41702584E+02
 21
-2.32350372E+02
  0
LINE
  8
0
  6
PHANTOM
 62
6
 10
-1.27402584E+02
 20
-2.09350372E+02
 11
-1.27402584E+02
 21
-2.31850372E+02
  0
LINE
  8
0
  6
PHANTOM
 62
6
 10
-1.42202584E+02
 20
-2.09350372E+02
 11
-1.42202584E+02
 21
-2.31850372E+02
  0
LINE
  8
0
 62
4
 10
-1.57802584E+02
 20
-1.51850372E+02
 11
-1.57802584E+02
 21
-1.98350372E+02
  0
LINE
  8
0
 62
4
 10
-1.54802584E+02
 20
-2.01350372E+02
 11
-1.24802584E+02
 21
-2.01350372E+02
  0
LINE
  8
0
 62
4
 10
-1.54802584E+02
 20
-1.48850372E+02
 11
-1.24802584E+02
 21
-1.48850372E+02
  0
LINE
  8
0
 62
6
 10
-1.12302584E+02
 20
-1.80930372E+02
 11
-1.13862584E+02
 21
-1.81830372E+02
  0
LINE
  8
0
 62
6
 10
-1.08302584E+02
 20
-1.69380372E+02
 11
-1.12302584E+02
 21
-1.69270372E+02
  0
LINE
  8
0
 62
4
 10
-1.08302584E+02
 20
-1.68530372E+02
 11
-1.14302584E+02
 21
-1.68370372E+02
  0
LINE
  8
0
 62
6
 10
-1.08302584E+02
 20
-1.80830372E+02
 11
-1.12302584E+02
 21
-1.80930372E+02
  0
LINE
  8
0
 62
4
 10
-1.08302584E+02
 20
-1.81680372E+02
 11
-1.14302584E+02
 21
-1.81840372E+02
  0
LINE
  8
0
 62
6
 10
-1.12302584E+02
 20
-1.69280372E+02
 11
-1.13862584E+02
 21
-1.68380372E+02
  0
LINE
  8
0
 62
4
 10
-1.12302584E+02
 20
-1.68420372E+02
 11
-1.12302584E+02
 21
-1.81790372E+02
  0
LINE
  8
0
 62
4
 10
-1.14302584E+02
 20
-1.68100372E+02
 11
-1.14302584E+02
 21
-1.82100372E+02
  0
LINE
  8
0
  6
CENTER
 62
2
 10
-8.08025840E+01
 20
-1.29100372E+02
 11
-8.08025840E+01
 21
-2.33910372E+02
  0
TEXT
  8
0
 62
7
 10
1.72351434E+02
 20
-6.19102758E+01
 40
6.00000000E+00
  1
-E,-A,-NE,-NA
 41
1.00000000E+00
  7
MONOTXT
  0
LINE
  8
0
 62
7
 10
-3.99250000E+02
 20
-9.24166667E+01
 11
3.99799805E+02
 21
-9.24166667E+01
  0
LINE
  8
0
 62
2
 10
1.75198219E+02
 20
2.50351574E+01
 11
2.42286917E+02
 21
7.05879483E+00
  0
TEXT
  8
0
 62
7
 10
-3.88393125E+02
 20
-1.05416667E+02
 40
6.00000000E+00
  1
PRESSURE GAUGE
 41
1.04477612E+00
  7
MONOTXT
  0
TEXT
  8
0
 62
7
 10
-3.95800283E+02
 20
2.67100000E+02
 40
6.30000019E+00
  1
F.R.L.LARGE FLOW SERIES
 41
1.05504587E+00
  7
MONOTXT
  0
LINE
  8
0
 62
7
 10
-3.99250000E+02
 20
2.56250000E+02
 11
-2.49250000E+02
 21
2.56250000E+02
  0
TEXT
  8
0
 62
7
 10
-9.15592359E+01
 20
1.29221546E+02
 40
6.30000019E+00
  1
OUT
 41
1.00000000E+00
  7
MONOTXT
  0
ARC
  8
0
 62
7
 10
-1.08516683E+02
 20
-2.20806273E+02
 40
1.00591846E+00
 50
9.03361236E+01
 51
1.79663876E+02
  0
ARC
  8
0
 62
7
 10
-1.07918094E+02
 20
-2.21304862E+02
 40
1.00449999E+00
 50
9.02561037E+01
 51
1.79743896E+02
  0
ARC
  8
0
 62
7
 10
-1.07664562E+02
 20
-2.21808393E+02
 40
1.00805363E+00
 50
9.04559428E+01
 51
1.79544057E+02
  0
ARC
  8
0
 62
7
 10
-1.05827442E+02
 20
-2.22305513E+02
 40
1.00515493E+00
 50
9.02930922E+01
 51
1.79706908E+02
  0
ARC
  8
0
 62
7
 10
-1.00388330E+02
 20
-2.20804070E+02
 40
1.00371443E+00
 50
4.53209655E+01
 51
8.96719773E+01
  0
ARC
  8
0
 62
7
 10
-1.00379739E+02
 20
-2.21307544E+02
 40
1.00717589E+00
 50
4.45984217E+01
 51
9.01618482E+01
  0
ARC
  8
0
 62
7
 10
-1.00765412E+02
 20
-2.21803200E+02
 40
1.00283228E+00
 50
1.61591658E-01
 51
8.98384083E+01
  0
ARC
  8
0
 62
7
 10
-1.00765412E+02
 20
-2.22303200E+02
 40
1.00283228E+00
 50
1.61591658E-01
 51
8.98384083E+01
  0
LINE
  8
0
 62
7
 10
-1.09522584E+02
 20
-2.20800372E+02
 11
-1.09522584E+02
 21
-2.32170372E+02
  0
LINE
  8
0
 62
7
 10
-1.08922584E+02
 20
-2.21300372E+02
 11
-1.08922584E+02
 21
-2.32250372E+02
  0
LINE
  8
0
 62
7
 10
-1.08672584E+02
 20
-2.21800372E+02
 11
-1.08672584E+02
 21
-2.32300372E+02
  0
LINE
  8
0
 62
7
 10
-1.06832584E+02
 20
-2.22300372E+02
 11
-1.06832584E+02
 21
-2.32670372E+02
  0
LINE
  8
0
 62
7
 10
-9.97625840E+01
 20
-2.21800372E+02
 11
-9.97625840E+01
 21
-2.31100372E+02
  0
LINE
  8
0
 62
7
 10
-9.93825840E+01
 20
-2.28960372E+02
 11
-9.93825840E+01
 21
-2.31100372E+02
  0
LINE
  8
0
 62
7
 10
-1.08522584E+02
 20
-2.19800372E+02
 11
-1.00382584E+02
 21
-2.19800372E+02
  0
LINE
  8
0
 62
7
 10
-1.07922584E+02
 20
-2.20300372E+02
 11
-1.00382584E+02
 21
-2.20300372E+02
  0
LINE
  8
0
 62
7
 10
-1.05832584E+02
 20
-2.21300372E+02
 11
-1.00762584E+02
 21
-2.21300372E+02
  0
LINE
  8
0
 62
7
 10
-1.07672584E+02
 20
-2.20800372E+02
 11
-1.00762584E+02
 21
-2.20800372E+02
  0
LINE
  8
0
 62
7
 10
-1.14812584E+02
 20
-2.32100372E+02
 11
-1.14962584E+02
 21
-2.15100372E+02
  0
ARC
  8
0
 62
7
 10
1.81098583E+02
 20
3.52312188E+00
 40
9.97254469E-01
 50
1.79842042E+02
 51
2.70157958E+02
  0
ARC
  8
0
 62
7
 10
1.81697244E+02
 20
4.02178289E+00
 40
9.95920079E-01
 50
1.79764797E+02
 51
2.70235203E+02
  0
ARC
  8
0
 62
7
 10
1.81955802E+02
 20
4.52034098E+00
 40
9.94485161E-01
 50
1.79681383E+02
 51
2.70318617E+02
  0
ARC
  8
0
 62
7
 10
1.83787928E+02
 20
5.02246710E+00
 40
9.96601718E-01
 50
1.79804294E+02
 51
2.70195706E+02
  0
ARC
  8
0
 62
7
 10
1.89243089E+02
 20
3.52411462E+00
 40
9.98244967E-01
 50
2.69899178E+02
 51
1.00821524E-01
  0
ARC
  8
0
 62
7
 10
1.89243089E+02
 20
4.02411462E+00
 40
9.98244967E-01
 50
2.69899178E+02
 51
1.00821524E-01
  0
ARC
  8
0
 62
7
 10
1.88861336E+02
 20
4.52586768E+00
 40
9.99996479E-01
 50
2.70000000E+02
 51
2.01734585E-04
  0
ARC
  8
0
 62
7
 10
1.88861336E+02
 20
5.02586768E+00
 40
9.99996479E-01
 50
2.70000000E+02
 51
2.01734585E-04
  0
ARC
  8
0
 62
7
 10
2.36538267E+02
 20
3.52893653E+00
 40
1.00307001E+00
 50
2.70175093E+02
 51
3.59824907E+02
  0
ARC
  8
0
 62
7
 10
2.35939691E+02
 20
4.02751313E+00
 40
1.00164327E+00
 50
2.70093921E+02
 51
3.59906079E+02
  0
ARC
  8
0
 62
7
 10
2.35681156E+02
 20
4.52604765E+00
 40
1.00017647E+00
 50
2.70000000E+02
 51
3.59989892E+02
  0
ARC
  8
0
 62
7
 10
2.33848910E+02
 20
5.02829329E+00
 40
1.00242502E+00
 50
2.70138440E+02
 51
3.59861560E+02
  0
ARC
  8
0
 62
7
 10
2.28388755E+02
 20
3.52329403E+00
 40
9.97426164E-01
 50
1.79851958E+02
 51
2.70148042E+02
  0
ARC
  8
0
 62
7
 10
2.28388755E+02
 20
4.02329403E+00
 40
9.97426164E-01
 50
1.79851958E+02
 51
2.70148042E+02
  0
ARC
  8
0
 62
7
 10
2.28775532E+02
 20
4.52007075E+00
 40
9.94216466E-01
 50
1.79665723E+02
 51
2.70334277E+02
  0
ARC
  8
0
 62
7
 10
2.28775532E+02
 20
5.02007075E+00
 40
9.94216466E-01
 50
1.79665723E+02
 51
2.70334277E+02
  0
ARC
  8
0
 62
7
 10
1.90398894E+02
 20
1.02398007E+00
 40
1.49981091E+01
 50
1.80489408E+02
 51
2.70009314E+02
  0
ARC
  8
0
 62
7
 10
2.27233071E+02
 20
1.02468567E+00
 40
1.49988146E+01
 50
2.69993359E+02
 51
3.59507920E+02
  0
LINE
  8
0
 62
7
 10
1.80101333E+02
 20
2.37213720E+01
 11
1.80101333E+02
 21
3.52587120E+00
  0
LINE
  8
0
 62
7
 10
1.80701333E+02
 20
2.35606025E+01
 11
1.80701333E+02
 21
4.02587120E+00
  0
LINE
  8
0
 62
7
 10
1.90241333E+02
 20
2.10043672E+01
 11
1.90241333E+02
 21
3.52587120E+00
  0
LINE
  8
0
 62
7
 10
1.89241333E+02
 20
2.52587120E+00
 11
1.81101333E+02
 21
2.52587120E+00
  0
LINE
  8
0
 62
7
 10
1.89241333E+02
 20
3.02587120E+00
 11
1.81701333E+02
 21
3.02587120E+00
  0
LINE
  8
0
 62
7
 10
1.89861333E+02
 20
2.11061879E+01
 11
1.89861333E+02
 21
4.52587120E+00
  0
LINE
  8
0
 62
7
 10
1.82791333E+02
 20
2.30005887E+01
 11
1.82791333E+02
 21
5.02587120E+00
  0
LINE
  8
0
 62
7
 10
1.80961333E+02
 20
2.34909357E+01
 11
1.80961333E+02
 21
4.52587120E+00
  0
LINE
  8
0
 62
7
 10
1.88861333E+02
 20
4.02587120E+00
 11
1.83791333E+02
 21
4.02587120E+00
  0
LINE
  8
0
 62
7
 10
1.88861333E+02
 20
3.52587120E+00
 11
1.81961333E+02
 21
3.52587120E+00
  0
LINE
  8
0
 62
7
 10
2.37541333E+02
 20
8.33037039E+00
 11
2.37541333E+02
 21
3.52587120E+00
  0
LINE
  8
0
 62
7
 10
2.36941333E+02
 20
8.49113990E+00
 11
2.36941333E+02
 21
4.02587120E+00
  0
LINE
  8
0
 62
7
 10
2.27391333E+02
 20
1.10500547E+01
 11
2.27391333E+02
 21
3.52587120E+00
  0
LINE
  8
0
 62
7
 10
2.28391333E+02
 20
2.52587120E+00
 11
2.36541333E+02
 21
2.52587120E+00
  0
LINE
  8
0
 62
7
 10
2.28391333E+02
 20
3.02587120E+00
 11
2.35941333E+02
 21
3.02587120E+00
  0
LINE
  8
0
 62
7
 10
2.27781333E+02
 20
1.09455545E+01
 11
2.27781333E+02
 21
4.52587120E+00
  0
LINE
  8
0
 62
7
 10
2.34851333E+02
 20
9.05115372E+00
 11
2.34851333E+02
 21
5.02587120E+00
  0
LINE
  8
0
 62
7
 10
2.36681333E+02
 20
8.56080669E+00
 11
2.36681333E+02
 21
4.52587120E+00
  0
LINE
  8
0
 62
7
 10
2.28781333E+02
 20
4.02587120E+00
 11
2.33851333E+02
 21
4.02587120E+00
  0
LINE
  8
0
 62
7
 10
2.42231333E+02
 20
8.95871200E-01
 11
2.42287177E+02
 21
7.05872515E+00
  0
LINE
  8
0
 62
7
 10
1.75401333E+02
 20
8.95871200E-01
 11
1.75198219E+02
 21
2.50351574E+01
  0
LINE
  8
0
 62
7
 10
2.28781333E+02
 20
3.52587120E+00
 11
2.35681333E+02
 21
3.52587120E+00
  0
LINE
  8
0
 62
7
 10
2.27231333E+02
 20
-1.39741288E+01
 11
1.90401333E+02
 21
-1.39741288E+01
  0
LINE
  8
0
  6
CENTER
 62
2
 10
2.08821333E+02
 20
1.60258712E+01
 11
2.08821333E+02
 21
-4.63565144E+01
  0
TEXT
  8
0
 62
7
 10
-2.39616302E+02
 20
-2.67750000E+02
 40
6.00000000E+00
  1
-GS1A,-GS1B,-GS1C,-GS1D
 41
1.00000000E+00
  7
MONOTXT
  0
TEXT
  8
0
 62
7
 10
-3.35409236E+02
 20
1.29221577E+02
 40
6.30000019E+00
  1
IN
 41
1.00000000E+00
  7
MONOTXT
  0
POLYLINE
  8
0
 62
2
 66
1
  0
VERTEX
  8
0
 62
2
 10
-1.14811545E+02
 20
-2.32094538E+02
  0
VERTEX
  8
0
 62
2
 10
-1.14333950E+02
 20
-2.32053395E+02
  0
VERTEX
  8
0
 62
2
 10
-1.13856478E+02
 20
-2.32020891E+02
  0
VERTEX
  8
0
 62
2
 10
-1.13379225E+02
 20
-2.31997263E+02
  0
VERTEX
  8
0
 62
2
 10
-1.12902286E+02
 20
-2.31982749E+02
  0
VERTEX
  8
0
 62
2
 10
-1.12425756E+02
 20
-2.31977587E+02
  0
VERTEX
  8
0
 62
2
 10
-1.11949731E+02
 20
-2.31982014E+02
  0
VERTEX
  8
0
 62
2
 10
-1.11474306E+02
 20
-2.31996268E+02
  0
VERTEX
  8
0
 62
2
 10
-1.10999576E+02
 20
-2.32020587E+02
  0
VERTEX
  8
0
 62
2
 10
-1.10525637E+02
 20
-2.32055209E+02
  0
VERTEX
  8
0
 62
2
 10
-1.10052584E+02
 20
-2.32100372E+02
  0
VERTEX
  8
0
 62
2
 10
-1.08199651E+02
 20
-2.32376690E+02
  0
VERTEX
  8
0
 62
2
 10
-1.06358815E+02
 20
-2.32783827E+02
  0
VERTEX
  8
0
 62
2
 10
-1.04527285E+02
 20
-2.33285448E+02
  0
VERTEX
  8
0
 62
2
 10
-1.02702268E+02
 20
-2.33845221E+02
  0
VERTEX
  8
0
 62
2
 10
-1.00880972E+02
 20
-2.34426812E+02
  0
VERTEX
  8
0
 62
2
 10
-9.90606053E+01
 20
-2.34993887E+02
  0
VERTEX
  8
0
 62
2
 10
-9.72383752E+01
 20
-2.35510114E+02
  0
VERTEX
  8
0
 62
2
 10
-9.54114897E+01
 20
-2.35939160E+02
  0
VERTEX
  8
0
 62
2
 10
-9.35771567E+01
 20
-2.36244690E+02
  0
VERTEX
  8
0
 62
2
 10
-9.17325840E+01
 20
-2.36390372E+02
  0
VERTEX
  8
0
 62
2
 10
-9.06300857E+01
 20
-2.36388280E+02
  0
VERTEX
  8
0
 62
2
 10
-8.95248799E+01
 20
-2.36320880E+02
  0
VERTEX
  8
0
 62
2
 10
-8.84188037E+01
 20
-2.36192189E+02
  0
VERTEX
  8
0
 62
2
 10
-8.73136944E+01
 20
-2.36006225E+02
  0
VERTEX
  8
0
 62
2
 10
-8.62113890E+01
 20
-2.35767007E+02
  0
VERTEX
  8
0
 62
2
 10
-8.51137246E+01
 20
-2.35478552E+02
  0
VERTEX
  8
0
 62
2
 10
-8.40225383E+01
 20
-2.35144880E+02
  0
VERTEX
  8
0
 62
2
 10
-8.29396672E+01
 20
-2.34770008E+02
  0
VERTEX
  8
0
 62
2
 10
-8.18669485E+01
 20
-2.34357955E+02
  0
VERTEX
  8
0
 62
2
 10
-8.08062192E+01
 20
-2.33912738E+02
  0
SEQEND
  8
0
  0
POLYLINE
  8
0
 62
2
 66
1
  0
VERTEX
  8
0
 62
2
 10
-2.61582286E+02
 20
-2.22648972E+02
  0
VERTEX
  8
0
 62
2
 10
-2.60734970E+02
 20
-2.22524789E+02
  0
VERTEX
  8
0
 62
2
 10
-2.59886544E+02
 20
-2.22416243E+02
  0
VERTEX
  8
0
 62
2
 10
-2.59037369E+02
 20
-2.22324164E+02
  0
VERTEX
  8
0
 62
2
 10
-2.58187808E+02
 20
-2.22249381E+02
  0
VERTEX
  8
0
 62
2
 10
-2.57338222E+02
 20
-2.22192724E+02
  0
VERTEX
  8
0
 62
2
 10
-2.56488974E+02
 20
-2.22155023E+02
  0
VERTEX
  8
0
 62
2
 10
-2.55640423E+02
 20
-2.22137108E+02
  0
VERTEX
  8
0
 62
2
 10
-2.54792934E+02
 20
-2.22139808E+02
  0
VERTEX
  8
0
 62
2
 10
-2.53946867E+02
 20
-2.22163952E+02
  0
VERTEX
  8
0
 62
2
 10
-2.53102584E+02
 20
-2.22210372E+02
  0
VERTEX
  8
0
 62
2
 10
-2.51306637E+02
 20
-2.22383296E+02
  0
VERTEX
  8
0
 62
2
 10
-2.49518612E+02
 20
-2.22641948E+02
  0
VERTEX
  8
0
 62
2
 10
-2.47736535E+02
 20
-2.22966601E+02
  0
VERTEX
  8
0
 62
2
 10
-2.45958429E+02
 20
-2.23337532E+02
  0
VERTEX
  8
0
 62
2
 10
-2.44182321E+02
 20
-2.23735016E+02
  0
VERTEX
  8
0
 62
2
 10
-2.42406233E+02
 20
-2.24139329E+02
  0
VERTEX
  8
0
 62
2
 10
-2.40628191E+02
 20
-2.24530745E+02
  0
VERTEX
  8
0
 62
2
 10
-2.38846219E+02
 20
-2.24889541E+02
  0
VERTEX
  8
0
 62
2
 10
-2.37058342E+02
 20
-2.25195991E+02
  0
VERTEX
  8
0
 62
2
 10
-2.35262584E+02
 20
-2.25430372E+02
  0
VERTEX
  8
0
 62
2
 10
-2.34152838E+02
 20
-2.25531178E+02
  0
VERTEX
  8
0
 62
2
 10
-2.33040221E+02
 20
-2.25598621E+02
  0
VERTEX
  8
0
 62
2
 10
-2.31925280E+02
 20
-2.25634342E+02
  0
VERTEX
  8
0
 62
2
 10
-2.30808563E+02
 20
-2.25639980E+02
  0
VERTEX
  8
0
 62
2
 10
-2.29690618E+02
 20
-2.25617178E+02
  0
VERTEX
  8
0
 62
2
 10
-2.28571993E+02
 20
-2.25567576E+02
  0
VERTEX
  8
0
 62
2
 10
-2.27453235E+02
 20
-2.25492816E+02
  0
VERTEX
  8
0
 62
2
 10
-2.26334892E+02
 20
-2.25394538E+02
  0
VERTEX
  8
0
 62
2
 10
-2.25217513E+02
 20
-2.25274384E+02
  0
VERTEX
  8
0
 62
2
 10
-2.24101644E+02
 20
-2.25133995E+02
  0
SEQEND
  8
0
  0
ARC
  8
0
 62
7
 10
-2.42797584E+02
 20
-1.57608112E+02
 40
5.54918156E+01
 50
2.59108674E+02
 51
2.80891326E+02
  0
ARC
  8
0
 62
7
 10
-8.08025840E+01
 20
-1.75100372E+02
 40
2.10000000E+01
 50
9.00000002E+01
 51
2.70000000E+02
  0
ARC
  8
0
 62
7
 10
-8.08025840E+01
 20
-1.75100372E+02
 40
1.20550000E+01
 50
9.00000002E+01
 51
2.70000000E+02
  0
ARC
  8
0
 62
2
 10
-8.08025840E+01
 20
-1.75100372E+02
 40
1.32250000E+01
 50
9.00000002E+01
 51
2.70000000E+02
  0
ARC
  8
0
 62
7
 10
-8.08025808E+01
 20
-1.72100372E+02
 40
6.99992345E+00
 50
1.28212415E+02
 51
2.31787585E+02
  0
LINE
  8
0
 62
7
 10
-1.20302584E+02
 20
-1.95100372E+02
 11
-1.19302584E+02
 21
-1.94100372E+02
  0
LINE
  8
0
 62
7
 10
-8.51325840E+01
 20
-1.77600372E+02
 11
-8.08025840E+01
 21
-1.77600372E+02
  0
LINE
  8
0
 62
7
 10
-8.51325840E+01
 20
-1.66600372E+02
 11
-8.08025840E+01
 21
-1.66600372E+02
  0
LINE
  8
0
 62
7
 10
-1.13302584E+02
 20
-1.92600372E+02
 11
-1.09802584E+02
 21
-1.96100372E+02
  0
LINE
  8
0
 62
7
 10
-1.13302584E+02
 20
-1.81820372E+02
 11
-1.13302584E+02
 21
-1.92600372E+02
  0
LINE
  8
0
 62
7
 10
-1.13302584E+02
 20
-1.57600372E+02
 11
-1.13302584E+02
 21
-1.68390372E+02
  0
LINE
  8
0
 62
7
 10
-1.07802584E+02
 20
-1.52100372E+02
 11
-1.05802584E+02
 21
-1.52100372E+02
  0
LINE
  8
0
 62
7
 10
-1.07802584E+02
 20
-1.52100372E+02
 11
-1.07802584E+02
 21
-1.65600372E+02
  0
LINE
  8
0
 62
7
 10
-1.13302584E+02
 20
-1.57600372E+02
 11
-1.07802584E+02
 21
-1.52100372E+02
  0
LINE
  8
0
 62
7
 10
-2.14302584E+02
 20
-2.12100372E+02
 11
-2.15302584E+02
 21
-2.13100372E+02
  0
LINE
  8
0
 62
7
 10
-2.14302584E+02
 20
-2.03100372E+02
 11
-2.14302584E+02
 21
-2.12100372E+02
  0
LINE
  8
0
 62
7
 10
-2.25622584E+02
 20
-2.13100372E+02
 11
-2.25902584E+02
 21
-2.12100372E+02
  0
LINE
  8
0
 62
7
 10
-2.25622584E+02
 20
-2.06100372E+02
 11
-2.25902584E+02
 21
-2.05100372E+02
  0
LINE
  8
0
 62
7
 10
-2.21112584E+02
 20
-2.06100372E+02
 11
-2.20062584E+02
 21
-2.05100372E+02
  0
LINE
  8
0
 62
7
 10
-2.20062584E+02
 20
-2.12100372E+02
 11
-2.21102584E+02
 21
-2.13100372E+02
  0
LINE
  8
0
 62
7
 10
-2.14522584E+02
 20
-2.05100372E+02
 11
-2.15572584E+02
 21
-2.06100372E+02
  0
LINE
  8
0
 62
7
 10
-2.14522584E+02
 20
-2.12100372E+02
 11
-2.15572584E+02
 21
-2.13100372E+02
  0
LINE
  8
0
 62
7
 10
-2.14522584E+02
 20
-2.05100372E+02
 11
-2.14522584E+02
 21
-2.12100372E+02
  0
LINE
  8
0
 62
7
 10
-2.15572584E+02
 20
-2.06100372E+02
 11
-2.15572584E+02
 21
-2.13100372E+02
  0
LINE
  8
0
 62
7
 10
-2.16562584E+02
 20
-2.12100372E+02
 11
-2.17322584E+02
 21
-2.13100372E+02
  0
LINE
  8
0
 62
7
 10
-2.16562584E+02
 20
-2.12100372E+02
 11
-2.20062584E+02
 21
-2.12100372E+02
  0
LINE
  8
0
 62
7
 10
-2.15572584E+02
 20
-2.06100372E+02
 11
-2.16562584E+02
 21
-2.06100372E+02
  0
LINE
  8
0
 62
7
 10
-2.14522584E+02
 20
-2.05100372E+02
 11
-2.16562584E+02
 21
-2.05100372E+02
  0
LINE
  8
0
 62
7
 10
-2.16562584E+02
 20
-2.05100372E+02
 11
-2.16562584E+02
 21
-2.12100372E+02
  0
LINE
  8
0
 62
7
 10
-2.21102584E+02
 20
-2.06100372E+02
 11
-2.25622584E+02
 21
-2.06100372E+02
  0
LINE
  8
0
 62
7
 10
-2.20062584E+02
 20
-2.05100372E+02
 11
-2.25902584E+02
 21
-2.05100372E+02
  0
LINE
  8
0
 62
7
 10
-2.21102584E+02
 20
-2.06100372E+02
 11
-2.21102584E+02
 21
-2.13100372E+02
  0
LINE
  8
0
 62
7
 10
-2.20062584E+02
 20
-2.05100372E+02
 11
-2.20062584E+02
 21
-2.12100372E+02
  0
LINE
  8
0
 62
7
 10
-2.25902584E+02
 20
-2.12100372E+02
 11
-2.32312584E+02
 21
-2.12100372E+02
  0
LINE
  8
0
 62
7
 10
-2.25902584E+02
 20
-2.05100372E+02
 11
-2.25902584E+02
 21
-2.12100372E+02
  0
LINE
  8
0
 62
7
 10
-2.25622584E+02
 20
-2.06100372E+02
 11
-2.25622584E+02
 21
-2.13100372E+02
  0
LINE
  8
0
 62
7
 10
-2.14302584E+02
 20
-2.12100372E+02
 11
-2.14522584E+02
 21
-2.12100372E+02
  0
LINE
  8
0
 62
7
 10
-2.62562584E+02
 20
-2.15100372E+02
 11
-2.23032584E+02
 21
-2.15100372E+02
  0
LINE
  8
0
 62
7
 10
-2.64302584E+02
 20
-2.14100372E+02
 11
-2.21302584E+02
 21
-2.14100372E+02
  0
LINE
  8
0
 62
7
 10
-2.64302584E+02
 20
-2.14100372E+02
 11
-2.62562584E+02
 21
-2.15100372E+02
  0
LINE
  8
0
 62
7
 10
-2.64302584E+02
 20
-2.13100372E+02
 11
-2.64302584E+02
 21
-2.14100372E+02
  0
LINE
  8
0
 62
7
 10
-2.70302584E+02
 20
-2.13100372E+02
 11
-2.15302584E+02
 21
-2.13100372E+02
  0
LINE
  8
0
 62
7
 10
-2.71302584E+02
 20
-2.12100372E+02
 11
-2.70302584E+02
 21
-2.13100372E+02
  0
LINE
  8
0
 62
7
 10
-2.71302584E+02
 20
-2.03100372E+02
 11
-2.71302584E+02
 21
-2.12100372E+02
  0
LINE
  8
0
 62
7
 10
-2.84912584E+02
 20
-1.89490372E+02
 11
-2.85802584E+02
 21
-1.90100372E+02
  0
LINE
  8
0
 62
7
 10
-2.85802584E+02
 20
-1.60100372E+02
 11
-2.85802584E+02
 21
-1.90100372E+02
  0
LINE
  8
0
 62
7
 10
-2.84912584E+02
 20
-1.60720372E+02
 11
-2.84912584E+02
 21
-1.89490372E+02
  0
LINE
  8
0
 62
7
 10
-2.85802584E+02
 20
-1.60100372E+02
 11
-2.84912584E+02
 21
-1.60720372E+02
  0
LINE
  8
0
 62
7
 10
-2.00092584E+02
 20
-1.98600372E+02
 11
-1.92802584E+02
 21
-1.98600372E+02
  0
LINE
  8
0
 62
7
 10
-2.01252584E+02
 20
-2.00100372E+02
 11
-1.94302584E+02
 21
-2.00100372E+02
  0
LINE
  8
0
 62
7
 10
-2.00092584E+02
 20
-1.51600372E+02
 11
-1.92802584E+02
 21
-1.51600372E+02
  0
LINE
  8
0
 62
7
 10
-2.01252584E+02
 20
-1.50100372E+02
 11
-1.94302584E+02
 21
-1.50100372E+02
  0
LINE
  8
0
 62
7
 10
-2.57492584E+02
 20
-1.83100372E+02
 11
-2.52052584E+02
 21
-1.83100372E+02
  0
LINE
  8
0
 62
7
 10
-2.56492584E+02
 20
-1.82100372E+02
 11
-2.52052584E+02
 21
-1.82100372E+02
  0
LINE
  8
0
 62
7
 10
-2.59972584E+02
 20
-2.13100372E+02
 11
-2.59692584E+02
 21
-2.12100372E+02
  0
LINE
  8
0
 62
7
 10
-2.59972584E+02
 20
-2.06100372E+02
 11
-2.59692584E+02
 21
-2.05100372E+02
  0
LINE
  8
0
 62
7
 10
-2.64492584E+02
 20
-2.06100372E+02
 11
-2.65542584E+02
 21
-2.05100372E+02
  0
LINE
  8
0
 62
7
 10
-2.65542584E+02
 20
-2.12100372E+02
 11
-2.64492584E+02
 21
-2.13100372E+02
  0
LINE
  8
0
 62
7
 10
-2.71082584E+02
 20
-2.05100372E+02
 11
-2.70032584E+02
 21
-2.06100372E+02
  0
LINE
  8
0
 62
7
 10
-2.71082584E+02
 20
-2.12100372E+02
 11
-2.70032584E+02
 21
-2.13100372E+02
  0
LINE
  8
0
 62
7
 10
-2.71082584E+02
 20
-2.05100372E+02
 11
-2.71082584E+02
 21
-2.12100372E+02
  0
LINE
  8
0
 62
7
 10
-2.70032584E+02
 20
-2.06100372E+02
 11
-2.70032584E+02
 21
-2.13100372E+02
  0
LINE
  8
0
 62
7
 10
-2.69042584E+02
 20
-2.12100372E+02
 11
-2.68282584E+02
 21
-2.13100372E+02
  0
LINE
  8
0
 62
7
 10
-2.69042584E+02
 20
-2.12100372E+02
 11
-2.65542584E+02
 21
-2.12100372E+02
  0
LINE
  8
0
 62
7
 10
-2.70032584E+02
 20
-2.06100372E+02
 11
-2.69042584E+02
 21
-2.06100372E+02
  0
LINE
  8
0
 62
7
 10
-2.71082584E+02
 20
-2.05100372E+02
 11
-2.69042584E+02
 21
-2.05100372E+02
  0
LINE
  8
0
 62
7
 10
-2.69042584E+02
 20
-2.05100372E+02
 11
-2.69042584E+02
 21
-2.12100372E+02
  0
LINE
  8
0
 62
7
 10
-2.64492584E+02
 20
-2.06100372E+02
 11
-2.59972584E+02
 21
-2.06100372E+02
  0
LINE
  8
0
 62
7
 10
-2.65542584E+02
 20
-2.05100372E+02
 11
-2.59692584E+02
 21
-2.05100372E+02
  0
LINE
  8
0
 62
7
 10
-2.64492584E+02
 20
-2.06100372E+02
 11
-2.64492584E+02
 21
-2.13100372E+02
  0
LINE
  8
0
 62
7
 10
-2.65542584E+02
 20
-2.05100372E+02
 11
-2.65542584E+02
 21
-2.12100372E+02
  0
LINE
  8
0
 62
7
 10
-2.59692584E+02
 20
-2.12100372E+02
 11
-2.53282584E+02
 21
-2.12100372E+02
  0
LINE
  8
0
 62
7
 10
-2.59692584E+02
 20
-2.05100372E+02
 11
-2.59692584E+02
 21
-2.12100372E+02
  0
LINE
  8
0
 62
7
 10
-2.59972584E+02
 20
-2.06100372E+02
 11
-2.59972584E+02
 21
-2.13100372E+02
  0
LINE
  8
0
 62
7
 10
-2.71302584E+02
 20
-2.12100372E+02
 11
-2.71082584E+02
 21
-2.12100372E+02
  0
LINE
  8
0
 62
7
 10
-1.94302584E+02
 20
-2.00100372E+02
 11
-1.94302584E+02
 21
-1.50100372E+02
  0
LINE
  8
0
 62
7
 10
-2.20302584E+02
 20
-2.02100372E+02
 11
-2.20302584E+02
 21
-2.03100372E+02
  0
LINE
  8
0
 62
2
 10
-2.21302584E+02
 20
-2.02100372E+02
 11
-2.21302584E+02
 21
-2.03100372E+02
  0
LINE
  8
0
 62
2
 10
-2.64302584E+02
 20
-2.02100372E+02
 11
-2.64302584E+02
 21
-2.03100372E+02
  0
LINE
  8
0
 62
7
 10
-2.65302584E+02
 20
-2.02100372E+02
 11
-2.65302584E+02
 21
-2.03100372E+02
  0
LINE
  8
0
 62
2
 10
-2.32312584E+02
 20
-2.03100372E+02
 11
-2.53282584E+02
 21
-2.12100372E+02
  0
LINE
  8
0
 62
2
 10
-2.53282584E+02
 20
-2.03100372E+02
 11
-2.32312584E+02
 21
-2.12100372E+02
  0
LINE
  8
0
 62
7
 10
-2.32312584E+02
 20
-2.03100372E+02
 11
-2.32312584E+02
 21
-2.12100372E+02
  0
LINE
  8
0
 62
7
 10
-2.53282584E+02
 20
-2.03100372E+02
 11
-2.53282584E+02
 21
-2.12100372E+02
  0
LINE
  8
0
 62
7
 10
-2.71302584E+02
 20
-2.03100372E+02
 11
-2.14302584E+02
 21
-2.03100372E+02
  0
LINE
  8
0
 62
7
 10
-2.62392584E+02
 20
-1.40100372E+02
 11
-2.61302584E+02
 21
-1.39100372E+02
  0
LINE
  8
0
 62
7
 10
-2.23202584E+02
 20
-1.40100372E+02
 11
-2.24292584E+02
 21
-1.39100372E+02
  0
LINE
  8
0
 62
7
 10
-2.38802584E+02
 20
-1.40100372E+02
 11
-2.38502584E+02
 21
-1.39100372E+02
  0
LINE
  8
0
 62
7
 10
-2.47092584E+02
 20
-1.46100372E+02
 11
-2.46802584E+02
 21
-1.46680372E+02
  0
LINE
  8
0
 62
7
 10
-2.47092584E+02
 20
-1.39100372E+02
 11
-2.46802584E+02
 21
-1.40100372E+02
  0
LINE
  8
0
 62
7
 10
-2.53822584E+02
 20
-1.40100372E+02
 11
-2.52852584E+02
 21
-1.39100372E+02
  0
LINE
  8
0
 62
7
 10
-2.52852584E+02
 20
-1.46100372E+02
 11
-2.53822584E+02
 21
-1.46680372E+02
  0
LINE
  8
0
 62
7
 10
-2.61302584E+02
 20
-1.46100372E+02
 11
-2.62392584E+02
 21
-1.46680372E+02
  0
LINE
  8
0
 62
7
 10
-2.62392584E+02
 20
-1.40100372E+02
 11
-2.62392584E+02
 21
-1.46680372E+02
  0
LINE
  8
0
 62
7
 10
-2.23202584E+02
 20
-1.40100372E+02
 11
-2.23202584E+02
 21
-1.46680372E+02
  0
LINE
  8
0
 62
7
 10
-2.61302584E+02
 20
-1.39100372E+02
 11
-2.61302584E+02
 21
-1.46100372E+02
  0
LINE
  8
0
 62
7
 10
-2.24292584E+02
 20
-1.39100372E+02
 11
-2.24292584E+02
 21
-1.46100372E+02
  0
LINE
  8
0
 62
7
 10
-2.26672584E+02
 20
-1.39100372E+02
 11
-2.26112584E+02
 21
-1.40100372E+02
  0
LINE
  8
0
 62
7
 10
-2.59482584E+02
 20
-1.40100372E+02
 11
-2.58922584E+02
 21
-1.39100372E+02
  0
LINE
  8
0
 62
7
 10
-2.59482584E+02
 20
-1.40100372E+02
 11
-2.53822584E+02
 21
-1.40100372E+02
  0
LINE
  8
0
 62
7
 10
-2.23202584E+02
 20
-1.40100372E+02
 11
-2.22802584E+02
 21
-1.40100372E+02
  0
LINE
  8
0
 62
7
 10
-2.59482584E+02
 20
-1.40100372E+02
 11
-2.59482584E+02
 21
-1.46680372E+02
  0
LINE
  8
0
 62
7
 10
-2.26112584E+02
 20
-1.40100372E+02
 11
-2.26112584E+02
 21
-1.46680372E+02
  0
LINE
  8
0
 62
7
 10
-2.26112584E+02
 20
-1.46680372E+02
 11
-2.23202584E+02
 21
-1.46680372E+02
  0
LINE
  8
0
 62
7
 10
-2.53822584E+02
 20
-1.46680372E+02
 11
-2.46802584E+02
 21
-1.46680372E+02
  0
LINE
  8
0
 62
7
 10
-2.31772584E+02
 20
-1.40100372E+02
 11
-2.31772584E+02
 21
-1.46680372E+02
  0
LINE
  8
0
 62
7
 10
-2.53822584E+02
 20
-1.40100372E+02
 11
-2.53822584E+02
 21
-1.46680372E+02
  0
LINE
  8
0
 62
7
 10
-2.26112584E+02
 20
-1.46100372E+02
 11
-2.24292584E+02
 21
-1.46100372E+02
  0
LINE
  8
0
 62
7
 10
-2.52852584E+02
 20
-1.46100372E+02
 11
-2.47092584E+02
 21
-1.46100372E+02
  0
LINE
  8
0
 62
7
 10
-2.32742584E+02
 20
-1.39100372E+02
 11
-2.32742584E+02
 21
-1.46100372E+02
  0
LINE
  8
0
 62
7
 10
-2.52852584E+02
 20
-1.39100372E+02
 11
-2.52852584E+02
 21
-1.46100372E+02
  0
LINE
  8
0
 62
7
 10
-2.38802584E+02
 20
-1.46680372E+02
 11
-2.31772584E+02
 21
-1.46680372E+02
  0
LINE
  8
0
 62
7
 10
-2.38502584E+02
 20
-1.46100372E+02
 11
-2.32742584E+02
 21
-1.46100372E+02
  0
LINE
  8
0
 62
7
 10
-2.31772584E+02
 20
-1.40100372E+02
 11
-2.26112584E+02
 21
-1.40100372E+02
  0
LINE
  8
0
 62
7
 10
-2.46802584E+02
 20
-1.40100372E+02
 11
-2.38802584E+02
 21
-1.40100372E+02
  0
LINE
  8
0
 62
7
 10
-2.62802584E+02
 20
-1.40100372E+02
 11
-2.62392584E+02
 21
-1.40100372E+02
  0
LINE
  8
0
 62
7
 10
-2.47092584E+02
 20
-1.39100372E+02
 11
-2.47092584E+02
 21
-1.46100372E+02
  0
LINE
  8
0
 62
7
 10
-2.38502584E+02
 20
-1.39100372E+02
 11
-2.38502584E+02
 21
-1.46100372E+02
  0
LINE
  8
0
 62
7
 10
-2.38802584E+02
 20
-1.40100372E+02
 11
-2.38802584E+02
 21
-1.46680372E+02
  0
LINE
  8
0
 62
7
 10
-2.46802584E+02
 20
-1.40100372E+02
 11
-2.46802584E+02
 21
-1.46680372E+02
  0
LINE
  8
0
 62
7
 10
-2.62392584E+02
 20
-1.46680372E+02
 11
-2.59482584E+02
 21
-1.46680372E+02
  0
LINE
  8
0
 62
7
 10
-2.61302584E+02
 20
-1.46100372E+02
 11
-2.59482584E+02
 21
-1.46100372E+02
  0
LINE
  8
0
 62
7
 10
-2.22802584E+02
 20
-1.40100372E+02
 11
-2.23802584E+02
 21
-1.39100372E+02
  0
LINE
  8
0
 62
7
 10
-2.62802584E+02
 20
-1.40100372E+02
 11
-2.61802584E+02
 21
-1.39100372E+02
  0
LINE
  8
0
 62
7
 10
-2.62802584E+02
 20
-1.40100372E+02
 11
-2.62802584E+02
 21
-1.49100372E+02
  0
LINE
  8
0
 62
7
 10
-2.22802584E+02
 20
-1.40100372E+02
 11
-2.22802584E+02
 21
-1.48850372E+02
  0
LINE
  8
0
 62
7
 10
-2.61802584E+02
 20
-1.39100372E+02
 11
-2.23802584E+02
 21
-1.39100372E+02
  0
LINE
  8
0
 62
7
 10
-2.32742584E+02
 20
-1.46100372E+02
 11
-2.31772584E+02
 21
-1.46680372E+02
  0
LINE
  8
0
 62
7
 10
-2.38802584E+02
 20
-1.46680372E+02
 11
-2.38502584E+02
 21
-1.46100372E+02
  0
LINE
  8
0
 62
7
 10
-2.24292584E+02
 20
-1.46100372E+02
 11
-2.23202584E+02
 21
-1.46680372E+02
  0
LINE
  8
0
 62
7
 10
-2.31772584E+02
 20
-1.40100372E+02
 11
-2.32742584E+02
 21
-1.39100372E+02
  0
LINE
  8
0
 62
7
 10
-2.62802584E+02
 20
-1.49100372E+02
 11
-2.48612584E+02
 21
-1.49100372E+02
  0
LINE
  8
0
 62
7
 10
-2.71802584E+02
 20
-1.60100372E+02
 11
-2.72682584E+02
 21
-1.60720372E+02
  0
LINE
  8
0
 62
7
 10
-2.72682584E+02
 20
-1.89490372E+02
 11
-2.71802584E+02
 21
-1.90100372E+02
  0
LINE
  8
0
 62
7
 10
-2.84912584E+02
 20
-1.89490372E+02
 11
-2.72682584E+02
 21
-1.89490372E+02
  0
LINE
  8
0
 62
7
 10
-2.84912584E+02
 20
-1.60720372E+02
 11
-2.72682584E+02
 21
-1.60720372E+02
  0
LINE
  8
0
 62
7
 10
-2.72682584E+02
 20
-1.60720372E+02
 11
-2.72682584E+02
 21
-1.89490372E+02
  0
LINE
  8
0
 62
7
 10
-2.85802584E+02
 20
-1.90100372E+02
 11
-2.71802584E+02
 21
-1.90100372E+02
  0
LINE
  8
0
 62
7
 10
-2.85802584E+02
 20
-1.60100372E+02
 11
-2.71802584E+02
 21
-1.60100372E+02
  0
LINE
  8
0
 62
7
 10
-2.91302584E+02
 20
-2.00100372E+02
 11
-2.91302584E+02
 21
-1.50100372E+02
  0
LINE
  8
0
 62
7
 10
-2.92802584E+02
 20
-1.51600372E+02
 11
-2.92802584E+02
 21
-1.98600372E+02
  0
LINE
  8
0
 62
7
 10
-2.71802584E+02
 20
-1.60100372E+02
 11
-2.71802584E+02
 21
-1.90100372E+02
  0
LINE
  8
0
 62
7
 10
-2.56492584E+02
 20
-1.82100372E+02
 11
-2.57492584E+02
 21
-1.83100372E+02
  0
LINE
  8
0
 62
7
 10
-2.57492584E+02
 20
-1.98600372E+02
 11
-2.58992584E+02
 21
-2.00100372E+02
  0
LINE
  8
0
 62
7
 10
-2.57492584E+02
 20
-1.98600372E+02
 11
-2.57492584E+02
 21
-1.83100372E+02
  0
LINE
  8
0
 62
7
 10
-2.71802584E+02
 20
-2.01100372E+02
 11
-2.48612584E+02
 21
-2.01100372E+02
  0
LINE
  8
0
 62
7
 10
-2.14802584E+02
 20
-2.02100372E+02
 11
-2.14052584E+02
 21
-2.01350372E+02
  0
LINE
  8
0
 62
7
 10
-2.71802584E+02
 20
-2.01100372E+02
 11
-2.70802584E+02
 21
-2.02100372E+02
  0
LINE
  8
0
 62
7
 10
-2.71802584E+02
 20
-2.00100372E+02
 11
-2.71802584E+02
 21
-2.01100372E+02
  0
LINE
  8
0
 62
7
 10
-2.76802584E+02
 20
-2.01100372E+02
 11
-2.76802584E+02
 21
-2.00100372E+02
  0
LINE
  8
0
 62
7
 10
-2.87802584E+02
 20
-2.01100372E+02
 11
-2.87802584E+02
 21
-2.00100372E+02
  0
LINE
  8
0
 62
7
 10
-2.87802584E+02
 20
-2.01100372E+02
 11
-2.76802584E+02
 21
-2.01100372E+02
  0
LINE
  8
0
 62
7
 10
-2.92802584E+02
 20
-1.98600372E+02
 11
-2.57492584E+02
 21
-1.98600372E+02
  0
LINE
  8
0
 62
7
 10
-1.94302584E+02
 20
-2.00100372E+02
 11
-1.92802584E+02
 21
-1.98600372E+02
  0
LINE
  8
0
 62
7
 10
-2.92802584E+02
 20
-1.98600372E+02
 11
-2.91302584E+02
 21
-2.00100372E+02
  0
LINE
  8
0
 62
7
 10
-2.70802584E+02
 20
-2.02100372E+02
 11
-2.14802584E+02
 21
-2.02100372E+02
  0
LINE
  8
0
 62
7
 10
-2.91302584E+02
 20
-2.00100372E+02
 11
-2.58992584E+02
 21
-2.00100372E+02
  0
LINE
  8
0
 62
7
 10
-2.87802584E+02
 20
-1.49100372E+02
 11
-2.76802584E+02
 21
-1.49100372E+02
  0
LINE
  8
0
 62
7
 10
-2.76802584E+02
 20
-1.49100372E+02
 11
-2.76802584E+02
 21
-1.50100372E+02
  0
LINE
  8
0
 62
7
 10
-2.87802584E+02
 20
-1.49100372E+02
 11
-2.87802584E+02
 21
-1.50100372E+02
  0
LINE
  8
0
 62
7
 10
-2.62552584E+02
 20
-1.49100372E+02
 11
-2.62552584E+02
 21
-1.50100372E+02
  0
LINE
  8
0
 62
7
 10
-2.92802584E+02
 20
-1.51600372E+02
 11
-2.51512584E+02
 21
-1.51600372E+02
  0
LINE
  8
0
 62
7
 10
-1.92802584E+02
 20
-1.51600372E+02
 11
-1.94302584E+02
 21
-1.50100372E+02
  0
LINE
  8
0
 62
7
 10
-2.92802584E+02
 20
-1.51600372E+02
 11
-2.91302584E+02
 21
-1.50100372E+02
  0
LINE
  8
0
 62
7
 10
-2.91302584E+02
 20
-1.50100372E+02
 11
-2.50352584E+02
 21
-1.50100372E+02
  0
LINE
  8
0
 62
7
 10
-1.92802584E+02
 20
-1.51600372E+02
 11
-1.92802584E+02
 21
-1.98600372E+02
  0
LINE
  8
0
 62
7
 10
-2.23752584E+02
 20
-2.15100372E+02
 11
-2.24102584E+02
 21
-2.25140372E+02
  0
LINE
  8
0
 62
7
 10
-2.31032584E+02
 20
-2.15100372E+02
 11
-2.31032584E+02
 21
-2.25640372E+02
  0
LINE
  8
0
 62
7
 10
-2.36882584E+02
 20
-2.15100372E+02
 11
-2.36882584E+02
 21
-2.25220372E+02
  0
LINE
  8
0
 62
7
 10
-2.48712584E+02
 20
-2.15100372E+02
 11
-2.48712584E+02
 21
-2.22780372E+02
  0
LINE
  8
0
 62
7
 10
-2.61852584E+02
 20
-2.15100372E+02
 11
-2.61582584E+02
 21
-2.22650372E+02
  0
LINE
  8
0
 62
7
 10
-2.54562584E+02
 20
-2.15100372E+02
 11
-2.54562584E+02
 21
-2.22140372E+02
  0
LINE
  8
0
 62
7
 10
-2.21302584E+02
 20
-2.14100372E+02
 11
-2.23032584E+02
 21
-2.15100372E+02
  0
LINE
  8
0
 62
7
 10
-2.21302584E+02
 20
-2.13100372E+02
 11
-2.21302584E+02
 21
-2.14100372E+02
  0
LINE
  8
0
 62
7
 10
-8.08025840E+01
 20
-1.49100372E+02
 11
-8.08025840E+01
 21
-1.50100372E+02
  0
LINE
  8
0
  6
CENTER
 62
2
 10
-2.42802584E+02
 20
-1.31100372E+02
 11
-2.42802584E+02
 21
-2.24050372E+02
  0
LINE
  8
0
 62
7
 10
-1.20302584E+02
 20
-2.14100372E+02
 11
-1.19302584E+02
 21
-2.15100372E+02
  0
LINE
  8
0
 62
7
 10
-1.20302584E+02
 20
-1.95100372E+02
 11
-1.20302584E+02
 21
-2.14100372E+02
  0
LINE
  8
0
 62
7
 10
-1.20302584E+02
 20
-1.95100372E+02
 11
-1.10802584E+02
 21
-1.95100372E+02
  0
LINE
  8
0
 62
7
 10
-1.19302584E+02
 20
-1.94100372E+02
 11
-1.11802584E+02
 21
-1.94100372E+02
  0
LINE
  8
0
 62
7
 10
-1.20302584E+02
 20
-2.14100372E+02
 11
-8.08025840E+01
 21
-2.14100372E+02
  0
LINE
  8
0
 62
7
 10
-1.19302584E+02
 20
-2.15100372E+02
 11
-8.08025840E+01
 21
-2.15100372E+02
  0
LINE
  8
0
 62
2
 10
-1.02302584E+02
 20
-2.02100372E+02
 11
-1.02302584E+02
 21
-2.03100372E+02
  0
LINE
  8
0
 62
7
 10
-8.43025840E+01
 20
-2.12100372E+02
 11
-8.45825840E+01
 21
-2.13100372E+02
  0
LINE
  8
0
 62
7
 10
-8.45825840E+01
 20
-2.06100372E+02
 11
-8.43025840E+01
 21
-2.05100372E+02
  0
LINE
  8
0
 62
7
 10
-9.19125840E+01
 20
-2.05100372E+02
 11
-9.11525840E+01
 21
-2.06100372E+02
  0
LINE
  8
0
 62
7
 10
-9.19225840E+01
 20
-2.12100372E+02
 11
-9.11525840E+01
 21
-2.13100372E+02
  0
LINE
  8
0
 62
7
 10
-9.79825840E+01
 20
-2.13100372E+02
 11
-9.77025840E+01
 21
-2.12100372E+02
  0
LINE
  8
0
 62
7
 10
-9.79825840E+01
 20
-2.06100372E+02
 11
-9.77025840E+01
 21
-2.05100372E+02
  0
LINE
  8
0
 62
7
 10
-1.02502584E+02
 20
-2.06100372E+02
 11
-1.03552584E+02
 21
-2.05100372E+02
  0
LINE
  8
0
 62
7
 10
-1.03552584E+02
 20
-2.12100372E+02
 11
-1.02502584E+02
 21
-2.13100372E+02
  0
LINE
  8
0
 62
7
 10
-1.09092584E+02
 20
-2.05100372E+02
 11
-1.08042584E+02
 21
-2.06100372E+02
  0
LINE
  8
0
 62
7
 10
-1.09092584E+02
 20
-2.12100372E+02
 11
-1.08042584E+02
 21
-2.13100372E+02
  0
LINE
  8
0
 62
7
 10
-1.09092584E+02
 20
-2.05100372E+02
 11
-1.09092584E+02
 21
-2.12100372E+02
  0
LINE
  8
0
 62
7
 10
-1.08042584E+02
 20
-2.06100372E+02
 11
-1.08042584E+02
 21
-2.13100372E+02
  0
LINE
  8
0
 62
7
 10
-1.07052584E+02
 20
-2.12100372E+02
 11
-1.06282584E+02
 21
-2.13100372E+02
  0
LINE
  8
0
 62
7
 10
-1.07052584E+02
 20
-2.12100372E+02
 11
-1.03552584E+02
 21
-2.12100372E+02
  0
LINE
  8
0
 62
7
 10
-1.08042584E+02
 20
-2.06100372E+02
 11
-1.07052584E+02
 21
-2.06100372E+02
  0
LINE
  8
0
 62
7
 10
-1.09092584E+02
 20
-2.05100372E+02
 11
-1.07052584E+02
 21
-2.05100372E+02
  0
LINE
  8
0
 62
7
 10
-1.07052584E+02
 20
-2.05100372E+02
 11
-1.07052584E+02
 21
-2.12100372E+02
  0
LINE
  8
0
 62
7
 10
-1.02502584E+02
 20
-2.06100372E+02
 11
-9.79825840E+01
 21
-2.06100372E+02
  0
LINE
  8
0
 62
7
 10
-1.03552584E+02
 20
-2.05100372E+02
 11
-9.77025840E+01
 21
-2.05100372E+02
  0
LINE
  8
0
 62
7
 10
-1.02502584E+02
 20
-2.06100372E+02
 11
-1.02502584E+02
 21
-2.13100372E+02
  0
LINE
  8
0
 62
7
 10
-1.03552584E+02
 20
-2.05100372E+02
 11
-1.03552584E+02
 21
-2.12100372E+02
  0
LINE
  8
0
 62
7
 10
-9.77025840E+01
 20
-2.12100372E+02
 11
-9.19125840E+01
 21
-2.12100372E+02
  0
LINE
  8
0
 62
7
 10
-9.77025840E+01
 20
-2.05100372E+02
 11
-9.77025840E+01
 21
-2.12100372E+02
  0
LINE
  8
0
 62
7
 10
-9.79825840E+01
 20
-2.06100372E+02
 11
-9.79825840E+01
 21
-2.13100372E+02
  0
LINE
  8
0
 62
7
 10
-9.11525840E+01
 20
-2.06100372E+02
 11
-9.11525840E+01
 21
-2.13100372E+02
  0
LINE
  8
0
 62
7
 10
-9.19125840E+01
 20
-2.05100372E+02
 11
-9.19125840E+01
 21
-2.12100372E+02
  0
LINE
  8
0
 62
7
 10
-8.45825840E+01
 20
-2.06100372E+02
 11
-8.45825840E+01
 21
-2.13100372E+02
  0
LINE
  8
0
 62
7
 10
-8.43025840E+01
 20
-2.05100372E+02
 11
-8.43025840E+01
 21
-2.12100372E+02
  0
LINE
  8
0
 62
7
 10
-9.11525840E+01
 20
-2.06100372E+02
 11
-8.45825840E+01
 21
-2.06100372E+02
  0
LINE
  8
0
 62
7
 10
-9.19125840E+01
 20
-2.05100372E+02
 11
-8.43025840E+01
 21
-2.05100372E+02
  0
LINE
  8
0
 62
7
 10
-8.43025840E+01
 20
-2.12100372E+02
 11
-8.08025840E+01
 21
-2.12100372E+02
  0
LINE
  8
0
 62
7
 10
-1.09302584E+02
 20
-2.12100372E+02
 11
-1.09092584E+02
 21
-2.12100372E+02
  0
LINE
  8
0
 62
7
 10
-1.09302584E+02
 20
-2.12100372E+02
 11
-1.08302584E+02
 21
-2.13100372E+02
  0
LINE
  8
0
 62
7
 10
-1.08302584E+02
 20
-2.13100372E+02
 11
-8.08025840E+01
 21
-2.13100372E+02
  0
LINE
  8
0
 62
7
 10
-1.09302584E+02
 20
-2.03100372E+02
 11
-1.09302584E+02
 21
-2.12100372E+02
  0
LINE
  8
0
 62
7
 10
-1.09302584E+02
 20
-2.03100372E+02
 11
-8.08025840E+01
 21
-2.03100372E+02
  0
LINE
  8
0
 62
7
 10
-1.00402584E+02
 20
-1.40100372E+02
 11
-9.93125840E+01
 21
-1.39100372E+02
  0
LINE
  8
0
 62
7
 10
-8.51025840E+01
 20
-1.46100372E+02
 11
-8.48025840E+01
 21
-1.46680372E+02
  0
LINE
  8
0
 62
7
 10
-8.51025840E+01
 20
-1.39100372E+02
 11
-8.48025840E+01
 21
-1.40100372E+02
  0
LINE
  8
0
 62
7
 10
-9.18325840E+01
 20
-1.40100372E+02
 11
-9.08625840E+01
 21
-1.39100372E+02
  0
LINE
  8
0
 62
7
 10
-9.08625840E+01
 20
-1.46100372E+02
 11
-9.18325840E+01
 21
-1.46680372E+02
  0
LINE
  8
0
 62
7
 10
-9.93125840E+01
 20
-1.46100372E+02
 11
-1.00402584E+02
 21
-1.46680372E+02
  0
LINE
  8
0
 62
7
 10
-1.00402584E+02
 20
-1.40100372E+02
 11
-1.00402584E+02
 21
-1.46680372E+02
  0
LINE
  8
0
 62
7
 10
-9.93125840E+01
 20
-1.39100372E+02
 11
-9.93125840E+01
 21
-1.46100372E+02
  0
LINE
  8
0
 62
7
 10
-9.74925840E+01
 20
-1.40100372E+02
 11
-9.69325840E+01
 21
-1.39100372E+02
  0
LINE
  8
0
 62
7
 10
-9.74925840E+01
 20
-1.40100372E+02
 11
-9.18325840E+01
 21
-1.40100372E+02
  0
LINE
  8
0
 62
7
 10
-9.74925840E+01
 20
-1.40100372E+02
 11
-9.74925840E+01
 21
-1.46680372E+02
  0
LINE
  8
0
 62
7
 10
-9.18325840E+01
 20
-1.46680372E+02
 11
-8.48025840E+01
 21
-1.46680372E+02
  0
LINE
  8
0
 62
7
 10
-9.18325840E+01
 20
-1.40100372E+02
 11
-9.18325840E+01
 21
-1.46680372E+02
  0
LINE
  8
0
 62
7
 10
-9.08625840E+01
 20
-1.46100372E+02
 11
-8.51025840E+01
 21
-1.46100372E+02
  0
LINE
  8
0
 62
7
 10
-9.08625840E+01
 20
-1.39100372E+02
 11
-9.08625840E+01
 21
-1.46100372E+02
  0
LINE
  8
0
 62
7
 10
-8.48025840E+01
 20
-1.40100372E+02
 11
-8.08025840E+01
 21
-1.40100372E+02
  0
LINE
  8
0
 62
7
 10
-1.00802584E+02
 20
-1.40100372E+02
 11
-1.00402584E+02
 21
-1.40100372E+02
  0
LINE
  8
0
 62
7
 10
-8.51025840E+01
 20
-1.39100372E+02
 11
-8.51025840E+01
 21
-1.46100372E+02
  0
LINE
  8
0
 62
7
 10
-8.48025840E+01
 20
-1.40100372E+02
 11
-8.48025840E+01
 21
-1.46680372E+02
  0
LINE
  8
0
 62
7
 10
-1.00402584E+02
 20
-1.46680372E+02
 11
-9.74925840E+01
 21
-1.46680372E+02
  0
LINE
  8
0
 62
7
 10
-9.93125840E+01
 20
-1.46100372E+02
 11
-9.74925840E+01
 21
-1.46100372E+02
  0
LINE
  8
0
 62
7
 10
-1.00802584E+02
 20
-1.40100372E+02
 11
-9.98025840E+01
 21
-1.39100372E+02
  0
LINE
  8
0
 62
7
 10
-1.00802584E+02
 20
-1.40100372E+02
 11
-1.00802584E+02
 21
-1.49100372E+02
  0
LINE
  8
0
 62
7
 10
-9.98025840E+01
 20
-1.39100372E+02
 11
-8.08025840E+01
 21
-1.39100372E+02
  0
LINE
  8
0
  6
CENTER
 62
2
 10
-8.98025840E+01
 20
-1.72100372E+02
 11
-8.08025840E+01
 21
-1.72100372E+02
  0
LINE
  8
0
 62
7
 10
-1.08302584E+02
 20
-1.84100372E+02
 11
-1.07302584E+02
 21
-1.85100372E+02
  0
LINE
  8
0
 62
7
 10
-1.07302584E+02
 20
-1.85100372E+02
 11
-1.05802584E+02
 21
-1.85100372E+02
  0
LINE
  8
0
 62
7
 10
-1.07302584E+02
 20
-1.65100372E+02
 11
-1.07302584E+02
 21
-1.85100372E+02
  0
LINE
  8
0
 62
7
 10
-1.08302584E+02
 20
-1.66100372E+02
 11
-1.07302584E+02
 21
-1.65100372E+02
  0
LINE
  8
0
 62
7
 10
-1.07302584E+02
 20
-1.65100372E+02
 11
-1.05802584E+02
 21
-1.65100372E+02
  0
LINE
  8
0
 62
7
 10
-1.08302584E+02
 20
-1.66100372E+02
 11
-1.08302584E+02
 21
-1.84100372E+02
  0
LINE
  8
0
 62
7
 10
-1.09802584E+02
 20
-1.83100372E+02
 11
-1.08302584E+02
 21
-1.83100372E+02
  0
LINE
  8
0
 62
7
 10
-1.09802584E+02
 20
-1.83100372E+02
 11
-1.08802584E+02
 21
-1.82100372E+02
  0
LINE
  8
0
 62
7
 10
-1.08802584E+02
 20
-1.82100372E+02
 11
-1.08302584E+02
 21
-1.82100372E+02
  0
LINE
  8
0
 62
7
 10
-1.04302584E+02
 20
-2.00100372E+02
 11
-1.04302584E+02
 21
-1.50100372E+02
  0
LINE
  8
0
 62
7
 10
-1.02302584E+02
 20
-2.14100372E+02
 11
-1.00572584E+02
 21
-2.15100372E+02
  0
LINE
  8
0
 62
7
 10
-1.05802584E+02
 20
-1.98600372E+02
 11
-8.08025840E+01
 21
-1.98600372E+02
  0
LINE
  8
0
 62
7
 10
-1.05802584E+02
 20
-1.51600372E+02
 11
-1.04302584E+02
 21
-1.50100372E+02
  0
LINE
  8
0
 62
7
 10
-1.05802584E+02
 20
-1.98600372E+02
 11
-1.04302584E+02
 21
-2.00100372E+02
  0
LINE
  8
0
 62
7
 10
-1.09802584E+02
 20
-2.01100372E+02
 11
-8.08025840E+01
 21
-2.01100372E+02
  0
LINE
  8
0
 62
7
 10
-1.09802584E+02
 20
-2.01100372E+02
 11
-1.08802584E+02
 21
-2.02100372E+02
  0
LINE
  8
0
 62
7
 10
-1.09802584E+02
 20
-1.83100372E+02
 11
-1.09802584E+02
 21
-2.01100372E+02
  0
LINE
  8
0
 62
7
 10
-1.00552584E+02
 20
-1.49100372E+02
 11
-1.00552584E+02
 21
-1.50100372E+02
  0
LINE
  8
0
 62
7
 10
-1.05802584E+02
 20
-1.51600372E+02
 11
-1.05802584E+02
 21
-1.98600372E+02
  0
LINE
  8
0
 62
7
 10
-1.08802584E+02
 20
-2.02100372E+02
 11
-8.08025840E+01
 21
-2.02100372E+02
  0
LINE
  8
0
 62
7
 10
-1.04302584E+02
 20
-2.00100372E+02
 11
-8.08025840E+01
 21
-2.00100372E+02
  0
LINE
  8
0
 62
7
 10
-1.04302584E+02
 20
-1.50100372E+02
 11
-8.08025840E+01
 21
-1.50100372E+02
  0
LINE
  8
0
 62
7
 10
-1.00802584E+02
 20
-1.49100372E+02
 11
-8.08025840E+01
 21
-1.49100372E+02
  0
LINE
  8
0
 62
7
 10
-1.03302584E+02
 20
-2.02100372E+02
 11
-1.03302584E+02
 21
-2.03100372E+02
  0
LINE
  8
0
 62
7
 10
-1.02302584E+02
 20
-2.13100372E+02
 11
-1.02302584E+02
 21
-2.14100372E+02
  0
LINE
  8
0
 62
7
 10
-9.25725840E+01
 20
-2.15100372E+02
 11
-9.25725840E+01
 21
-2.31100372E+02
  0
LINE
  8
0
 62
7
 10
-8.67225840E+01
 20
-2.15100372E+02
 11
-8.67225840E+01
 21
-2.31100372E+02
  0
LINE
  8
0
 62
7
 10
-9.98525840E+01
 20
-2.15100372E+02
 11
-9.92425840E+01
 21
-2.31100372E+02
  0
LINE
  8
0
 62
7
 10
-8.98925840E+01
 20
-2.35100372E+02
 11
-9.11125840E+01
 21
-2.34420372E+02
  0
LINE
  8
0
 62
7
 10
-8.60725840E+01
 20
-2.35100372E+02
 11
-8.57125840E+01
 21
-2.34420372E+02
  0
LINE
  8
0
 62
7
 10
-8.99325840E+01
 20
-2.36350372E+02
 11
-8.98925840E+01
 21
-2.35100372E+02
  0
LINE
  8
0
 62
7
 10
-9.11725840E+01
 20
-2.36390372E+02
 11
-9.11125840E+01
 21
-2.34420372E+02
  0
LINE
  8
0
 62
7
 10
-8.60525840E+01
 20
-2.35720372E+02
 11
-8.60725840E+01
 21
-2.35100372E+02
  0
LINE
  8
0
 62
7
 10
-8.56725840E+01
 20
-2.35630372E+02
 11
-8.57125840E+01
 21
-2.34420372E+02
  0
LINE
  8
0
 62
7
 10
-9.85525840E+01
 20
-2.35140372E+02
 11
-9.85825840E+01
 21
-2.34420372E+02
  0
LINE
  8
0
 62
7
 10
-8.98925840E+01
 20
-2.35100372E+02
 11
-8.60725840E+01
 21
-2.35100372E+02
  0
LINE
  8
0
 62
7
 10
-9.11125840E+01
 20
-2.34420372E+02
 11
-8.57125840E+01
 21
-2.34420372E+02
  0
LINE
  8
0
 62
7
 10
-1.00882584E+02
 20
-2.34420372E+02
 11
-9.85825840E+01
 21
-2.34420372E+02
  0
LINE
  8
0
 62
7
 10
-1.02062584E+02
 20
-2.31590372E+02
 11
-8.08025840E+01
 21
-2.31590372E+02
  0
LINE
  8
0
 62
7
 10
-1.01582584E+02
 20
-2.31100372E+02
 11
-1.02062584E+02
 21
-2.31590372E+02
  0
LINE
  8
0
 62
7
 10
-1.01972584E+02
 20
-2.34080372E+02
 11
-1.02062584E+02
 21
-2.31590372E+02
  0
LINE
  8
0
 62
7
 10
-1.01582584E+02
 20
-2.31100372E+02
 11
-8.08025840E+01
 21
-2.31100372E+02
  0
LINE
  8
0
 62
7
 10
-1.05802584E+02
 20
-1.51600372E+02
 11
-8.08025840E+01
 21
-1.51600372E+02
  0
TEXT
  8
0
 62
7
 10
-3.58000282E+02
 20
2.59100000E+02
 40
6.30000019E+00
  1
CONBINATION
 41
1.00000000E+00
  7
MONOTXT
  0
LINE
  8
0
 62
7
 10
-2.49250000E+02
 20
2.76250000E+02
 11
-2.49250000E+02
 21
2.56250000E+02
  0
LINE
  8
0
 62
7
 10
2.79799927E+02
 20
-2.56750000E+02
 11
3.99799805E+02
 21
-2.56750000E+02
  0
LINE
  8
0
 62
7
 10
2.79799927E+02
 20
-2.56750000E+02
 11
2.79799927E+02
 21
-2.76750000E+02
  0
TEXT
  8
0
 62
7
 10
2.87585240E+02
 20
-2.71250000E+02
 40
9.00000000E+00
  1
KOGANEI CORP.
 41
1.04838710E+00
  7
MONOTXT
  0
TEXT
  8
0
 62
7
 10
3.15499645E+02
 20
2.63100000E+02
 40
6.30000019E+00
  1
Ver. 1.0
 41
1.08108108E+00
  7
MONOTXT
  0
LINE
  8
0
 62
7
 10
2.79799927E+02
 20
2.56250000E+02
 11
3.99799805E+02
 21
2.56250000E+02
  0
LINE
  8
0
 62
7
 10
2.79799927E+02
 20
2.76250000E+02
 11
2.79799927E+02
 21
2.56250000E+02
  0
TEXT
  8
0
 62
7
 10
-3.85600562E+02
 20
2.38100000E+02
 40
6.30000019E+00
  1
MODEL:CY650-06-G1A
 41
1.00000000E+00
  7
MONOTXT
  0
LINE
  8
0
 62
7
 10
-3.99250000E+02
 20
-2.76750000E+02
 11
3.99799805E+02
 21
-2.76750000E+02
  0
LINE
  8
0
 62
7
 10
-3.99250000E+02
 20
2.76250000E+02
 11
3.99799805E+02
 21
2.76250000E+02
  0
LINE
  8
0
 62
7
 10
-3.99250000E+02
 20
2.76250000E+02
 11
-3.99250000E+02
 21
-2.76750000E+02
  0
LINE
  8
0
 62
7
 10
3.99799805E+02
 20
2.76250000E+02
 11
3.99799805E+02
 21
-2.76750000E+02
  0
ENDSEC
  0
EOF
