  0
SECTION
  2
HEADER
  9
$ACADVER
  1
AC1015
  9
$ACADMAINTVER
 70
    20
  9
$DWGCODEPAGE
  3
ANSI_932
  9
$INSBASE
 10
0.0
 20
0.0
 30
0.0
  9
$EXTMIN
 10
-281.25
 20
-195.0
 30
0.0
  9
$EXTMAX
 10
283.9504100643773
 20
195.5
 30
0.0
  9
$LIMMIN
 10
-281.25
 20
-195.0
  9
$LIMMAX
 10
285.5999755859375
 20
195.5
  9
$ORTHOMODE
 70
     0
  9
$REGENMODE
 70
     1
  9
$FILLMODE
 70
     1
  9
$QTEXTMODE
 70
     0
  9
$MIRRTEXT
 70
     1
  9
$LTSCALE
 40
1.0
  9
$ATTMODE
 70
     1
  9
$TEXTSIZE
 40
3.200000047683715
  9
$TRACEWID
 40
0.05
  9
$TEXTSTYLE
  7
MX_NOTE_STANDARD
  9
$CLAYER
  8
0
  9
$CELTYPE
  6
CONTINUOUS
  9
$CECOLOR
 62
   256
  9
$CELTSCALE
 40
1.0
  9
$DISPSILH
 70
     0
  9
$DIMSCALE
 40
1.0
  9
$DIMASZ
 40
2.5
  9
$DIMEXO
 40
1.5
  9
$DIMDLI
 40
3.75
  9
$DIMRND
 40
0.0
  9
$DIMDLE
 40
0.0
  9
$DIMEXE
 40
1.5
  9
$DIMTP
 40
0.0
  9
$DIMTM
 40
0.0
  9
$DIMTXT
 40
3.200000047683715
  9
$DIMCEN
 40
2.5
  9
$DIMTSZ
 40
0.0
  9
$DIMTOL
 70
     0
  9
$DIMLIM
 70
     0
  9
$DIMTIH
 70
     0
  9
$DIMTOH
 70
     0
  9
$DIMSE1
 70
     0
  9
$DIMSE2
 70
     0
  9
$DIMTAD
 70
     1
  9
$DIMZIN
 70
     8
  9
$DIMBLK
  1

  9
$DIMASO
 70
     1
  9
$DIMSHO
 70
     1
  9
$DIMPOST
  1

  9
$DIMAPOST
  1

  9
$DIMALT
 70
     0
  9
$DIMALTD
 70
     4
  9
$DIMALTF
 40
0.03937007874016
  9
$DIMLFAC
 40
1.0
  9
$DIMTOFL
 70
     1
  9
$DIMTVP
 40
0.0
  9
$DIMTIX
 70
     0
  9
$DIMSOXD
 70
     0
  9
$DIMSAH
 70
     0
  9
$DIMBLK1
  1

  9
$DIMBLK2
  1

  9
$DIMSTYLE
  2
MXDIMSTYLE
  9
$DIMCLRD
 70
     0
  9
$DIMCLRE
 70
     0
  9
$DIMCLRT
 70
     0
  9
$DIMTFAC
 40
1.0
  9
$DIMGAP
 40
1.0
  9
$DIMJUST
 70
     0
  9
$DIMSD1
 70
     0
  9
$DIMSD2
 70
     0
  9
$DIMTOLJ
 70
     1
  9
$DIMTZIN
 70
     0
  9
$DIMALTZ
 70
     0
  9
$DIMALTTZ
 70
     0
  9
$DIMUPT
 70
     1
  9
$DIMDEC
 70
     4
  9
$DIMTDEC
 70
     4
  9
$DIMALTU
 70
     2
  9
$DIMALTTD
 70
     4
  9
$DIMTXSTY
  7
MX_NOTE_STANDARD
  9
$DIMAUNIT
 70
     0
  9
$DIMADEC
 70
     0
  9
$DIMALTRND
 40
0.0
  9
$DIMAZIN
 70
     0
  9
$DIMDSEP
 70
    46
  9
$DIMATFIT
 70
     3
  9
$DIMFRAC
 70
     0
  9
$DIMLDRBLK
  1

  9
$DIMLUNIT
 70
     2
  9
$DIMLWD
 70
    -2
  9
$DIMLWE
 70
    -2
  9
$DIMTMOVE
 70
     0
  9
$LUNITS
 70
     2
  9
$LUPREC
 70
     4
  9
$SKETCHINC
 40
0.1
  9
$FILLETRAD
 40
0.0
  9
$AUNITS
 70
     0
  9
$AUPREC
 70
     0
  9
$MENU
  1
acad
  9
$ELEVATION
 40
0.0
  9
$PELEVATION
 40
0.0
  9
$THICKNESS
 40
0.0
  9
$LIMCHECK
 70
     0
  9
$CHAMFERA
 40
0.0
  9
$CHAMFERB
 40
0.0
  9
$CHAMFERC
 40
0.0
  9
$CHAMFERD
 40
0.0
  9
$SKPOLY
 70
     0
  9
$TDCREATE
 40
2453446.620879630
  9
$TDUCREATE
 40
2453446.245879630
  9
$TDUPDATE
 40
2454083.663687049
  9
$TDUUPDATE
 40
2454083.288687049
  9
$TDINDWG
 40
0.0183678704
  9
$TDUSRTIMER
 40
0.0183255556
  9
$USRTIMER
 70
     1
  9
$ANGBASE
 50
0.0
  9
$ANGDIR
 70
     0
  9
$PDMODE
 70
     0
  9
$PDSIZE
 40
0.0
  9
$PLINEWID
 40
0.0
  9
$SPLFRAME
 70
     0
  9
$SPLINETYPE
 70
     6
  9
$SPLINESEGS
 70
     8
  9
$HANDSEED
  5
3EB
  9
$SURFTAB1
 70
     6
  9
$SURFTAB2
 70
     6
  9
$SURFTYPE
 70
     6
  9
$SURFU
 70
     6
  9
$SURFV
 70
     6
  9
$UCSBASE
  2

  9
$UCSNAME
  2

  9
$UCSORG
 10
0.0
 20
0.0
 30
0.0
  9
$UCSXDIR
 10
1.0
 20
0.0
 30
0.0
  9
$UCSYDIR
 10
0.0
 20
1.0
 30
0.0
  9
$UCSORTHOREF
  2

  9
$UCSORTHOVIEW
 70
     0
  9
$UCSORGTOP
 10
0.0
 20
0.0
 30
0.0
  9
$UCSORGBOTTOM
 10
0.0
 20
0.0
 30
0.0
  9
$UCSORGLEFT
 10
0.0
 20
0.0
 30
0.0
  9
$UCSORGRIGHT
 10
0.0
 20
0.0
 30
0.0
  9
$UCSORGFRONT
 10
0.0
 20
0.0
 30
0.0
  9
$UCSORGBACK
 10
0.0
 20
0.0
 30
0.0
  9
$PUCSBASE
  2

  9
$PUCSNAME
  2

  9
$PUCSORG
 10
0.0
 20
0.0
 30
0.0
  9
$PUCSXDIR
 10
1.0
 20
0.0
 30
0.0
  9
$PUCSYDIR
 10
0.0
 20
1.0
 30
0.0
  9
$PUCSORTHOREF
  2

  9
$PUCSORTHOVIEW
 70
     0
  9
$PUCSORGTOP
 10
0.0
 20
0.0
 30
0.0
  9
$PUCSORGBOTTOM
 10
0.0
 20
0.0
 30
0.0
  9
$PUCSORGLEFT
 10
0.0
 20
0.0
 30
0.0
  9
$PUCSORGRIGHT
 10
0.0
 20
0.0
 30
0.0
  9
$PUCSORGFRONT
 10
0.0
 20
0.0
 30
0.0
  9
$PUCSORGBACK
 10
0.0
 20
0.0
 30
0.0
  9
$USERI1
 70
     0
  9
$USERI2
 70
     0
  9
$USERI3
 70
     0
  9
$USERI4
 70
     0
  9
$USERI5
 70
     0
  9
$USERR1
 40
0.0
  9
$USERR2
 40
0.0
  9
$USERR3
 40
0.0
  9
$USERR4
 40
0.0
  9
$USERR5
 40
0.0
  9
$WORLDVIEW
 70
     1
  9
$SHADEDGE
 70
     3
  9
$SHADEDIF
 70
    70
  9
$TILEMODE
 70
     1
  9
$MAXACTVP
 70
    16
  9
$PINSBASE
 10
0.0
 20
0.0
 30
0.0
  9
$PLIMCHECK
 70
     0
  9
$PEXTMIN
 10
1.000000000000000E+20
 20
1.000000000000000E+20
 30
1.000000000000000E+20
  9
$PEXTMAX
 10
-1.000000000000000E+20
 20
-1.000000000000000E+20
 30
-1.000000000000000E+20
  9
$PLIMMIN
 10
0.0
 20
0.0
  9
$PLIMMAX
 10
12.0
 20
9.0
  9
$UNITMODE
 70
     0
  9
$VISRETAIN
 70
     0
  9
$PLINEGEN
 70
     1
  9
$PSLTSCALE
 70
     0
  9
$TREEDEPTH
 70
  3020
  9
$CMLSTYLE
  2
STANDARD
  9
$CMLJUST
 70
     0
  9
$CMLSCALE
 40
1.0
  9
$PROXYGRAPHICS
 70
     1
  9
$MEASUREMENT
 70
     0
  9
$CELWEIGHT
370
    -1
  9
$ENDCAPS
280
     0
  9
$JOINSTYLE
280
     0
  9
$LWDISPLAY
290
     0
  9
$INSUNITS
 70
     0
  9
$HYPERLINKBASE
  1

  9
$STYLESHEET
  1

  9
$XEDIT
290
     1
  9
$CEPSNTYPE
380
     0
  9
$PSTYLEMODE
290
     1
  9
$FINGERPRINTGUID
  2
{3A53520A-DFBE-47C4-953D-5ADD062F8C68}
  9
$VERSIONGUID
  2
{7C4387C3-103B-4BCB-8CA7-4CCD63EDA79D}
  9
$EXTNAMES
290
     1
  9
$PSVPSCALE
 40
0.0
  9
$OLESTARTUP
290
     0
  0
ENDSEC
  0
SECTION
  2
CLASSES
  0
CLASS
  1
IMAGE
  2
AcDbRasterImage
  3
ISM
 90
    32895
280
     0
281
     1
  0
CLASS
  1
DICTIONARYVAR
  2
AcDbDictionaryVar
  3
ObjectDBX Classes
 90
        0
280
     0
281
     0
  0
CLASS
  1
RASTERVARIABLES
  2
AcDbRasterVariables
  3
ISM
 90
    32768
280
     0
281
     0
  0
CLASS
  1
IMAGEDEF
  2
AcDbRasterImageDef
  3
ISM
 90
    32768
280
     0
281
     0
  0
CLASS
  1
IMAGEDEF_REACTOR
  2
AcDbRasterImageDefReactor
  3
ISM
 90
    32769
280
     0
281
     0
  0
CLASS
  1
IDBUFFER
  2
AcDbIdBuffer
  3
ObjectDBX Classes
 90
    32768
280
     0
281
     0
  0
CLASS
  1
SPATIAL_FILTER
  2
AcDbSpatialFilter
  3
ObjectDBX Classes
 90
    32768
280
     0
281
     0
  0
CLASS
  1
SORTENTSTABLE
  2
AcDbSortentsTable
  3
ObjectDBX Classes
 90
    32768
280
     0
281
     0
  0
CLASS
  1
LAYER_INDEX
  2
AcDbLayerIndex
  3
ObjectDBX Classes
 90
    32768
280
     0
281
     0
  0
CLASS
  1
SPATIAL_INDEX
  2
AcDbSpatialIndex
  3
ObjectDBX Classes
 90
    32768
280
     0
281
     0
  0
CLASS
  1
OBJECT_PTR
  2
CAseDLPNTableRecord
  3
"ASE-LPNTableRecord"
 90
    32768
280
     0
281
     0
  0
CLASS
  1
LAYOUT
  2
AcDbLayout
  3
ObjectDBX Classes
 90
        0
280
     0
281
     0
  0
CLASS
  1
PLOTSETTINGS
  2
AcDbPlotSettings
  3
ObjectDBX Classes
 90
    32768
280
     0
281
     0
  0
CLASS
  1
ACDBDICTIONARYWDFLT
  2
AcDbDictionaryWithDefault
  3
ObjectDBX Classes
 90
        0
280
     0
281
     0
  0
CLASS
  1
ACDBPLACEHOLDER
  2
AcDbPlaceHolder
  3
ObjectDBX Classes
 90
        0
280
     0
281
     0
  0
CLASS
  1
TABLESTYLE
  2
AcDbTableStyle
  3
ObjectDBX Classes
 90
     2047
280
     0
281
     0
  0
ENDSEC
  0
SECTION
  2
TABLES
  0
TABLE
  2
VPORT
  5
7
330
0
100
AcDbSymbolTable
 70
     3
  0
VPORT
  5
3E5
330
7
100
AcDbSymbolTableRecord
100
AcDbViewportTableRecord
  2
*Active
 70
     0
 10
0.0
 20
0.0
 11
1.0
 21
1.0
 12
63.25697050474133
 22
63.09584424175193
 13
0.0
 23
0.0
 14
1.0
 24
1.0
 15
0.0
 25
0.0
 16
0.0
 26
0.0
 36
1.0
 17
0.0
 27
0.0
 37
0.0
 40
324.0244430790046
 41
1.419847328244274
 42
50.0
 43
0.0
 44
0.0
 50
0.0
 51
0.0
 71
     0
 72
   100
 73
     1
 74
     1
 75
     0
 76
     0
 77
     0
 78
     0
281
     0
 65
     1
110
0.0
120
0.0
130
0.0
111
1.0
121
0.0
131
0.0
112
0.0
122
1.0
132
0.0
 79
     0
146
0.0
  0
ENDTAB
  0
TABLE
  2
LTYPE
  5
4
330
0
100
AcDbSymbolTable
 70
     4
  0
LTYPE
  5
11
330
4
100
AcDbSymbolTableRecord
100
AcDbLinetypeTableRecord
  2
BYBLOCK
 70
     0
  3

 72
    65
 73
     0
 40
0.0
  0
LTYPE
  5
12
330
4
100
AcDbSymbolTableRecord
100
AcDbLinetypeTableRecord
  2
BYLAYER
 70
     0
  3

 72
    65
 73
     0
 40
0.0
  0
LTYPE
  5
13
330
4
100
AcDbSymbolTableRecord
100
AcDbLinetypeTableRecord
  2
CONTINUOUS
 70
     0
  3
Solid line
 72
    65
 73
     0
 40
0.0
  0
LTYPE
  5
36
330
4
100
AcDbSymbolTableRecord
100
AcDbLinetypeTableRecord
  2
PHANTOM
 70
     0
  3
Phantom ______  __  __  ______  __  __  ______
 72
    65
 73
     6
 40
30.0
 49
20.0
 74
     0
 49
-2.0
 74
     0
 49
2.0
 74
     0
 49
-2.0
 74
     0
 49
2.0
 74
     0
 49
-2.0
 74
     0
  0
LTYPE
  5
39
330
4
100
AcDbSymbolTableRecord
100
AcDbLinetypeTableRecord
  2
DASHED
 70
     0
  3
Dashed __ __ __ __ __ __ __ __ __ __ __ __ __ _
 72
    65
 73
     2
 40
4.0
 49
2.0
 74
     0
 49
-2.0
 74
     0
  0
LTYPE
  5
3C
330
4
100
AcDbSymbolTableRecord
100
AcDbLinetypeTableRecord
  2
CENTER
 70
     0
  3
Center ____ _ ____ _ ____ _ ____ _ ____ _ ____
 72
    65
 73
     4
 40
26.0
 49
20.0
 74
     0
 49
-2.0
 74
     0
 49
2.0
 74
     0
 49
-2.0
 74
     0
  0
ENDTAB
  0
TABLE
  2
LAYER
  5
2
330
0
100
AcDbSymbolTable
 70
     2
  0
LAYER
  5
14
330
2
100
AcDbSymbolTableRecord
100
AcDbLayerTableRecord
  2
0
 70
     0
 62
     7
  6
CONTINUOUS
370
    -3
390
3D4
  0
LAYER
  5
1D
330
2
100
AcDbSymbolTableRecord
100
AcDbLayerTableRecord
  2
DEFPOINTS
 70
     0
 62
     7
  6
CONTINUOUS
290
     0
370
    -3
390
3D4
  0
ENDTAB
  0
TABLE
  2
STYLE
  5
3
330
0
100
AcDbSymbolTable
 70
     2
  0
STYLE
  5
17
330
3
100
AcDbSymbolTableRecord
100
AcDbTextStyleTableRecord
  2
MX_NOTE_STANDARD
 70
     0
 40
0.0
 41
1.0
 50
0.0
 71
     0
 42
3.200000047683715
  3
txt.shx
  4
extfont.shx
  0
STYLE
  5
3D2
330
3
100
AcDbSymbolTableRecord
100
AcDbTextStyleTableRecord
  2
Standard
 70
     0
 40
0.0
 41
1.0
 50
0.0
 71
     0
 42
0.2
  3

  4

  0
ENDTAB
  0
TABLE
  2
VIEW
  5
5
330
0
100
AcDbSymbolTable
 70
     0
  0
ENDTAB
  0
TABLE
  2
UCS
  5
6
330
0
100
AcDbSymbolTable
 70
     0
  0
ENDTAB
  0
TABLE
  2
APPID
  5
8
330
0
100
AcDbSymbolTable
 70
     1
  0
APPID
  5
16
330
8
100
AcDbSymbolTableRecord
100
AcDbRegAppTableRecord
  2
ACAD
 70
     0
  0
ENDTAB
  0
TABLE
  2
DIMSTYLE
  5
9
330
0
100
AcDbSymbolTable
 70
     1
100
AcDbDimStyleTable
 71
     0
  0
DIMSTYLE
105
18
330
9
100
AcDbSymbolTableRecord
100
AcDbDimStyleTableRecord
  2
MXDIMSTYLE
 70
     0
 41
2.5
 42
1.5
 43
3.75
 44
1.5
 73
     0
 74
     0
 77
     1
 78
     8
140
3.200000047683715
141
2.5
143
0.03937007874016
147
1.0
171
     4
172
     1
274
     4
288
     1
340
17
  0
ENDTAB
  0
TABLE
  2
BLOCK_RECORD
  5
1
330
0
100
AcDbSymbolTable
 70
    18
  0
BLOCK_RECORD
  5
A
330
1
100
AcDbSymbolTableRecord
100
AcDbBlockTableRecord
  2
*MODEL_SPACE
340
3DB
  0
BLOCK_RECORD
  5
B
330
1
100
AcDbSymbolTableRecord
100
AcDbBlockTableRecord
  2
*PAPER_SPACE
340
3DC
  0
BLOCK_RECORD
  5
1E
330
1
100
AcDbSymbolTableRecord
100
AcDbBlockTableRecord
  2
CTA25-1
340
0
102
{BLKREFS
331
37A
102
}
  0
BLOCK_RECORD
  5
1F
330
1
100
AcDbSymbolTableRecord
100
AcDbBlockTableRecord
  2
CTA25-2
340
0
102
{BLKREFS
331
379
102
}
  0
BLOCK_RECORD
  5
20
330
1
100
AcDbSymbolTableRecord
100
AcDbBlockTableRecord
  2
CTA25-3
340
0
102
{BLKREFS
331
378
102
}
  0
BLOCK_RECORD
  5
21
330
1
100
AcDbSymbolTableRecord
100
AcDbBlockTableRecord
  2
CTA25-4
340
0
102
{BLKREFS
331
377
102
}
  0
BLOCK_RECORD
  5
22
330
1
100
AcDbSymbolTableRecord
100
AcDbBlockTableRecord
  2
CTA25-5
340
0
102
{BLKREFS
331
376
102
}
  0
BLOCK_RECORD
  5
23
330
1
100
AcDbSymbolTableRecord
100
AcDbBlockTableRecord
  2
CTA25-6
340
0
102
{BLKREFS
331
375
102
}
  0
BLOCK_RECORD
  5
24
330
1
100
AcDbSymbolTableRecord
100
AcDbBlockTableRecord
  2
CTA25-7
340
0
102
{BLKREFS
331
374
102
}
  0
BLOCK_RECORD
  5
25
330
1
100
AcDbSymbolTableRecord
100
AcDbBlockTableRecord
  2
CTA25-8
340
0
102
{BLKREFS
331
373
102
}
  0
BLOCK_RECORD
  5
26
330
1
100
AcDbSymbolTableRecord
100
AcDbBlockTableRecord
  2
CTA25-9
340
0
102
{BLKREFS
331
372
102
}
  0
BLOCK_RECORD
  5
27
330
1
100
AcDbSymbolTableRecord
100
AcDbBlockTableRecord
  2
CTA25-10
340
0
102
{BLKREFS
331
371
102
}
  0
BLOCK_RECORD
  5
28
330
1
100
AcDbSymbolTableRecord
100
AcDbBlockTableRecord
  2
CTA25-11
340
0
102
{BLKREFS
331
370
102
}
  0
BLOCK_RECORD
  5
29
330
1
100
AcDbSymbolTableRecord
100
AcDbBlockTableRecord
  2
CTA25-12
340
0
102
{BLKREFS
331
36F
102
}
  0
BLOCK_RECORD
  5
2A
330
1
100
AcDbSymbolTableRecord
100
AcDbBlockTableRecord
  2
CTA25-13
340
0
102
{BLKREFS
331
36E
102
}
  0
BLOCK_RECORD
  5
2B
330
1
100
AcDbSymbolTableRecord
100
AcDbBlockTableRecord
  2
CTA25-14
340
0
102
{BLKREFS
331
36D
102
}
  0
BLOCK_RECORD
  5
2C
330
1
100
AcDbSymbolTableRecord
100
AcDbBlockTableRecord
  2
CTA25-15
340
0
102
{BLKREFS
331
36C
102
}
  0
BLOCK_RECORD
  5
2D
330
1
100
AcDbSymbolTableRecord
100
AcDbBlockTableRecord
  2
CTA25-16
340
0
102
{BLKREFS
331
36B
102
}
  0
BLOCK_RECORD
  5
2E
330
1
100
AcDbSymbolTableRecord
100
AcDbBlockTableRecord
  2
CTA25-17
340
0
102
{BLKREFS
331
36A
102
}
  0
BLOCK_RECORD
  5
2F
330
1
100
AcDbSymbolTableRecord
100
AcDbBlockTableRecord
  2
CTA25-18
340
0
102
{BLKREFS
331
369
102
}
  0
ENDTAB
  0
ENDSEC
  0
SECTION
  2
BLOCKS
  0
BLOCK
  5
D
330
A
100
AcDbEntity
  8
0
100
AcDbBlockBegin
  2
*MODEL_SPACE
 70
     0
 10
0.0
 20
0.0
 30
0.0
  3
*MODEL_SPACE
  1

  0
ENDBLK
  5
E
330
A
100
AcDbEntity
  8
0
100
AcDbBlockEnd
  0
BLOCK
  5
F
330
B
100
AcDbEntity
 67
     1
  8
0
100
AcDbBlockBegin
  2
*PAPER_SPACE
 70
     0
 10
0.0
 20
0.0
 30
0.0
  3
*PAPER_SPACE
  1

  0
ENDBLK
  5
10
330
B
100
AcDbEntity
 67
     1
  8
0
100
AcDbBlockEnd
  0
BLOCK
  5
30
330
1E
100
AcDbEntity
  8
0
100
AcDbBlockBegin
  2
CTA25-1
 70
     0
 10
0.0
 20
0.0
 30
0.0
  3
CTA25-1
  1

  0
CIRCLE
  5
31
330
1E
100
AcDbEntity
  8
0
  6
Continuous
 62
     7
100
AcDbCircle
 10
26.0
 20
0.0
 30
0.0
 40
2.09999942779541
  0
CIRCLE
  5
32
330
1E
100
AcDbEntity
  8
0
  6
Continuous
 62
     7
100
AcDbCircle
 10
10.5
 20
0.0
 30
0.0
 40
2.09999942779541
  0
ARC
  5
33
330
1E
100
AcDbEntity
  8
0
  6
Continuous
 62
     4
100
AcDbCircle
 10
-13.0
 20
0.0
 30
0.0
 40
5.996340550702569
100
AcDbArc
 50
326.4954408251439
 51
33.5045591748561
  0
CIRCLE
  5
34
330
1E
100
AcDbEntity
  8
0
  6
Continuous
 62
     2
100
AcDbCircle
 10
10.5
 20
0.0
 30
0.0
 40
2.5
  0
CIRCLE
  5
35
330
1E
100
AcDbEntity
  8
0
  6
Continuous
 62
     2
100
AcDbCircle
 10
26.0
 20
0.0
 30
0.0
 40
2.5
  0
LINE
  5
37
330
1E
100
AcDbEntity
  8
0
  6
PHANTOM
 62
     3
100
AcDbLine
 10
15.63
 20
-25.63
 30
0.0
 11
15.63
 21
53.36999999999999
 31
0.0
  0
LINE
  5
38
330
1E
100
AcDbEntity
  8
0
  6
PHANTOM
 62
     3
100
AcDbLine
 10
-4.66
 20
-25.63
 30
0.0
 11
-4.66
 21
45.86999999999999
 31
0.0
  0
LINE
  5
3A
330
1E
100
AcDbEntity
  8
0
  6
DASHED
 62
     7
100
AcDbLine
 10
19.5
 20
-17.0
 30
0.0
 11
19.5
 21
-11.0
 31
0.0
  0
LINE
  5
3B
330
1E
100
AcDbEntity
  8
0
  6
DASHED
 62
     2
100
AcDbLine
 10
25.5
 20
-17.0
 30
0.0
 11
19.5
 21
-17.0
 31
0.0
  0
LINE
  5
3D
330
1E
100
AcDbEntity
  8
0
  6
CENTER
 62
     2
100
AcDbLine
 10
-3.0
 20
14.0
 30
0.0
 11
34.0
 21
14.0
 31
0.0
  0
LINE
  5
3E
330
1E
100
AcDbEntity
  8
0
  6
DASHED
 62
     7
100
AcDbLine
 10
25.5
 20
-16.5
 30
0.0
 11
19.5
 21
-16.5
 31
0.0
  0
LINE
  5
3F
330
1E
100
AcDbEntity
  8
0
  6
DASHED
 62
     7
100
AcDbLine
 10
25.5
 20
-11.5
 30
0.0
 11
19.5
 21
-11.5
 31
0.0
  0
LINE
  5
40
330
1E
100
AcDbEntity
  8
0
  6
DASHED
 62
     7
100
AcDbLine
 10
5.5
 20
-11.5
 30
0.0
 11
11.5
 21
-11.5
 31
0.0
  0
LINE
  5
41
330
1E
100
AcDbEntity
  8
0
  6
DASHED
 62
     7
100
AcDbLine
 10
5.5
 20
-16.5
 30
0.0
 11
11.5
 21
-16.5
 31
0.0
  0
LINE
  5
42
330
1E
100
AcDbEntity
  8
0
  6
DASHED
 62
     7
100
AcDbLine
 10
11.5
 20
-11.45
 30
0.0
 11
19.5
 21
-11.45
 31
0.0
  0
LINE
  5
43
330
1E
100
AcDbEntity
  8
0
  6
CENTER
 62
     2
100
AcDbLine
 10
-3.0
 20
-14.0
 30
0.0
 11
34.0
 21
-14.0
 31
0.0
  0
LINE
  5
44
330
1E
100
AcDbEntity
  8
0
  6
DASHED
 62
     2
100
AcDbLine
 10
25.5
 20
-11.0
 30
0.0
 11
19.5
 21
-11.0
 31
0.0
  0
LINE
  5
45
330
1E
100
AcDbEntity
  8
0
  6
DASHED
 62
     7
100
AcDbLine
 10
25.5
 20
-18.0
 30
0.0
 11
25.5
 21
-10.0
 31
0.0
  0
LINE
  5
46
330
1E
100
AcDbEntity
  8
0
  6
DASHED
 62
     7
100
AcDbLine
 10
31.0
 20
-18.0
 30
0.0
 11
25.5
 21
-18.0
 31
0.0
  0
LINE
  5
47
330
1E
100
AcDbEntity
  8
0
  6
DASHED
 62
     7
100
AcDbLine
 10
5.5
 20
-18.0
 30
0.0
 11
5.5
 21
-10.0
 31
0.0
  0
LINE
  5
48
330
1E
100
AcDbEntity
  8
0
  6
DASHED
 62
     7
100
AcDbLine
 10
11.5
 20
-17.0
 30
0.0
 11
11.5
 21
-11.0
 31
0.0
  0
LINE
  5
49
330
1E
100
AcDbEntity
  8
0
  6
DASHED
 62
     7
100
AcDbLine
 10
0.0
 20
-10.0
 30
0.0
 11
5.5
 21
-10.0
 31
0.0
  0
LINE
  5
4A
330
1E
100
AcDbEntity
  8
0
  6
DASHED
 62
     2
100
AcDbLine
 10
5.5
 20
-11.0
 30
0.0
 11
11.5
 21
-11.0
 31
0.0
  0
LINE
  5
4B
330
1E
100
AcDbEntity
  8
0
  6
DASHED
 62
     7
100
AcDbLine
 10
11.5
 20
-16.55
 30
0.0
 11
19.5
 21
-16.55
 31
0.0
  0
LINE
  5
4C
330
1E
100
AcDbEntity
  8
0
  6
DASHED
 62
     7
100
AcDbLine
 10
0.0
 20
-18.0
 30
0.0
 11
5.5
 21
-18.0
 31
0.0
  0
LINE
  5
4D
330
1E
100
AcDbEntity
  8
0
  6
DASHED
 62
     2
100
AcDbLine
 10
5.5
 20
-17.0
 30
0.0
 11
11.5
 21
-17.0
 31
0.0
  0
LINE
  5
4E
330
1E
100
AcDbEntity
  8
0
  6
DASHED
 62
     7
100
AcDbLine
 10
31.0
 20
-10.0
 30
0.0
 11
25.5
 21
-10.0
 31
0.0
  0
LINE
  5
4F
330
1E
100
AcDbEntity
  8
0
  6
CENTER
 62
     2
100
AcDbLine
 10
26.0
 20
5.0
 30
0.0
 11
26.0
 21
-5.0
 31
0.0
  0
LINE
  5
50
330
1E
100
AcDbEntity
  8
0
  6
CENTER
 62
     2
100
AcDbLine
 10
10.5
 20
5.0
 30
0.0
 11
10.5
 21
-5.0
 31
0.0
  0
LINE
  5
51
330
1E
100
AcDbEntity
  8
0
  6
Continuous
 62
     7
100
AcDbLine
 10
0.0
 20
-15.0
 30
0.0
 11
31.0
 21
-15.0
 31
0.0
  0
LINE
  5
52
330
1E
100
AcDbEntity
  8
0
  6
Continuous
 62
     7
100
AcDbLine
 10
0.0
 20
-7.7
 30
0.0
 11
31.0
 21
-7.7
 31
0.0
  0
LINE
  5
53
330
1E
100
AcDbEntity
  8
0
  6
Continuous
 62
   200
100
AcDbLine
 10
-11.0
 20
3.31
 30
0.0
 11
-8.0
 21
-3.31
 31
0.0
  0
LINE
  5
54
330
1E
100
AcDbEntity
  8
0
  6
Continuous
 62
   200
100
AcDbLine
 10
-8.0
 20
3.31
 30
0.0
 11
-11.0
 21
-3.31
 31
0.0
  0
LINE
  5
55
330
1E
100
AcDbEntity
  8
0
  6
Continuous
 62
     4
100
AcDbLine
 10
-9.259999999999999
 20
-6.0
 30
0.0
 11
-9.259999999999999
 21
-3.31
 31
0.0
  0
LINE
  5
56
330
1E
100
AcDbEntity
  8
0
  6
Continuous
 62
     4
100
AcDbLine
 10
-9.259999999999999
 20
6.0
 30
0.0
 11
-9.259999999999999
 21
3.31
 31
0.0
  0
LINE
  5
57
330
1E
100
AcDbEntity
  8
0
  6
Continuous
 62
     4
100
AcDbLine
 10
-8.0
 20
3.31
 30
0.0
 11
-8.0
 21
-3.31
 31
0.0
  0
LINE
  5
58
330
1E
100
AcDbEntity
  8
0
  6
Continuous
 62
     4
100
AcDbLine
 10
-11.0
 20
-3.31
 30
0.0
 11
-8.0
 21
-3.31
 31
0.0
  0
LINE
  5
59
330
1E
100
AcDbEntity
  8
0
  6
Continuous
 62
     4
100
AcDbLine
 10
-11.0
 20
3.31
 30
0.0
 11
-8.0
 21
3.31
 31
0.0
  0
LINE
  5
5A
330
1E
100
AcDbEntity
  8
0
  6
Continuous
 62
     4
100
AcDbLine
 10
-11.0
 20
-5.0
 30
0.0
 11
-9.259999999999999
 21
-6.0
 31
0.0
  0
LINE
  5
5B
330
1E
100
AcDbEntity
  8
0
  6
Continuous
 62
     4
100
AcDbLine
 10
-11.0
 20
5.0
 30
0.0
 11
-9.259999999999999
 21
6.0
 31
0.0
  0
LINE
  5
5C
330
1E
100
AcDbEntity
  8
0
  6
Continuous
 62
     4
100
AcDbLine
 10
-11.0
 20
5.0
 30
0.0
 11
-11.0
 21
-5.0
 31
0.0
  0
LINE
  5
5D
330
1E
100
AcDbEntity
  8
0
  6
Continuous
 62
     4
100
AcDbLine
 10
-9.259999999999999
 20
6.0
 30
0.0
 11
0.0
 21
6.0
 31
0.0
  0
LINE
  5
5E
330
1E
100
AcDbEntity
  8
0
  6
Continuous
 62
     4
100
AcDbLine
 10
-9.259999999999999
 20
-6.0
 30
0.0
 11
0.0
 21
-6.0
 31
0.0
  0
LINE
  5
5F
330
1E
100
AcDbEntity
  8
0
  6
Continuous
 62
     7
100
AcDbLine
 10
0.0
 20
-20.0
 30
0.0
 11
31.0
 21
-20.0
 31
0.0
  0
LINE
  5
60
330
1E
100
AcDbEntity
  8
0
  6
Continuous
 62
     7
100
AcDbLine
 10
0.0
 20
-4.5
 30
0.0
 11
31.0
 21
-4.5
 31
0.0
  0
LINE
  5
61
330
1E
100
AcDbEntity
  8
0
  6
Continuous
 62
     7
100
AcDbLine
 10
0.0
 20
4.5
 30
0.0
 11
31.0
 21
4.5
 31
0.0
  0
LINE
  5
62
330
1E
100
AcDbEntity
  8
0
  6
Continuous
 62
     7
100
AcDbLine
 10
0.0
 20
7.7
 30
0.0
 11
31.0
 21
7.7
 31
0.0
  0
LINE
  5
63
330
1E
100
AcDbEntity
  8
0
  6
Continuous
 62
     7
100
AcDbLine
 10
0.0
 20
15.0
 30
0.0
 11
31.0
 21
15.0
 31
0.0
  0
LINE
  5
64
330
1E
100
AcDbEntity
  8
0
  6
Continuous
 62
     7
100
AcDbLine
 10
0.0
 20
20.0
 30
0.0
 11
31.0
 21
20.0
 31
0.0
  0
LINE
  5
65
330
1E
100
AcDbEntity
  8
0
  6
CENTER
 62
     2
100
AcDbLine
 10
-18.11
 20
0.0
 30
0.0
 11
36.65
 21
0.0
 31
0.0
  0
LINE
  5
66
330
1E
100
AcDbEntity
  8
0
  6
Continuous
 62
     7
100
AcDbLine
 10
31.0
 20
20.0
 30
0.0
 11
31.0
 21
-20.0
 31
0.0
  0
LINE
  5
67
330
1E
100
AcDbEntity
  8
0
  6
Continuous
 62
     7
100
AcDbLine
 10
0.0
 20
20.0
 30
0.0
 11
0.0
 21
-20.0
 31
0.0
  0
ENDBLK
  5
68
330
1E
100
AcDbEntity
  8
0
100
AcDbBlockEnd
  0
BLOCK
  5
69
330
1F
100
AcDbEntity
  8
0
100
AcDbBlockBegin
  2
CTA25-2
 70
     0
 10
0.0
 20
0.0
 30
0.0
  3
CTA25-2
  1

  0
CIRCLE
  5
6A
330
1F
100
AcDbEntity
  8
0
  6
Continuous
 62
     7
100
AcDbCircle
 10
-14.00001525878906
 20
-14.0
 30
0.0
 40
2.5
  0
CIRCLE
  5
6B
330
1F
100
AcDbEntity
  8
0
  6
Continuous
 62
     7
100
AcDbCircle
 10
14.0
 20
-14.0
 30
0.0
 40
2.5
  0
CIRCLE
  5
6C
330
1F
100
AcDbEntity
  8
0
  6
Continuous
 62
     7
100
AcDbCircle
 10
14.0
 20
14.0
 30
0.0
 40
2.5
  0
CIRCLE
  5
6D
330
1F
100
AcDbEntity
  8
0
  6
Continuous
 62
     7
100
AcDbCircle
 10
-14.00001525878906
 20
14.0
 30
0.0
 40
2.5
  0
CIRCLE
  5
6E
330
1F
100
AcDbEntity
  8
0
  6
Continuous
 62
     4
100
AcDbCircle
 10
0.0
 20
0.0
 30
0.0
 40
2.5
  0
CIRCLE
  5
6F
330
1F
100
AcDbEntity
  8
0
  6
Continuous
 62
   200
100
AcDbCircle
 10
0.0
 20
0.0
 30
0.0
 40
3.0
  0
CIRCLE
  5
70
330
1F
100
AcDbEntity
  8
0
  6
Continuous
 62
     4
100
AcDbCircle
 10
0.0
 20
0.0
 30
0.0
 40
5.0
  0
CIRCLE
  5
71
330
1F
100
AcDbEntity
  8
0
  6
Continuous
 62
     4
100
AcDbCircle
 10
0.0
 20
0.0
 30
0.0
 40
6.0
  0
CIRCLE
  5
72
330
1F
100
AcDbEntity
  8
0
  6
Continuous
 62
     7
100
AcDbCircle
 10
-14.00001525878906
 20
-14.0
 30
0.0
 40
4.0
  0
CIRCLE
  5
73
330
1F
100
AcDbEntity
  8
0
  6
Continuous
 62
     7
100
AcDbCircle
 10
14.0
 20
-14.0
 30
0.0
 40
4.0
  0
CIRCLE
  5
74
330
1F
100
AcDbEntity
  8
0
  6
Continuous
 62
     7
100
AcDbCircle
 10
14.0
 20
14.0
 30
0.0
 40
4.0
  0
CIRCLE
  5
75
330
1F
100
AcDbEntity
  8
0
  6
Continuous
 62
     7
100
AcDbCircle
 10
-14.00001525878906
 20
14.0
 30
0.0
 40
4.0
  0
CIRCLE
  5
76
330
1F
100
AcDbEntity
  8
0
  6
Continuous
 62
     2
100
AcDbCircle
 10
-14.00001525878906
 20
-14.0
 30
0.0
 40
3.0
  0
CIRCLE
  5
77
330
1F
100
AcDbEntity
  8
0
  6
Continuous
 62
     2
100
AcDbCircle
 10
14.0
 20
-14.0
 30
0.0
 40
3.0
  0
CIRCLE
  5
78
330
1F
100
AcDbEntity
  8
0
  6
Continuous
 62
     2
100
AcDbCircle
 10
14.0
 20
14.0
 30
0.0
 40
3.0
  0
CIRCLE
  5
79
330
1F
100
AcDbEntity
  8
0
  6
Continuous
 62
     2
100
AcDbCircle
 10
-14.00001525878906
 20
14.0
 30
0.0
 40
3.0
  0
ARC
  5
7A
330
1F
100
AcDbEntity
  8
0
  6
Continuous
 62
     7
100
AcDbCircle
 10
17.4
 20
-6.099999999999999
 30
0.0
 40
2.100000000141915
100
AcDbArc
 50
90.0
 51
270.0
  0
ARC
  5
7B
330
1F
100
AcDbEntity
  8
0
  6
Continuous
 62
     7
100
AcDbCircle
 10
6.099999999999999
 20
-17.4
 30
0.0
 40
2.100000000008868
100
AcDbArc
 50
0.0
 51
180.0
  0
ARC
  5
7C
330
1F
100
AcDbEntity
  8
0
  6
Continuous
 62
     7
100
AcDbCircle
 10
-6.099999999999999
 20
-17.4
 30
0.0
 40
2.100000000008868
100
AcDbArc
 50
0.0
 51
180.0
  0
ARC
  5
7D
330
1F
100
AcDbEntity
  8
0
  6
Continuous
 62
     7
100
AcDbCircle
 10
-17.4
 20
-6.099999999999999
 30
0.0
 40
2.100000000108654
100
AcDbArc
 50
270.0
 51
90.0
  0
ARC
  5
7E
330
1F
100
AcDbEntity
  8
0
  6
Continuous
 62
     7
100
AcDbCircle
 10
-17.4
 20
6.099999999999999
 30
0.0
 40
2.100000000108654
100
AcDbArc
 50
270.0
 51
90.0
  0
ARC
  5
7F
330
1F
100
AcDbEntity
  8
0
  6
Continuous
 62
     7
100
AcDbCircle
 10
6.099999999999999
 20
17.4
 30
0.0
 40
2.100000000019957
100
AcDbArc
 50
180.0
 51
0.0
  0
ARC
  5
80
330
1F
100
AcDbEntity
  8
0
  6
Continuous
 62
     7
100
AcDbCircle
 10
-6.099999999999999
 20
17.4
 30
0.0
 40
2.100000000008868
100
AcDbArc
 50
180.0
 51
0.0
  0
ARC
  5
81
330
1F
100
AcDbEntity
  8
0
  6
Continuous
 62
     7
100
AcDbCircle
 10
0.0
 20
0.0
 30
0.0
 40
25.0
100
AcDbArc
 50
306.869897645844
 51
323.130102354156
  0
ARC
  5
82
330
1F
100
AcDbEntity
  8
0
  6
Continuous
 62
     7
100
AcDbCircle
 10
0.0
 20
0.0
 30
0.0
 40
25.0
100
AcDbArc
 50
216.869897645844
 51
233.130102354156
  0
ARC
  5
83
330
1F
100
AcDbEntity
  8
0
  6
Continuous
 62
     7
100
AcDbCircle
 10
0.0
 20
0.0
 30
0.0
 40
25.0
100
AcDbArc
 50
126.869897645844
 51
143.1301023541559
  0
ARC
  5
84
330
1F
100
AcDbEntity
  8
0
  6
Continuous
 62
     7
100
AcDbCircle
 10
0.0
 20
0.0
 30
0.0
 40
25.0
100
AcDbArc
 50
36.86989764584403
 51
53.13010235415598
  0
ARC
  5
85
330
1F
100
AcDbEntity
  8
0
  6
Continuous
 62
     7
100
AcDbCircle
 10
17.4
 20
6.099999999999999
 30
0.0
 40
2.100000000141915
100
AcDbArc
 50
90.0
 51
270.0
  0
CIRCLE
  5
86
330
1F
100
AcDbEntity
  8
0
  6
Continuous
 62
     7
100
AcDbCircle
 10
0.0
 20
0.0
 30
0.0
 40
14.0
  0
LINE
  5
87
330
1F
100
AcDbEntity
  8
0
  6
CENTER
 62
     2
100
AcDbLine
 10
14.0
 20
20.5
 30
0.0
 11
14.0
 21
7.5
 31
0.0
  0
LINE
  5
88
330
1F
100
AcDbEntity
  8
0
  6
CENTER
 62
     2
100
AcDbLine
 10
14.0
 20
-7.5
 30
0.0
 11
14.0
 21
-20.5
 31
0.0
  0
LINE
  5
89
330
1F
100
AcDbEntity
  8
0
  6
CENTER
 62
     2
100
AcDbLine
 10
-14.0
 20
-7.5
 30
0.0
 11
-14.0
 21
-20.5
 31
0.0
  0
LINE
  5
8A
330
1F
100
AcDbEntity
  8
0
  6
CENTER
 62
     2
100
AcDbLine
 10
0.0
 20
25.0
 30
0.0
 11
0.0
 21
-25.0
 31
0.0
  0
LINE
  5
8B
330
1F
100
AcDbEntity
  8
0
  6
CENTER
 62
     2
100
AcDbLine
 10
-25.0
 20
0.0
 30
0.0
 11
25.0
 21
0.0
 31
0.0
  0
LINE
  5
8C
330
1F
100
AcDbEntity
  8
0
  6
CENTER
 62
     2
100
AcDbLine
 10
-20.5
 20
14.0
 30
0.0
 11
-7.5
 21
14.0
 31
0.0
  0
LINE
  5
8D
330
1F
100
AcDbEntity
  8
0
  6
CENTER
 62
     2
100
AcDbLine
 10
7.5
 20
14.0
 30
0.0
 11
20.5
 21
14.0
 31
0.0
  0
LINE
  5
8E
330
1F
100
AcDbEntity
  8
0
  6
CENTER
 62
     2
100
AcDbLine
 10
7.5
 20
-14.0
 30
0.0
 11
20.5
 21
-14.0
 31
0.0
  0
LINE
  5
8F
330
1F
100
AcDbEntity
  8
0
  6
CENTER
 62
     2
100
AcDbLine
 10
-20.5
 20
-14.0
 30
0.0
 11
-7.5
 21
-14.0
 31
0.0
  0
LINE
  5
90
330
1F
100
AcDbEntity
  8
0
  6
CENTER
 62
     2
100
AcDbLine
 10
-14.0
 20
20.5
 30
0.0
 11
-14.0
 21
7.5
 31
0.0
  0
LINE
  5
91
330
1F
100
AcDbEntity
  8
0
  6
Continuous
 62
     4
100
AcDbLine
 10
-5.0
 20
3.31
 30
0.0
 11
-5.0
 21
-3.31
 31
0.0
  0
LINE
  5
92
330
1F
100
AcDbEntity
  8
0
  6
Continuous
 62
     4
100
AcDbLine
 10
5.0
 20
3.31
 30
0.0
 11
5.0
 21
-3.31
 31
0.0
  0
LINE
  5
93
330
1F
100
AcDbEntity
  8
0
  6
Continuous
 62
     7
100
AcDbLine
 10
-20.0
 20
4.5
 30
0.0
 11
-20.0
 21
-4.5
 31
0.0
  0
LINE
  5
94
330
1F
100
AcDbEntity
  8
0
  6
Continuous
 62
     7
100
AcDbLine
 10
-20.0
 20
-7.7
 30
0.0
 11
-20.0
 21
-15.0
 31
0.0
  0
LINE
  5
95
330
1F
100
AcDbEntity
  8
0
  6
Continuous
 62
     7
100
AcDbLine
 10
-4.5
 20
-20.0
 30
0.0
 11
4.5
 21
-20.0
 31
0.0
  0
LINE
  5
96
330
1F
100
AcDbEntity
  8
0
  6
Continuous
 62
     7
100
AcDbLine
 10
7.7
 20
-20.0
 30
0.0
 11
15.0
 21
-20.0
 31
0.0
  0
LINE
  5
97
330
1F
100
AcDbEntity
  8
0
  6
Continuous
 62
     7
100
AcDbLine
 10
20.0
 20
-7.7
 30
0.0
 11
20.0
 21
-15.0
 31
0.0
  0
LINE
  5
98
330
1F
100
AcDbEntity
  8
0
  6
Continuous
 62
     7
100
AcDbLine
 10
20.0
 20
4.5
 30
0.0
 11
20.0
 21
-4.5
 31
0.0
  0
LINE
  5
99
330
1F
100
AcDbEntity
  8
0
  6
Continuous
 62
     7
100
AcDbLine
 10
7.7
 20
20.0
 30
0.0
 11
15.0
 21
20.0
 31
0.0
  0
LINE
  5
9A
330
1F
100
AcDbEntity
  8
0
  6
Continuous
 62
     7
100
AcDbLine
 10
-4.5
 20
20.0
 30
0.0
 11
4.5
 21
20.0
 31
0.0
  0
LINE
  5
9B
330
1F
100
AcDbEntity
  8
0
  6
Continuous
 62
     7
100
AcDbLine
 10
19.0
 20
-8.199999999999997
 30
0.0
 11
19.5
 21
-7.7
 31
0.0
  0
LINE
  5
9C
330
1F
100
AcDbEntity
  8
0
  6
Continuous
 62
     7
100
AcDbLine
 10
19.0
 20
-4.0
 30
0.0
 11
19.5
 21
-4.5
 31
0.0
  0
LINE
  5
9D
330
1F
100
AcDbEntity
  8
0
  6
Continuous
 62
     7
100
AcDbLine
 10
19.0
 20
-4.0
 30
0.0
 11
17.4
 21
-4.0
 31
0.0
  0
LINE
  5
9E
330
1F
100
AcDbEntity
  8
0
  6
Continuous
 62
     7
100
AcDbLine
 10
19.0
 20
-8.199999999999997
 30
0.0
 11
17.4
 21
-8.199999999999997
 31
0.0
  0
LINE
  5
9F
330
1F
100
AcDbEntity
  8
0
  6
Continuous
 62
     7
100
AcDbLine
 10
20.0
 20
-4.5
 30
0.0
 11
19.5
 21
-4.5
 31
0.0
  0
LINE
  5
A0
330
1F
100
AcDbEntity
  8
0
  6
Continuous
 62
     7
100
AcDbLine
 10
20.0
 20
-7.7
 30
0.0
 11
19.5
 21
-7.7
 31
0.0
  0
LINE
  5
A1
330
1F
100
AcDbEntity
  8
0
  6
Continuous
 62
     7
100
AcDbLine
 10
4.0
 20
-19.0
 30
0.0
 11
4.5
 21
-19.5
 31
0.0
  0
LINE
  5
A2
330
1F
100
AcDbEntity
  8
0
  6
Continuous
 62
     7
100
AcDbLine
 10
8.199999999999997
 20
-19.0
 30
0.0
 11
7.7
 21
-19.5
 31
0.0
  0
LINE
  5
A3
330
1F
100
AcDbEntity
  8
0
  6
Continuous
 62
     7
100
AcDbLine
 10
8.199999999999997
 20
-19.0
 30
0.0
 11
8.199999999999997
 21
-17.4
 31
0.0
  0
LINE
  5
A4
330
1F
100
AcDbEntity
  8
0
  6
Continuous
 62
     7
100
AcDbLine
 10
4.0
 20
-19.0
 30
0.0
 11
4.0
 21
-17.4
 31
0.0
  0
LINE
  5
A5
330
1F
100
AcDbEntity
  8
0
  6
Continuous
 62
     7
100
AcDbLine
 10
7.7
 20
-20.0
 30
0.0
 11
7.7
 21
-19.5
 31
0.0
  0
LINE
  5
A6
330
1F
100
AcDbEntity
  8
0
  6
Continuous
 62
     7
100
AcDbLine
 10
4.5
 20
-20.0
 30
0.0
 11
4.5
 21
-19.5
 31
0.0
  0
LINE
  5
A7
330
1F
100
AcDbEntity
  8
0
  6
Continuous
 62
     7
100
AcDbLine
 10
-8.199999999999997
 20
-19.0
 30
0.0
 11
-7.7
 21
-19.5
 31
0.0
  0
LINE
  5
A8
330
1F
100
AcDbEntity
  8
0
  6
Continuous
 62
     7
100
AcDbLine
 10
-4.0
 20
-19.0
 30
0.0
 11
-4.5
 21
-19.5
 31
0.0
  0
LINE
  5
A9
330
1F
100
AcDbEntity
  8
0
  6
Continuous
 62
     7
100
AcDbLine
 10
-4.0
 20
-19.0
 30
0.0
 11
-4.0
 21
-17.4
 31
0.0
  0
LINE
  5
AA
330
1F
100
AcDbEntity
  8
0
  6
Continuous
 62
     7
100
AcDbLine
 10
-8.199999999999997
 20
-19.0
 30
0.0
 11
-8.199999999999997
 21
-17.4
 31
0.0
  0
LINE
  5
AB
330
1F
100
AcDbEntity
  8
0
  6
Continuous
 62
     7
100
AcDbLine
 10
-4.5
 20
-20.0
 30
0.0
 11
-4.5
 21
-19.5
 31
0.0
  0
LINE
  5
AC
330
1F
100
AcDbEntity
  8
0
  6
Continuous
 62
     7
100
AcDbLine
 10
-7.7
 20
-20.0
 30
0.0
 11
-7.7
 21
-19.5
 31
0.0
  0
LINE
  5
AD
330
1F
100
AcDbEntity
  8
0
  6
Continuous
 62
     7
100
AcDbLine
 10
-19.0
 20
-4.0
 30
0.0
 11
-19.5
 21
-4.5
 31
0.0
  0
LINE
  5
AE
330
1F
100
AcDbEntity
  8
0
  6
Continuous
 62
     7
100
AcDbLine
 10
-19.0
 20
-8.199999999999997
 30
0.0
 11
-19.5
 21
-7.7
 31
0.0
  0
LINE
  5
AF
330
1F
100
AcDbEntity
  8
0
  6
Continuous
 62
     7
100
AcDbLine
 10
-19.0
 20
-8.199999999999997
 30
0.0
 11
-17.4
 21
-8.199999999999997
 31
0.0
  0
LINE
  5
B0
330
1F
100
AcDbEntity
  8
0
  6
Continuous
 62
     7
100
AcDbLine
 10
-19.0
 20
-4.0
 30
0.0
 11
-17.4
 21
-4.0
 31
0.0
  0
LINE
  5
B1
330
1F
100
AcDbEntity
  8
0
  6
Continuous
 62
     7
100
AcDbLine
 10
-20.0
 20
-7.7
 30
0.0
 11
-19.5
 21
-7.7
 31
0.0
  0
LINE
  5
B2
330
1F
100
AcDbEntity
  8
0
  6
Continuous
 62
     7
100
AcDbLine
 10
-20.0
 20
-4.5
 30
0.0
 11
-19.5
 21
-4.5
 31
0.0
  0
LINE
  5
B3
330
1F
100
AcDbEntity
  8
0
  6
Continuous
 62
     7
100
AcDbLine
 10
-19.0
 20
8.199999999999997
 30
0.0
 11
-19.5
 21
7.7
 31
0.0
  0
LINE
  5
B4
330
1F
100
AcDbEntity
  8
0
  6
Continuous
 62
     7
100
AcDbLine
 10
-19.0
 20
4.0
 30
0.0
 11
-19.5
 21
4.5
 31
0.0
  0
LINE
  5
B5
330
1F
100
AcDbEntity
  8
0
  6
Continuous
 62
     7
100
AcDbLine
 10
-19.0
 20
4.0
 30
0.0
 11
-17.4
 21
4.0
 31
0.0
  0
LINE
  5
B6
330
1F
100
AcDbEntity
  8
0
  6
Continuous
 62
     7
100
AcDbLine
 10
-19.0
 20
8.199999999999997
 30
0.0
 11
-17.4
 21
8.199999999999997
 31
0.0
  0
LINE
  5
B7
330
1F
100
AcDbEntity
  8
0
  6
Continuous
 62
     7
100
AcDbLine
 10
-20.0
 20
4.5
 30
0.0
 11
-19.5
 21
4.5
 31
0.0
  0
LINE
  5
B8
330
1F
100
AcDbEntity
  8
0
  6
Continuous
 62
     7
100
AcDbLine
 10
-20.0
 20
7.7
 30
0.0
 11
-19.5
 21
7.7
 31
0.0
  0
LINE
  5
B9
330
1F
100
AcDbEntity
  8
0
  6
Continuous
 62
     7
100
AcDbLine
 10
8.199999999999997
 20
19.0
 30
0.0
 11
7.7
 21
19.5
 31
0.0
  0
LINE
  5
BA
330
1F
100
AcDbEntity
  8
0
  6
Continuous
 62
     7
100
AcDbLine
 10
4.0
 20
19.0
 30
0.0
 11
4.5
 21
19.5
 31
0.0
  0
LINE
  5
BB
330
1F
100
AcDbEntity
  8
0
  6
Continuous
 62
     7
100
AcDbLine
 10
4.0
 20
19.0
 30
0.0
 11
4.0
 21
17.4
 31
0.0
  0
LINE
  5
BC
330
1F
100
AcDbEntity
  8
0
  6
Continuous
 62
     7
100
AcDbLine
 10
8.199999999999997
 20
19.0
 30
0.0
 11
8.199999999999997
 21
17.4
 31
0.0
  0
LINE
  5
BD
330
1F
100
AcDbEntity
  8
0
  6
Continuous
 62
     7
100
AcDbLine
 10
4.5
 20
20.0
 30
0.0
 11
4.5
 21
19.5
 31
0.0
  0
LINE
  5
BE
330
1F
100
AcDbEntity
  8
0
  6
Continuous
 62
     7
100
AcDbLine
 10
7.7
 20
20.0
 30
0.0
 11
7.7
 21
19.5
 31
0.0
  0
LINE
  5
BF
330
1F
100
AcDbEntity
  8
0
  6
Continuous
 62
     7
100
AcDbLine
 10
-4.0
 20
19.0
 30
0.0
 11
-4.5
 21
19.5
 31
0.0
  0
LINE
  5
C0
330
1F
100
AcDbEntity
  8
0
  6
Continuous
 62
     7
100
AcDbLine
 10
-8.199999999999997
 20
19.0
 30
0.0
 11
-7.7
 21
19.5
 31
0.0
  0
LINE
  5
C1
330
1F
100
AcDbEntity
  8
0
  6
Continuous
 62
     7
100
AcDbLine
 10
-8.199999999999997
 20
19.0
 30
0.0
 11
-8.199999999999997
 21
17.4
 31
0.0
  0
LINE
  5
C2
330
1F
100
AcDbEntity
  8
0
  6
Continuous
 62
     7
100
AcDbLine
 10
-4.0
 20
19.0
 30
0.0
 11
-4.0
 21
17.4
 31
0.0
  0
LINE
  5
C3
330
1F
100
AcDbEntity
  8
0
  6
Continuous
 62
     7
100
AcDbLine
 10
-7.7
 20
20.0
 30
0.0
 11
-7.7
 21
19.5
 31
0.0
  0
LINE
  5
C4
330
1F
100
AcDbEntity
  8
0
  6
Continuous
 62
     7
100
AcDbLine
 10
-4.5
 20
20.0
 30
0.0
 11
-4.5
 21
19.5
 31
0.0
  0
LINE
  5
C5
330
1F
100
AcDbEntity
  8
0
  6
Continuous
 62
     7
100
AcDbLine
 10
-15.0
 20
20.0
 30
0.0
 11
-7.7
 21
20.0
 31
0.0
  0
LINE
  5
C6
330
1F
100
AcDbEntity
  8
0
  6
Continuous
 62
     7
100
AcDbLine
 10
-15.0
 20
-20.0
 30
0.0
 11
-7.7
 21
-20.0
 31
0.0
  0
LINE
  5
C7
330
1F
100
AcDbEntity
  8
0
  6
Continuous
 62
     7
100
AcDbLine
 10
20.0
 20
15.0
 30
0.0
 11
20.0
 21
7.7
 31
0.0
  0
LINE
  5
C8
330
1F
100
AcDbEntity
  8
0
  6
Continuous
 62
     7
100
AcDbLine
 10
-20.0
 20
15.0
 30
0.0
 11
-20.0
 21
7.7
 31
0.0
  0
LINE
  5
C9
330
1F
100
AcDbEntity
  8
0
  6
Continuous
 62
     7
100
AcDbLine
 10
19.0
 20
4.0
 30
0.0
 11
19.5
 21
4.5
 31
0.0
  0
LINE
  5
CA
330
1F
100
AcDbEntity
  8
0
  6
Continuous
 62
     7
100
AcDbLine
 10
19.0
 20
8.199999999999997
 30
0.0
 11
19.5
 21
7.7
 31
0.0
  0
LINE
  5
CB
330
1F
100
AcDbEntity
  8
0
  6
Continuous
 62
     7
100
AcDbLine
 10
19.0
 20
8.199999999999997
 30
0.0
 11
17.4
 21
8.199999999999997
 31
0.0
  0
LINE
  5
CC
330
1F
100
AcDbEntity
  8
0
  6
Continuous
 62
     7
100
AcDbLine
 10
19.0
 20
4.0
 30
0.0
 11
17.4
 21
4.0
 31
0.0
  0
LINE
  5
CD
330
1F
100
AcDbEntity
  8
0
  6
Continuous
 62
     7
100
AcDbLine
 10
20.0
 20
7.7
 30
0.0
 11
19.5
 21
7.7
 31
0.0
  0
LINE
  5
CE
330
1F
100
AcDbEntity
  8
0
  6
Continuous
 62
     7
100
AcDbLine
 10
20.0
 20
4.5
 30
0.0
 11
19.5
 21
4.5
 31
0.0
  0
ENDBLK
  5
CF
330
1F
100
AcDbEntity
  8
0
100
AcDbBlockEnd
  0
BLOCK
  5
D0
330
20
100
AcDbEntity
  8
0
100
AcDbBlockBegin
  2
CTA25-3
 70
     0
 10
0.0
 20
0.0
 30
0.0
  3
CTA25-3
  1

  0
CIRCLE
  5
D1
330
20
100
AcDbEntity
  8
0
  6
Continuous
 62
     7
100
AcDbCircle
 10
-14.0
 20
14.0
 30
0.0
 40
2.5
  0
CIRCLE
  5
D2
330
20
100
AcDbEntity
  8
0
  6
Continuous
 62
     7
100
AcDbCircle
 10
14.0
 20
14.0
 30
0.0
 40
2.5
  0
CIRCLE
  5
D3
330
20
100
AcDbEntity
  8
0
  6
Continuous
 62
     7
100
AcDbCircle
 10
14.0
 20
-14.0
 30
0.0
 40
2.5
  0
CIRCLE
  5
D4
330
20
100
AcDbEntity
  8
0
  6
Continuous
 62
     7
100
AcDbCircle
 10
-14.0
 20
-14.0
 30
0.0
 40
2.5
  0
CIRCLE
  5
D5
330
20
100
AcDbEntity
  8
0
  6
Continuous
 62
     2
100
AcDbCircle
 10
14.0
 20
-14.0
 30
0.0
 40
3.0
  0
CIRCLE
  5
D6
330
20
100
AcDbEntity
  8
0
  6
Continuous
 62
     7
100
AcDbCircle
 10
14.0
 20
-14.0
 30
0.0
 40
4.0
  0
CIRCLE
  5
D7
330
20
100
AcDbEntity
  8
0
  6
Continuous
 62
     2
100
AcDbCircle
 10
-14.0
 20
14.0
 30
0.0
 40
3.0
  0
CIRCLE
  5
D8
330
20
100
AcDbEntity
  8
0
  6
Continuous
 62
     7
100
AcDbCircle
 10
-14.0
 20
14.0
 30
0.0
 40
4.0
  0
CIRCLE
  5
D9
330
20
100
AcDbEntity
  8
0
  6
Continuous
 62
     7
100
AcDbCircle
 10
0.0
 20
0.0
 30
0.0
 40
12.5
  0
CIRCLE
  5
DA
330
20
100
AcDbEntity
  8
0
  6
Continuous
 62
     7
100
AcDbCircle
 10
-14.0
 20
-14.0
 30
0.0
 40
4.0
  0
CIRCLE
  5
DB
330
20
100
AcDbEntity
  8
0
  6
Continuous
 62
     7
100
AcDbCircle
 10
14.0
 20
14.0
 30
0.0
 40
4.0
  0
CIRCLE
  5
DC
330
20
100
AcDbEntity
  8
0
  6
Continuous
 62
     2
100
AcDbCircle
 10
-14.0
 20
-14.0
 30
0.0
 40
3.0
  0
CIRCLE
  5
DD
330
20
100
AcDbEntity
  8
0
  6
Continuous
 62
     2
100
AcDbCircle
 10
14.0
 20
14.0
 30
0.0
 40
3.0
  0
ARC
  5
DE
330
20
100
AcDbEntity
  8
0
  6
Continuous
 62
     7
100
AcDbCircle
 10
-17.4
 20
-6.099999999999999
 30
0.0
 40
2.100000000141915
100
AcDbArc
 50
270.0
 51
90.0
  0
ARC
  5
DF
330
20
100
AcDbEntity
  8
0
  6
Continuous
 62
     7
100
AcDbCircle
 10
-6.099999999999999
 20
-17.4
 30
0.0
 40
2.100000000008868
100
AcDbArc
 50
0.0
 51
180.0
  0
ARC
  5
E0
330
20
100
AcDbEntity
  8
0
  6
Continuous
 62
     7
100
AcDbCircle
 10
6.099999999999999
 20
-17.4
 30
0.0
 40
2.100000000008868
100
AcDbArc
 50
0.0
 51
180.0
  0
ARC
  5
E1
330
20
100
AcDbEntity
  8
0
  6
Continuous
 62
     7
100
AcDbCircle
 10
17.4
 20
-6.099999999999999
 30
0.0
 40
2.100000000141915
100
AcDbArc
 50
90.0
 51
270.0
  0
ARC
  5
E2
330
20
100
AcDbEntity
  8
0
  6
Continuous
 62
     7
100
AcDbCircle
 10
17.4
 20
6.099999999999999
 30
0.0
 40
2.100000000141915
100
AcDbArc
 50
90.0
 51
270.0
  0
ARC
  5
E3
330
20
100
AcDbEntity
  8
0
  6
Continuous
 62
     7
100
AcDbCircle
 10
-6.099999999999999
 20
17.4
 30
0.0
 40
2.100000000019957
100
AcDbArc
 50
180.0
 51
0.0
  0
ARC
  5
E4
330
20
100
AcDbEntity
  8
0
  6
Continuous
 62
     7
100
AcDbCircle
 10
6.099999999999999
 20
17.4
 30
0.0
 40
2.100000000008868
100
AcDbArc
 50
180.0
 51
0.0
  0
ARC
  5
E5
330
20
100
AcDbEntity
  8
0
  6
Continuous
 62
     7
100
AcDbCircle
 10
0.0
 20
0.0
 30
0.0
 40
25.0
100
AcDbArc
 50
216.869897645844
 51
233.130102354156
  0
ARC
  5
E6
330
20
100
AcDbEntity
  8
0
  6
Continuous
 62
     7
100
AcDbCircle
 10
0.0
 20
0.0
 30
0.0
 40
25.0
100
AcDbArc
 50
306.869897645844
 51
323.130102354156
  0
ARC
  5
E7
330
20
100
AcDbEntity
  8
0
  6
Continuous
 62
     7
100
AcDbCircle
 10
0.0
 20
0.0
 30
0.0
 40
25.0
100
AcDbArc
 50
36.86989764584403
 51
53.13010235415598
  0
ARC
  5
E8
330
20
100
AcDbEntity
  8
0
  6
Continuous
 62
     7
100
AcDbCircle
 10
0.0
 20
0.0
 30
0.0
 40
25.0
100
AcDbArc
 50
126.869897645844
 51
143.1301023541559
  0
ARC
  5
E9
330
20
100
AcDbEntity
  8
0
  6
Continuous
 62
     7
100
AcDbCircle
 10
-17.4
 20
6.099999999999999
 30
0.0
 40
2.100000000141915
100
AcDbArc
 50
270.0
 51
90.0
  0
LINE
  5
EA
330
20
100
AcDbEntity
  8
0
  6
CENTER
 62
     2
100
AcDbLine
 10
14.0
 20
20.5
 30
0.0
 11
14.0
 21
7.5
 31
0.0
  0
LINE
  5
EB
330
20
100
AcDbEntity
  8
0
  6
CENTER
 62
     2
100
AcDbLine
 10
14.0
 20
-7.5
 30
0.0
 11
14.0
 21
-20.5
 31
0.0
  0
LINE
  5
EC
330
20
100
AcDbEntity
  8
0
  6
CENTER
 62
     2
100
AcDbLine
 10
-14.0
 20
-7.5
 30
0.0
 11
-14.0
 21
-20.5
 31
0.0
  0
LINE
  5
ED
330
20
100
AcDbEntity
  8
0
  6
CENTER
 62
     2
100
AcDbLine
 10
0.0
 20
25.0
 30
0.0
 11
0.0
 21
-25.0
 31
0.0
  0
LINE
  5
EE
330
20
100
AcDbEntity
  8
0
  6
CENTER
 62
     2
100
AcDbLine
 10
-25.0
 20
0.0
 30
0.0
 11
25.0
 21
0.0
 31
0.0
  0
LINE
  5
EF
330
20
100
AcDbEntity
  8
0
  6
CENTER
 62
     2
100
AcDbLine
 10
-20.5
 20
14.0
 30
0.0
 11
-7.5
 21
14.0
 31
0.0
  0
LINE
  5
F0
330
20
100
AcDbEntity
  8
0
  6
CENTER
 62
     2
100
AcDbLine
 10
7.5
 20
14.0
 30
0.0
 11
20.5
 21
14.0
 31
0.0
  0
LINE
  5
F1
330
20
100
AcDbEntity
  8
0
  6
CENTER
 62
     2
100
AcDbLine
 10
7.5
 20
-14.0
 30
0.0
 11
20.5
 21
-14.0
 31
0.0
  0
LINE
  5
F2
330
20
100
AcDbEntity
  8
0
  6
CENTER
 62
     2
100
AcDbLine
 10
-20.5
 20
-14.0
 30
0.0
 11
-7.5
 21
-14.0
 31
0.0
  0
LINE
  5
F3
330
20
100
AcDbEntity
  8
0
  6
CENTER
 62
     2
100
AcDbLine
 10
-14.0
 20
20.5
 30
0.0
 11
-14.0
 21
7.5
 31
0.0
  0
LINE
  5
F4
330
20
100
AcDbEntity
  8
0
  6
Continuous
 62
     7
100
AcDbLine
 10
20.0
 20
4.5
 30
0.0
 11
20.0
 21
-4.5
 31
0.0
  0
LINE
  5
F5
330
20
100
AcDbEntity
  8
0
  6
Continuous
 62
     7
100
AcDbLine
 10
20.0
 20
-7.7
 30
0.0
 11
20.0
 21
-15.0
 31
0.0
  0
LINE
  5
F6
330
20
100
AcDbEntity
  8
0
  6
Continuous
 62
     7
100
AcDbLine
 10
4.5
 20
-20.0
 30
0.0
 11
-4.5
 21
-20.0
 31
0.0
  0
LINE
  5
F7
330
20
100
AcDbEntity
  8
0
  6
Continuous
 62
     7
100
AcDbLine
 10
-7.7
 20
-20.0
 30
0.0
 11
-15.0
 21
-20.0
 31
0.0
  0
LINE
  5
F8
330
20
100
AcDbEntity
  8
0
  6
Continuous
 62
     7
100
AcDbLine
 10
-20.0
 20
-7.7
 30
0.0
 11
-20.0
 21
-15.0
 31
0.0
  0
LINE
  5
F9
330
20
100
AcDbEntity
  8
0
  6
Continuous
 62
     7
100
AcDbLine
 10
-20.0
 20
4.5
 30
0.0
 11
-20.0
 21
-4.5
 31
0.0
  0
LINE
  5
FA
330
20
100
AcDbEntity
  8
0
  6
Continuous
 62
     7
100
AcDbLine
 10
-7.7
 20
20.0
 30
0.0
 11
-15.0
 21
20.0
 31
0.0
  0
LINE
  5
FB
330
20
100
AcDbEntity
  8
0
  6
Continuous
 62
     7
100
AcDbLine
 10
4.5
 20
20.0
 30
0.0
 11
-4.5
 21
20.0
 31
0.0
  0
LINE
  5
FC
330
20
100
AcDbEntity
  8
0
  6
Continuous
 62
     7
100
AcDbLine
 10
-19.0
 20
-8.199999999999997
 30
0.0
 11
-19.5
 21
-7.7
 31
0.0
  0
LINE
  5
FD
330
20
100
AcDbEntity
  8
0
  6
Continuous
 62
     7
100
AcDbLine
 10
-19.0
 20
-4.0
 30
0.0
 11
-19.5
 21
-4.5
 31
0.0
  0
LINE
  5
FE
330
20
100
AcDbEntity
  8
0
  6
Continuous
 62
     7
100
AcDbLine
 10
-19.0
 20
-4.0
 30
0.0
 11
-17.4
 21
-4.0
 31
0.0
  0
LINE
  5
FF
330
20
100
AcDbEntity
  8
0
  6
Continuous
 62
     7
100
AcDbLine
 10
-19.0
 20
-8.199999999999997
 30
0.0
 11
-17.4
 21
-8.199999999999997
 31
0.0
  0
LINE
  5
100
330
20
100
AcDbEntity
  8
0
  6
Continuous
 62
     7
100
AcDbLine
 10
-20.0
 20
-4.5
 30
0.0
 11
-19.5
 21
-4.5
 31
0.0
  0
LINE
  5
101
330
20
100
AcDbEntity
  8
0
  6
Continuous
 62
     7
100
AcDbLine
 10
-20.0
 20
-7.7
 30
0.0
 11
-19.5
 21
-7.7
 31
0.0
  0
LINE
  5
102
330
20
100
AcDbEntity
  8
0
  6
Continuous
 62
     7
100
AcDbLine
 10
-4.0
 20
-19.0
 30
0.0
 11
-4.5
 21
-19.5
 31
0.0
  0
LINE
  5
103
330
20
100
AcDbEntity
  8
0
  6
Continuous
 62
     7
100
AcDbLine
 10
-8.199999999999997
 20
-19.0
 30
0.0
 11
-7.7
 21
-19.5
 31
0.0
  0
LINE
  5
104
330
20
100
AcDbEntity
  8
0
  6
Continuous
 62
     7
100
AcDbLine
 10
-8.199999999999997
 20
-19.0
 30
0.0
 11
-8.199999999999997
 21
-17.4
 31
0.0
  0
LINE
  5
105
330
20
100
AcDbEntity
  8
0
  6
Continuous
 62
     7
100
AcDbLine
 10
-4.0
 20
-19.0
 30
0.0
 11
-4.0
 21
-17.4
 31
0.0
  0
LINE
  5
106
330
20
100
AcDbEntity
  8
0
  6
Continuous
 62
     7
100
AcDbLine
 10
-7.7
 20
-20.0
 30
0.0
 11
-7.7
 21
-19.5
 31
0.0
  0
LINE
  5
107
330
20
100
AcDbEntity
  8
0
  6
Continuous
 62
     7
100
AcDbLine
 10
-4.5
 20
-20.0
 30
0.0
 11
-4.5
 21
-19.5
 31
0.0
  0
LINE
  5
108
330
20
100
AcDbEntity
  8
0
  6
Continuous
 62
     7
100
AcDbLine
 10
8.199999999999997
 20
-19.0
 30
0.0
 11
7.7
 21
-19.5
 31
0.0
  0
LINE
  5
109
330
20
100
AcDbEntity
  8
0
  6
Continuous
 62
     7
100
AcDbLine
 10
4.0
 20
-19.0
 30
0.0
 11
4.5
 21
-19.5
 31
0.0
  0
LINE
  5
10A
330
20
100
AcDbEntity
  8
0
  6
Continuous
 62
     7
100
AcDbLine
 10
4.0
 20
-19.0
 30
0.0
 11
4.0
 21
-17.4
 31
0.0
  0
LINE
  5
10B
330
20
100
AcDbEntity
  8
0
  6
Continuous
 62
     7
100
AcDbLine
 10
8.199999999999997
 20
-19.0
 30
0.0
 11
8.199999999999997
 21
-17.4
 31
0.0
  0
LINE
  5
10C
330
20
100
AcDbEntity
  8
0
  6
Continuous
 62
     7
100
AcDbLine
 10
4.5
 20
-20.0
 30
0.0
 11
4.5
 21
-19.5
 31
0.0
  0
LINE
  5
10D
330
20
100
AcDbEntity
  8
0
  6
Continuous
 62
     7
100
AcDbLine
 10
7.7
 20
-20.0
 30
0.0
 11
7.7
 21
-19.5
 31
0.0
  0
LINE
  5
10E
330
20
100
AcDbEntity
  8
0
  6
Continuous
 62
     7
100
AcDbLine
 10
19.0
 20
-4.0
 30
0.0
 11
19.5
 21
-4.5
 31
0.0
  0
LINE
  5
10F
330
20
100
AcDbEntity
  8
0
  6
Continuous
 62
     7
100
AcDbLine
 10
19.0
 20
-8.199999999999997
 30
0.0
 11
19.5
 21
-7.7
 31
0.0
  0
LINE
  5
110
330
20
100
AcDbEntity
  8
0
  6
Continuous
 62
     7
100
AcDbLine
 10
19.0
 20
-8.199999999999997
 30
0.0
 11
17.4
 21
-8.199999999999997
 31
0.0
  0
LINE
  5
111
330
20
100
AcDbEntity
  8
0
  6
Continuous
 62
     7
100
AcDbLine
 10
19.0
 20
-4.0
 30
0.0
 11
17.4
 21
-4.0
 31
0.0
  0
LINE
  5
112
330
20
100
AcDbEntity
  8
0
  6
Continuous
 62
     7
100
AcDbLine
 10
20.0
 20
-7.7
 30
0.0
 11
19.5
 21
-7.7
 31
0.0
  0
LINE
  5
113
330
20
100
AcDbEntity
  8
0
  6
Continuous
 62
     7
100
AcDbLine
 10
20.0
 20
-4.5
 30
0.0
 11
19.5
 21
-4.5
 31
0.0
  0
LINE
  5
114
330
20
100
AcDbEntity
  8
0
  6
Continuous
 62
     7
100
AcDbLine
 10
19.0
 20
8.199999999999997
 30
0.0
 11
19.5
 21
7.7
 31
0.0
  0
LINE
  5
115
330
20
100
AcDbEntity
  8
0
  6
Continuous
 62
     7
100
AcDbLine
 10
19.0
 20
4.0
 30
0.0
 11
19.5
 21
4.5
 31
0.0
  0
LINE
  5
116
330
20
100
AcDbEntity
  8
0
  6
Continuous
 62
     7
100
AcDbLine
 10
19.0
 20
4.0
 30
0.0
 11
17.4
 21
4.0
 31
0.0
  0
LINE
  5
117
330
20
100
AcDbEntity
  8
0
  6
Continuous
 62
     7
100
AcDbLine
 10
19.0
 20
8.199999999999997
 30
0.0
 11
17.4
 21
8.199999999999997
 31
0.0
  0
LINE
  5
118
330
20
100
AcDbEntity
  8
0
  6
Continuous
 62
     7
100
AcDbLine
 10
20.0
 20
4.5
 30
0.0
 11
19.5
 21
4.5
 31
0.0
  0
LINE
  5
119
330
20
100
AcDbEntity
  8
0
  6
Continuous
 62
     7
100
AcDbLine
 10
20.0
 20
7.7
 30
0.0
 11
19.5
 21
7.7
 31
0.0
  0
LINE
  5
11A
330
20
100
AcDbEntity
  8
0
  6
Continuous
 62
     7
100
AcDbLine
 10
-8.199999999999997
 20
19.0
 30
0.0
 11
-7.7
 21
19.5
 31
0.0
  0
LINE
  5
11B
330
20
100
AcDbEntity
  8
0
  6
Continuous
 62
     7
100
AcDbLine
 10
-4.0
 20
19.0
 30
0.0
 11
-4.5
 21
19.5
 31
0.0
  0
LINE
  5
11C
330
20
100
AcDbEntity
  8
0
  6
Continuous
 62
     7
100
AcDbLine
 10
-4.0
 20
19.0
 30
0.0
 11
-4.0
 21
17.4
 31
0.0
  0
LINE
  5
11D
330
20
100
AcDbEntity
  8
0
  6
Continuous
 62
     7
100
AcDbLine
 10
-8.199999999999997
 20
19.0
 30
0.0
 11
-8.199999999999997
 21
17.4
 31
0.0
  0
LINE
  5
11E
330
20
100
AcDbEntity
  8
0
  6
Continuous
 62
     7
100
AcDbLine
 10
-4.5
 20
20.0
 30
0.0
 11
-4.5
 21
19.5
 31
0.0
  0
LINE
  5
11F
330
20
100
AcDbEntity
  8
0
  6
Continuous
 62
     7
100
AcDbLine
 10
-7.7
 20
20.0
 30
0.0
 11
-7.7
 21
19.5
 31
0.0
  0
LINE
  5
120
330
20
100
AcDbEntity
  8
0
  6
Continuous
 62
     7
100
AcDbLine
 10
4.0
 20
19.0
 30
0.0
 11
4.5
 21
19.5
 31
0.0
  0
LINE
  5
121
330
20
100
AcDbEntity
  8
0
  6
Continuous
 62
     7
100
AcDbLine
 10
8.199999999999997
 20
19.0
 30
0.0
 11
7.7
 21
19.5
 31
0.0
  0
LINE
  5
122
330
20
100
AcDbEntity
  8
0
  6
Continuous
 62
     7
100
AcDbLine
 10
8.199999999999997
 20
19.0
 30
0.0
 11
8.199999999999997
 21
17.4
 31
0.0
  0
LINE
  5
123
330
20
100
AcDbEntity
  8
0
  6
Continuous
 62
     7
100
AcDbLine
 10
4.0
 20
19.0
 30
0.0
 11
4.0
 21
17.4
 31
0.0
  0
LINE
  5
124
330
20
100
AcDbEntity
  8
0
  6
Continuous
 62
     7
100
AcDbLine
 10
7.7
 20
20.0
 30
0.0
 11
7.7
 21
19.5
 31
0.0
  0
LINE
  5
125
330
20
100
AcDbEntity
  8
0
  6
Continuous
 62
     7
100
AcDbLine
 10
4.5
 20
20.0
 30
0.0
 11
4.5
 21
19.5
 31
0.0
  0
LINE
  5
126
330
20
100
AcDbEntity
  8
0
  6
Continuous
 62
     7
100
AcDbLine
 10
15.0
 20
20.0
 30
0.0
 11
7.7
 21
20.0
 31
0.0
  0
LINE
  5
127
330
20
100
AcDbEntity
  8
0
  6
Continuous
 62
     7
100
AcDbLine
 10
15.0
 20
-20.0
 30
0.0
 11
7.7
 21
-20.0
 31
0.0
  0
LINE
  5
128
330
20
100
AcDbEntity
  8
0
  6
Continuous
 62
     7
100
AcDbLine
 10
-20.0
 20
15.0
 30
0.0
 11
-20.0
 21
7.7
 31
0.0
  0
LINE
  5
129
330
20
100
AcDbEntity
  8
0
  6
Continuous
 62
     7
100
AcDbLine
 10
20.0
 20
15.0
 30
0.0
 11
20.0
 21
7.7
 31
0.0
  0
LINE
  5
12A
330
20
100
AcDbEntity
  8
0
  6
Continuous
 62
     7
100
AcDbLine
 10
-19.0
 20
4.0
 30
0.0
 11
-19.5
 21
4.5
 31
0.0
  0
LINE
  5
12B
330
20
100
AcDbEntity
  8
0
  6
Continuous
 62
     7
100
AcDbLine
 10
-19.0
 20
8.199999999999997
 30
0.0
 11
-19.5
 21
7.7
 31
0.0
  0
LINE
  5
12C
330
20
100
AcDbEntity
  8
0
  6
Continuous
 62
     7
100
AcDbLine
 10
-19.0
 20
8.199999999999997
 30
0.0
 11
-17.4
 21
8.199999999999997
 31
0.0
  0
LINE
  5
12D
330
20
100
AcDbEntity
  8
0
  6
Continuous
 62
     7
100
AcDbLine
 10
-19.0
 20
4.0
 30
0.0
 11
-17.4
 21
4.0
 31
0.0
  0
LINE
  5
12E
330
20
100
AcDbEntity
  8
0
  6
Continuous
 62
     7
100
AcDbLine
 10
-20.0
 20
7.7
 30
0.0
 11
-19.5
 21
7.7
 31
0.0
  0
LINE
  5
12F
330
20
100
AcDbEntity
  8
0
  6
Continuous
 62
     7
100
AcDbLine
 10
-20.0
 20
4.5
 30
0.0
 11
-19.5
 21
4.5
 31
0.0
  0
ENDBLK
  5
130
330
20
100
AcDbEntity
  8
0
100
AcDbBlockEnd
  0
BLOCK
  5
131
330
21
100
AcDbEntity
  8
0
100
AcDbBlockBegin
  2
CTA25-4
 70
     0
 10
0.0
 20
0.0
 30
0.0
  3
CTA25-4
  1

  0
LINE
  5
132
330
21
100
AcDbEntity
  8
0
  6
CENTER
 62
     2
100
AcDbLine
 10
-3.0
 20
14.0
 30
0.0
 11
34.0
 21
14.0
 31
0.0
  0
LINE
  5
133
330
21
100
AcDbEntity
  8
0
  6
CENTER
 62
     2
100
AcDbLine
 10
-3.0
 20
-14.0
 30
0.0
 11
34.0
 21
-14.0
 31
0.0
  0
LINE
  5
134
330
21
100
AcDbEntity
  8
0
  6
PHANTOM
 62
     3
100
AcDbLine
 10
15.63
 20
42.38
 30
0.0
 11
15.63
 21
-36.62
 31
0.0
  0
LINE
  5
135
330
21
100
AcDbEntity
  8
0
  6
PHANTOM
 62
     3
100
AcDbLine
 10
-4.66
 20
27.38
 30
0.0
 11
-4.66
 21
-44.11999999999999
 31
0.0
  0
LINE
  5
136
330
21
100
AcDbEntity
  8
0
  6
CENTER
 62
     2
100
AcDbLine
 10
26.0
 20
-17.5
 30
0.0
 11
26.0
 21
-22.5
 31
0.0
  0
LINE
  5
137
330
21
100
AcDbEntity
  8
0
  6
CENTER
 62
     2
100
AcDbLine
 10
10.5
 20
-17.5
 30
0.0
 11
10.5
 21
-22.5
 31
0.0
  0
LINE
  5
138
330
21
100
AcDbEntity
  8
0
  6
Continuous
 62
     4
100
AcDbLine
 10
-8.0
 20
5.0
 30
0.0
 11
-7.0
 21
6.0
 31
0.0
  0
LINE
  5
139
330
21
100
AcDbEntity
  8
0
  6
Continuous
 62
     4
100
AcDbLine
 10
-11.0
 20
-5.0
 30
0.0
 11
-8.0
 21
-5.0
 31
0.0
  0
LINE
  5
13A
330
21
100
AcDbEntity
  8
0
  6
Continuous
 62
     4
100
AcDbLine
 10
-11.0
 20
5.0
 30
0.0
 11
-8.0
 21
5.0
 31
0.0
  0
LINE
  5
13B
330
21
100
AcDbEntity
  8
0
  6
Continuous
 62
     4
100
AcDbLine
 10
-9.259999999999999
 20
-5.0
 30
0.0
 11
-9.259999999999999
 21
5.0
 31
0.0
  0
LINE
  5
13C
330
21
100
AcDbEntity
  8
0
  6
Continuous
 62
     4
100
AcDbLine
 10
-11.0
 20
5.0
 30
0.0
 11
-11.0
 21
-5.0
 31
0.0
  0
LINE
  5
13D
330
21
100
AcDbEntity
  8
0
  6
Continuous
 62
     4
100
AcDbLine
 10
-7.0
 20
6.0
 30
0.0
 11
0.0
 21
6.0
 31
0.0
  0
LINE
  5
13E
330
21
100
AcDbEntity
  8
0
  6
Continuous
 62
     4
100
AcDbLine
 10
-7.0
 20
-6.0
 30
0.0
 11
0.0
 21
-6.0
 31
0.0
  0
LINE
  5
13F
330
21
100
AcDbEntity
  8
0
  6
Continuous
 62
     4
100
AcDbLine
 10
-8.0
 20
-5.0
 30
0.0
 11
-7.0
 21
-6.0
 31
0.0
  0
LINE
  5
140
330
21
100
AcDbEntity
  8
0
  6
Continuous
 62
     7
100
AcDbLine
 10
0.0
 20
-15.0
 30
0.0
 11
31.0
 21
-15.0
 31
0.0
  0
LINE
  5
141
330
21
100
AcDbEntity
  8
0
  6
Continuous
 62
     7
100
AcDbLine
 10
0.0
 20
-7.7
 30
0.0
 11
31.0
 21
-7.7
 31
0.0
  0
LINE
  5
142
330
21
100
AcDbEntity
  8
0
  6
Continuous
 62
     7
100
AcDbLine
 10
0.0
 20
-20.0
 30
0.0
 11
31.0
 21
-20.0
 31
0.0
  0
LINE
  5
143
330
21
100
AcDbEntity
  8
0
  6
Continuous
 62
     7
100
AcDbLine
 10
0.0
 20
-4.5
 30
0.0
 11
31.0
 21
-4.5
 31
0.0
  0
LINE
  5
144
330
21
100
AcDbEntity
  8
0
  6
Continuous
 62
     7
100
AcDbLine
 10
0.0
 20
4.5
 30
0.0
 11
31.0
 21
4.5
 31
0.0
  0
LINE
  5
145
330
21
100
AcDbEntity
  8
0
  6
Continuous
 62
     7
100
AcDbLine
 10
0.0
 20
7.7
 30
0.0
 11
31.0
 21
7.7
 31
0.0
  0
LINE
  5
146
330
21
100
AcDbEntity
  8
0
  6
Continuous
 62
     7
100
AcDbLine
 10
0.0
 20
15.0
 30
0.0
 11
31.0
 21
15.0
 31
0.0
  0
LINE
  5
147
330
21
100
AcDbEntity
  8
0
  6
Continuous
 62
     7
100
AcDbLine
 10
0.0
 20
20.0
 30
0.0
 11
31.0
 21
20.0
 31
0.0
  0
LINE
  5
148
330
21
100
AcDbEntity
  8
0
  6
CENTER
 62
     2
100
AcDbLine
 10
-18.11
 20
0.0
 30
0.0
 11
36.65
 21
0.0
 31
0.0
  0
LINE
  5
149
330
21
100
AcDbEntity
  8
0
  6
Continuous
 62
     7
100
AcDbLine
 10
31.0
 20
20.0
 30
0.0
 11
31.0
 21
-20.0
 31
0.0
  0
LINE
  5
14A
330
21
100
AcDbEntity
  8
0
  6
Continuous
 62
     7
100
AcDbLine
 10
0.0
 20
20.0
 30
0.0
 11
0.0
 21
-20.0
 31
0.0
  0
ENDBLK
  5
14B
330
21
100
AcDbEntity
  8
0
100
AcDbBlockEnd
  0
BLOCK
  5
14C
330
22
100
AcDbEntity
  8
0
100
AcDbBlockBegin
  2
CTA25-5
 70
     0
 10
0.0
 20
0.0
 30
0.0
  3
CTA25-5
  1

  0
SPLINE
  5
14D
330
22
100
AcDbEntity
  8
0
  6
Continuous
 62
     4
100
AcDbSpline
210
0.0
220
0.0
230
1.0
 70
     8
 71
     3
 72
    11
 73
     7
 74
     5
 42
0.0000000001
 43
0.0000000001
 44
0.000001
 12
0.516397942629058
 22
-0.856348740203707
 32
0.0
 13
-0.5163979426290576
 23
-0.8563487402037072
 33
0.0
 40
0.0
 40
0.0
 40
0.0
 40
0.0
 40
1.746319672288849
 40
3.489029196416709
 40
5.231738720334274
 40
6.978058393172545
 40
6.978058393172545
 40
6.978058393172545
 40
6.978058393172545
 10
-8.0
 20
3.31
 30
0.0
 10
-7.699401371352462
 20
2.811513782880831
 30
0.0
 10
-7.203810823152371
 20
1.746904335278718
 30
0.0
 10
-6.898201531422159
 20
0.0000000002090015
 30
0.0
 10
-7.203810821049931
 20
-1.746904335877428
 30
0.0
 10
-7.699401371257889
 20
-2.811513782723999
 30
0.0
 10
-8.0
 20
-3.31
 30
0.0
 11
-8.0
 21
3.31
 31
0.0
 11
-7.276393253462689
 21
1.720652132490299
 31
0.0
 11
-7.0
 21
0.0
 31
0.0
 11
-7.276393252136753
 21
-1.720652132490299
 31
0.0
 11
-8.0
 21
-3.31
 31
0.0
  0
ARC
  5
14E
330
22
100
AcDbEntity
  8
0
  6
Continuous
 62
     4
100
AcDbCircle
 10
-20.92169135009539
 20
6.06
 30
0.0
 40
3.573922760091828
100
AcDbArc
 50
145.5834527458577
 51
214.4165472541423
  0
ARC
  5
14F
330
22
100
AcDbEntity
  8
0
  6
Continuous
 62
     4
100
AcDbCircle
 10
-11.1246337890625
 20
0.0
 30
0.0
 40
13.37033880838131
100
AcDbArc
 50
162.412533148803
 51
197.587466851197
  0
ARC
  5
150
330
22
100
AcDbEntity
  8
0
  6
Continuous
 62
     4
100
AcDbCircle
 10
-20.92169135009539
 20
-6.06
 30
0.0
 40
3.573922760091828
100
AcDbArc
 50
145.5834527458577
 51
214.4165472541423
  0
ARC
  5
151
330
22
100
AcDbEntity
  8
0
  6
Continuous
 62
     4
100
AcDbCircle
 10
-22.07830864923666
 20
-6.06
 30
0.0
 40
3.582176721512832
100
AcDbArc
 50
325.6738555670034
 51
34.32614443299661
  0
ARC
  5
152
330
22
100
AcDbEntity
  8
0
  6
Continuous
 62
     4
100
AcDbCircle
 10
-31.8753662109375
 20
0.0
 30
0.0
 40
13.37987171743907
100
AcDbArc
 50
342.4254724147465
 51
17.5745275852535
  0
ARC
  5
153
330
22
100
AcDbEntity
  8
0
  6
Continuous
 62
     4
100
AcDbCircle
 10
-22.07830864923666
 20
6.06
 30
0.0
 40
3.582176721512832
100
AcDbArc
 50
325.6738555670034
 51
34.32614443299661
  0
LINE
  5
154
330
22
100
AcDbEntity
  8
0
  6
Continuous
 62
     4
100
AcDbLine
 10
-10.0
 20
6.0
 30
0.0
 11
0.0
 21
6.0
 31
0.0
  0
LINE
  5
155
330
22
100
AcDbEntity
  8
0
  6
Continuous
 62
     4
100
AcDbLine
 10
-11.0
 20
5.0
 30
0.0
 11
-11.0
 21
-5.0
 31
0.0
  0
LINE
  5
156
330
22
100
AcDbEntity
  8
0
  6
Continuous
 62
     4
100
AcDbLine
 10
-10.0
 20
6.0
 30
0.0
 11
-10.0
 21
3.31
 31
0.0
  0
LINE
  5
157
330
22
100
AcDbEntity
  8
0
  6
Continuous
 62
     4
100
AcDbLine
 10
-11.0
 20
5.0
 30
0.0
 11
-10.0
 21
6.0
 31
0.0
  0
LINE
  5
158
330
22
100
AcDbEntity
  8
0
  6
Continuous
 62
     4
100
AcDbLine
 10
-11.0
 20
-5.0
 30
0.0
 11
-10.0
 21
-6.0
 31
0.0
  0
LINE
  5
159
330
22
100
AcDbEntity
  8
0
  6
Continuous
 62
     4
100
AcDbLine
 10
-10.0
 20
-6.0
 30
0.0
 11
0.0
 21
-6.0
 31
0.0
  0
LINE
  5
15A
330
22
100
AcDbEntity
  8
0
  6
Continuous
 62
     4
100
AcDbLine
 10
-8.0
 20
3.31
 30
0.0
 11
-8.0
 21
-3.31
 31
0.0
  0
LINE
  5
15B
330
22
100
AcDbEntity
  8
0
  6
Continuous
 62
     4
100
AcDbLine
 10
-11.0
 20
3.31
 30
0.0
 11
-8.0
 21
3.31
 31
0.0
  0
LINE
  5
15C
330
22
100
AcDbEntity
  8
0
  6
Continuous
 62
     4
100
AcDbLine
 10
-11.0
 20
-3.31
 30
0.0
 11
-8.0
 21
-3.31
 31
0.0
  0
LINE
  5
15D
330
22
100
AcDbEntity
  8
0
  6
Continuous
 62
     4
100
AcDbLine
 10
-10.0
 20
-3.31
 30
0.0
 11
-10.0
 21
-6.0
 31
0.0
  0
LINE
  5
15E
330
22
100
AcDbEntity
  8
0
  6
Continuous
 62
   200
100
AcDbLine
 10
-8.0
 20
3.31
 30
0.0
 11
-11.0
 21
-3.31
 31
0.0
  0
LINE
  5
15F
330
22
100
AcDbEntity
  8
0
  6
Continuous
 62
   200
100
AcDbLine
 10
-11.0
 20
3.31
 30
0.0
 11
-8.0
 21
-3.31
 31
0.0
  0
LINE
  5
160
330
22
100
AcDbEntity
  8
0
  6
Continuous
 62
     4
100
AcDbLine
 10
-28.37
 20
5.0
 30
0.0
 11
-24.5
 21
5.0
 31
0.0
  0
LINE
  5
161
330
22
100
AcDbEntity
  8
0
  6
Continuous
 62
     4
100
AcDbLine
 10
-28.37
 20
-5.0
 30
0.0
 11
-24.5
 21
-5.0
 31
0.0
  0
LINE
  5
162
330
22
100
AcDbEntity
  8
0
  6
Continuous
 62
     4
100
AcDbLine
 10
-29.0
 20
4.37
 30
0.0
 11
-29.0
 21
-4.37
 31
0.0
  0
LINE
  5
163
330
22
100
AcDbEntity
  8
0
  6
Continuous
 62
     4
100
AcDbLine
 10
-14.0
 20
5.0
 30
0.0
 11
-14.0
 21
-5.0
 31
0.0
  0
LINE
  5
164
330
22
100
AcDbEntity
  8
0
  6
Continuous
 62
     4
100
AcDbLine
 10
-23.87
 20
8.08
 30
0.0
 11
-19.12
 21
8.08
 31
0.0
  0
LINE
  5
165
330
22
100
AcDbEntity
  8
0
  6
Continuous
 62
     4
100
AcDbLine
 10
-23.87
 20
4.04
 30
0.0
 11
-19.12
 21
4.04
 31
0.0
  0
LINE
  5
166
330
22
100
AcDbEntity
  8
0
  6
Continuous
 62
     4
100
AcDbLine
 10
-24.5
 20
7.0
 30
0.0
 11
-24.5
 21
-7.0
 31
0.0
  0
LINE
  5
167
330
22
100
AcDbEntity
  8
0
  6
Continuous
 62
     4
100
AcDbLine
 10
-18.5
 20
7.0
 30
0.0
 11
-18.5
 21
-7.0
 31
0.0
  0
LINE
  5
168
330
22
100
AcDbEntity
  8
0
  6
Continuous
 62
     4
100
AcDbLine
 10
-24.5
 20
7.0
 30
0.0
 11
-23.87
 21
8.08
 31
0.0
  0
LINE
  5
169
330
22
100
AcDbEntity
  8
0
  6
Continuous
 62
     4
100
AcDbLine
 10
-19.12
 20
8.08
 30
0.0
 11
-18.5
 21
7.0
 31
0.0
  0
LINE
  5
16A
330
22
100
AcDbEntity
  8
0
  6
Continuous
 62
     4
100
AcDbLine
 10
-18.5
 20
5.0
 30
0.0
 11
-11.0
 21
5.0
 31
0.0
  0
LINE
  5
16B
330
22
100
AcDbEntity
  8
0
  6
Continuous
 62
     4
100
AcDbLine
 10
-24.5
 20
-7.0
 30
0.0
 11
-23.87
 21
-8.08
 31
0.0
  0
LINE
  5
16C
330
22
100
AcDbEntity
  8
0
  6
Continuous
 62
     4
100
AcDbLine
 10
-23.87
 20
-8.08
 30
0.0
 11
-19.12
 21
-8.08
 31
0.0
  0
LINE
  5
16D
330
22
100
AcDbEntity
  8
0
  6
Continuous
 62
     4
100
AcDbLine
 10
-23.87
 20
-4.04
 30
0.0
 11
-19.12
 21
-4.04
 31
0.0
  0
LINE
  5
16E
330
22
100
AcDbEntity
  8
0
  6
Continuous
 62
     4
100
AcDbLine
 10
-19.12
 20
-8.08
 30
0.0
 11
-18.5
 21
-7.0
 31
0.0
  0
LINE
  5
16F
330
22
100
AcDbEntity
  8
0
  6
Continuous
 62
     4
100
AcDbLine
 10
-18.5
 20
-5.0
 30
0.0
 11
-11.0
 21
-5.0
 31
0.0
  0
LINE
  5
170
330
22
100
AcDbEntity
  8
0
  6
Continuous
 62
   200
100
AcDbLine
 10
-29.0
 20
4.37
 30
0.0
 11
-24.5
 21
4.37
 31
0.0
  0
LINE
  5
171
330
22
100
AcDbEntity
  8
0
  6
Continuous
 62
   200
100
AcDbLine
 10
-14.0
 20
4.37
 30
0.0
 11
-12.91
 21
5.0
 31
0.0
  0
LINE
  5
172
330
22
100
AcDbEntity
  8
0
  6
Continuous
 62
   200
100
AcDbLine
 10
-29.0
 20
-4.37
 30
0.0
 11
-24.5
 21
-4.37
 31
0.0
  0
LINE
  5
173
330
22
100
AcDbEntity
  8
0
  6
Continuous
 62
   200
100
AcDbLine
 10
-18.5
 20
-4.37
 30
0.0
 11
-14.0
 21
-4.37
 31
0.0
  0
LINE
  5
174
330
22
100
AcDbEntity
  8
0
  6
Continuous
 62
   200
100
AcDbLine
 10
-14.0
 20
-4.37
 30
0.0
 11
-12.91
 21
-5.0
 31
0.0
  0
LINE
  5
175
330
22
100
AcDbEntity
  8
0
  6
Continuous
 62
     4
100
AcDbLine
 10
-29.0
 20
-4.37
 30
0.0
 11
-28.37
 21
-5.0
 31
0.0
  0
LINE
  5
176
330
22
100
AcDbEntity
  8
0
  6
Continuous
 62
     4
100
AcDbLine
 10
-29.0
 20
4.37
 30
0.0
 11
-28.37
 21
5.0
 31
0.0
  0
LINE
  5
177
330
22
100
AcDbEntity
  8
0
  6
Continuous
 62
     4
100
AcDbLine
 10
-28.37
 20
5.0
 30
0.0
 11
-28.37
 21
-5.0
 31
0.0
  0
LINE
  5
178
330
22
100
AcDbEntity
  8
0
  6
Continuous
 62
   200
100
AcDbLine
 10
-18.5
 20
4.37
 30
0.0
 11
-14.0
 21
4.37
 31
0.0
  0
ENDBLK
  5
179
330
22
100
AcDbEntity
  8
0
100
AcDbBlockEnd
  0
BLOCK
  5
17A
330
23
100
AcDbEntity
  8
0
100
AcDbBlockBegin
  2
CTA25-6
 70
     0
 10
0.0
 20
0.0
 30
0.0
  3
CTA25-6
  1

  0
ARC
  5
17B
330
23
100
AcDbEntity
  8
0
  6
Continuous
 62
     4
100
AcDbCircle
 10
-13.0
 20
0.0
 30
0.0
 40
5.996340550702569
100
AcDbArc
 50
326.4954408251439
 51
33.5045591748561
  0
LINE
  5
17C
330
23
100
AcDbEntity
  8
0
  6
Continuous
 62
     4
100
AcDbLine
 10
-2.0
 20
-7.5
 30
0.0
 11
0.0
 21
-7.5
 31
0.0
  0
LINE
  5
17D
330
23
100
AcDbEntity
  8
0
  6
Continuous
 62
     4
100
AcDbLine
 10
-2.0
 20
7.5
 30
0.0
 11
-2.0
 21
-7.5
 31
0.0
  0
LINE
  5
17E
330
23
100
AcDbEntity
  8
0
  6
Continuous
 62
   200
100
AcDbLine
 10
-11.0
 20
3.31
 30
0.0
 11
-8.0
 21
-3.31
 31
0.0
  0
LINE
  5
17F
330
23
100
AcDbEntity
  8
0
  6
Continuous
 62
   200
100
AcDbLine
 10
-8.0
 20
3.31
 30
0.0
 11
-11.0
 21
-3.31
 31
0.0
  0
LINE
  5
180
330
23
100
AcDbEntity
  8
0
  6
Continuous
 62
     4
100
AcDbLine
 10
-9.259999999999999
 20
-6.0
 30
0.0
 11
-9.259999999999999
 21
-3.31
 31
0.0
  0
LINE
  5
181
330
23
100
AcDbEntity
  8
0
  6
Continuous
 62
     4
100
AcDbLine
 10
-9.259999999999999
 20
6.0
 30
0.0
 11
-9.259999999999999
 21
3.31
 31
0.0
  0
LINE
  5
182
330
23
100
AcDbEntity
  8
0
  6
Continuous
 62
     4
100
AcDbLine
 10
-8.0
 20
3.31
 30
0.0
 11
-8.0
 21
-3.31
 31
0.0
  0
LINE
  5
183
330
23
100
AcDbEntity
  8
0
  6
Continuous
 62
     4
100
AcDbLine
 10
-11.0
 20
-3.31
 30
0.0
 11
-8.0
 21
-3.31
 31
0.0
  0
LINE
  5
184
330
23
100
AcDbEntity
  8
0
  6
Continuous
 62
     4
100
AcDbLine
 10
-11.0
 20
3.31
 30
0.0
 11
-8.0
 21
3.31
 31
0.0
  0
LINE
  5
185
330
23
100
AcDbEntity
  8
0
  6
Continuous
 62
     4
100
AcDbLine
 10
-11.0
 20
-5.0
 30
0.0
 11
-9.259999999999999
 21
-6.0
 31
0.0
  0
LINE
  5
186
330
23
100
AcDbEntity
  8
0
  6
Continuous
 62
     4
100
AcDbLine
 10
-11.0
 20
5.0
 30
0.0
 11
-9.259999999999999
 21
6.0
 31
0.0
  0
LINE
  5
187
330
23
100
AcDbEntity
  8
0
  6
Continuous
 62
     4
100
AcDbLine
 10
-11.0
 20
5.0
 30
0.0
 11
-11.0
 21
-5.0
 31
0.0
  0
LINE
  5
188
330
23
100
AcDbEntity
  8
0
  6
Continuous
 62
     4
100
AcDbLine
 10
-9.259999999999999
 20
6.0
 30
0.0
 11
-2.0
 21
6.0
 31
0.0
  0
LINE
  5
189
330
23
100
AcDbEntity
  8
0
  6
Continuous
 62
     4
100
AcDbLine
 10
-9.259999999999999
 20
-6.0
 30
0.0
 11
-2.0
 21
-6.0
 31
0.0
  0
LINE
  5
18A
330
23
100
AcDbEntity
  8
0
  6
Continuous
 62
     4
100
AcDbLine
 10
-2.0
 20
7.5
 30
0.0
 11
0.0
 21
7.5
 31
0.0
  0
ENDBLK
  5
18B
330
23
100
AcDbEntity
  8
0
100
AcDbBlockEnd
  0
BLOCK
  5
18C
330
24
100
AcDbEntity
  8
0
100
AcDbBlockBegin
  2
CTA25-7
 70
     0
 10
0.0
 20
0.0
 30
0.0
  3
CTA25-7
  1

  0
LINE
  5
18D
330
24
100
AcDbEntity
  8
0
  6
Continuous
 62
     4
100
AcDbLine
 10
27.25
 20
-3.6
 30
0.0
 11
30.5
 21
-3.6
 31
0.0
  0
LINE
  5
18E
330
24
100
AcDbEntity
  8
0
  6
Continuous
 62
     4
100
AcDbLine
 10
25.75
 20
-1.0
 30
0.0
 11
30.5
 21
-1.0
 31
0.0
  0
LINE
  5
18F
330
24
100
AcDbEntity
  8
0
  6
Continuous
 62
     4
100
AcDbLine
 10
22.0
 20
-3.6
 30
0.0
 11
25.75
 21
-3.6
 31
0.0
  0
LINE
  5
190
330
24
100
AcDbEntity
  8
0
  6
Continuous
 62
     4
100
AcDbLine
 10
22.0
 20
-1.0
 30
0.0
 11
24.25
 21
-1.0
 31
0.0
  0
LINE
  5
191
330
24
100
AcDbEntity
  8
0
  6
Continuous
 62
     4
100
AcDbLine
 10
0.0
 20
-0.45
 30
0.0
 11
22.0
 21
-0.45
 31
0.0
  0
LINE
  5
192
330
24
100
AcDbEntity
  8
0
  6
Continuous
 62
     4
100
AcDbLine
 10
0.0
 20
-1.0
 30
0.0
 11
22.0
 21
-1.0
 31
0.0
  0
LINE
  5
193
330
24
100
AcDbEntity
  8
0
  6
Continuous
 62
     4
100
AcDbLine
 10
0.75
 20
0.5
 30
0.0
 11
3.25
 21
0.5
 31
0.0
  0
LINE
  5
194
330
24
100
AcDbEntity
  8
0
  6
Continuous
 62
     4
100
AcDbLine
 10
3.25
 20
0.5
 30
0.0
 11
3.25
 21
0.0
 31
0.0
  0
LINE
  5
195
330
24
100
AcDbEntity
  8
0
  6
Continuous
 62
   200
100
AcDbLine
 10
3.02
 20
0.5
 30
0.0
 11
3.02
 21
0.0
 31
0.0
  0
LINE
  5
196
330
24
100
AcDbEntity
  8
0
  6
Continuous
 62
   200
100
AcDbLine
 10
0.9699999999999999
 20
0.5
 30
0.0
 11
0.9699999999999999
 21
0.0
 31
0.0
  0
LINE
  5
197
330
24
100
AcDbEntity
  8
0
  6
Continuous
 62
     4
100
AcDbLine
 10
0.75
 20
0.5
 30
0.0
 11
0.75
 21
0.0
 31
0.0
  0
LINE
  5
198
330
24
100
AcDbEntity
  8
0
  6
Continuous
 62
     4
100
AcDbLine
 10
0.75
 20
-3.77
 30
0.0
 11
3.25
 21
-3.77
 31
0.0
  0
LINE
  5
199
330
24
100
AcDbEntity
  8
0
  6
Continuous
 62
     4
100
AcDbLine
 10
3.25
 20
-2.589999999999999
 30
0.0
 11
3.25
 21
-3.77
 31
0.0
  0
LINE
  5
19A
330
24
100
AcDbEntity
  8
0
  6
Continuous
 62
   200
100
AcDbLine
 10
3.02
 20
-2.589999999999999
 30
0.0
 11
3.02
 21
-4.0
 31
0.0
  0
LINE
  5
19B
330
24
100
AcDbEntity
  8
0
  6
Continuous
 62
   200
100
AcDbLine
 10
0.9699999999999999
 20
-2.589999999999999
 30
0.0
 11
0.9699999999999999
 21
-4.0
 31
0.0
  0
LINE
  5
19C
330
24
100
AcDbEntity
  8
0
  6
Continuous
 62
     4
100
AcDbLine
 10
0.75
 20
-2.589999999999999
 30
0.0
 11
0.75
 21
-3.77
 31
0.0
  0
LINE
  5
19D
330
24
100
AcDbEntity
  8
0
  6
Continuous
 62
     4
100
AcDbLine
 10
0.9699999999999999
 20
-4.0
 30
0.0
 11
0.75
 21
-3.77
 31
0.0
  0
LINE
  5
19E
330
24
100
AcDbEntity
  8
0
  6
Continuous
 62
     4
100
AcDbLine
 10
3.02
 20
-4.0
 30
0.0
 11
3.25
 21
-3.77
 31
0.0
  0
LINE
  5
19F
330
24
100
AcDbEntity
  8
0
  6
Continuous
 62
     4
100
AcDbLine
 10
0.9699999999999999
 20
-4.0
 30
0.0
 11
3.02
 21
-4.0
 31
0.0
  0
LINE
  5
1A0
330
24
100
AcDbEntity
  8
0
  6
Continuous
 62
   200
100
AcDbLine
 10
23.75
 20
-0.13
 30
0.0
 11
26.25
 21
-4.459999999999999
 31
0.0
  0
LINE
  5
1A1
330
24
100
AcDbEntity
  8
0
  6
Continuous
 62
   200
100
AcDbLine
 10
25.25
 20
-0.13
 30
0.0
 11
27.75
 21
-4.459999999999999
 31
0.0
  0
LINE
  5
1A2
330
24
100
AcDbEntity
  8
0
  6
Continuous
 62
   200
100
AcDbLine
 10
32.73
 20
-0.13
 30
0.0
 11
35.23
 21
-4.459999999999999
 31
0.0
  0
LINE
  5
1A3
330
24
100
AcDbEntity
  8
0
  6
CENTER
 62
   200
100
AcDbLine
 10
20.68
 20
-2.299999999999999
 30
0.0
 11
30.5
 21
-2.299999999999999
 31
0.0
  0
LINE
  5
1A4
330
24
100
AcDbEntity
  8
0
  6
Continuous
 62
   200
100
AcDbLine
 10
34.23
 20
-0.13
 30
0.0
 11
36.73
 21
-4.459999999999999
 31
0.0
  0
LINE
  5
1A5
330
24
100
AcDbEntity
  8
0
  6
Continuous
 62
     4
100
AcDbLine
 10
37.5
 20
-3.0
 30
0.0
 11
40.49999999999999
 21
-3.0
 31
0.0
  0
LINE
  5
1A6
330
24
100
AcDbEntity
  8
0
  6
Continuous
 62
     4
100
AcDbLine
 10
37.5
 20
-2.5
 30
0.0
 11
40.49999999999999
 21
-2.5
 31
0.0
  0
LINE
  5
1A7
330
24
100
AcDbEntity
  8
0
  6
Continuous
 62
     4
100
AcDbLine
 10
37.5
 20
-2.1
 30
0.0
 11
40.49999999999999
 21
-2.1
 31
0.0
  0
LINE
  5
1A8
330
24
100
AcDbEntity
  8
0
  6
Continuous
 62
     4
100
AcDbLine
 10
37.5
 20
-1.6
 30
0.0
 11
40.49999999999999
 21
-1.6
 31
0.0
  0
LINE
  5
1A9
330
24
100
AcDbEntity
  8
0
  6
Continuous
 62
     4
100
AcDbLine
 10
34.96
 20
-1.399999999999999
 30
0.0
 11
37.5
 21
-1.399999999999999
 31
0.0
  0
LINE
  5
1AA
330
24
100
AcDbEntity
  8
0
  6
Continuous
 62
     4
100
AcDbLine
 10
30.5
 20
-1.399999999999999
 30
0.0
 11
33.46
 21
-1.399999999999999
 31
0.0
  0
LINE
  5
1AB
330
24
100
AcDbEntity
  8
0
  6
Continuous
 62
     4
100
AcDbLine
 10
36.0
 20
-3.2
 30
0.0
 11
37.5
 21
-3.2
 31
0.0
  0
LINE
  5
1AC
330
24
100
AcDbEntity
  8
0
  6
Continuous
 62
     4
100
AcDbLine
 10
35.48
 20
-2.299999999999999
 30
0.0
 11
37.5
 21
-2.299999999999999
 31
0.0
  0
LINE
  5
1AD
330
24
100
AcDbEntity
  8
0
  6
Continuous
 62
     4
100
AcDbLine
 10
30.5
 20
-2.299999999999999
 30
0.0
 11
33.98
 21
-2.299999999999999
 31
0.0
  0
LINE
  5
1AE
330
24
100
AcDbEntity
  8
0
  6
Continuous
 62
     4
100
AcDbLine
 10
30.5
 20
-3.2
 30
0.0
 11
34.5
 21
-3.2
 31
0.0
  0
LINE
  5
1AF
330
24
100
AcDbEntity
  8
0
  6
Continuous
 62
     4
100
AcDbLine
 10
37.5
 20
-1.399999999999999
 30
0.0
 11
37.5
 21
-3.2
 31
0.0
  0
LINE
  5
1B0
330
24
100
AcDbEntity
  8
0
  6
Continuous
 62
     4
100
AcDbLine
 10
40.49999999999999
 20
-2.5
 30
0.0
 11
40.49999999999999
 21
-3.0
 31
0.0
  0
LINE
  5
1B1
330
24
100
AcDbEntity
  8
0
  6
Continuous
 62
     4
100
AcDbLine
 10
40.49999999999999
 20
-1.6
 30
0.0
 11
40.49999999999999
 21
-2.1
 31
0.0
  0
LINE
  5
1B2
330
24
100
AcDbEntity
  8
0
  6
CENTER
 62
   200
100
AcDbLine
 10
28.82
 20
-2.75
 30
0.0
 11
40.75
 21
-2.75
 31
0.0
  0
LINE
  5
1B3
330
24
100
AcDbEntity
  8
0
  6
CENTER
 62
   200
100
AcDbLine
 10
28.77
 20
-1.85
 30
0.0
 11
40.7
 21
-1.85
 31
0.0
  0
LINE
  5
1B4
330
24
100
AcDbEntity
  8
0
  6
Continuous
 62
     4
100
AcDbLine
 10
30.5
 20
-1.0
 30
0.0
 11
30.5
 21
-3.6
 31
0.0
  0
LINE
  5
1B5
330
24
100
AcDbEntity
  8
0
  6
Continuous
 62
     4
100
AcDbLine
 10
4.25
 20
-3.04
 30
0.0
 11
4.7
 21
-3.04
 31
0.0
  0
LINE
  5
1B6
330
24
100
AcDbEntity
  8
0
  6
Continuous
 62
     4
100
AcDbLine
 10
4.2
 20
-3.799999999999999
 30
0.0
 11
4.7
 21
-3.799999999999999
 31
0.0
  0
LINE
  5
1B7
330
24
100
AcDbEntity
  8
0
  6
Continuous
 62
     4
100
AcDbLine
 10
4.2
 20
-1.8
 30
0.0
 11
4.2
 21
-3.799999999999999
 31
0.0
  0
LINE
  5
1B8
330
24
100
AcDbEntity
  8
0
  6
Continuous
 62
     4
100
AcDbLine
 10
0.0
 20
-2.6
 30
0.0
 11
4.0
 21
-2.6
 31
0.0
  0
LINE
  5
1B9
330
24
100
AcDbEntity
  8
0
  6
Continuous
 62
     4
100
AcDbLine
 10
0.0
 20
-1.8
 30
0.0
 11
0.0
 21
-2.6
 31
0.0
  0
LINE
  5
1BA
330
24
100
AcDbEntity
  8
0
  6
Continuous
 62
     4
100
AcDbLine
 10
4.0
 20
-1.8
 30
0.0
 11
4.0
 21
-2.6
 31
0.0
  0
LINE
  5
1BB
330
24
100
AcDbEntity
  8
0
  6
Continuous
 62
     4
100
AcDbLine
 10
4.25
 20
-1.8
 30
0.0
 11
4.25
 21
-3.04
 31
0.0
  0
LINE
  5
1BC
330
24
100
AcDbEntity
  8
0
  6
CENTER
 62
   200
100
AcDbLine
 10
2.0
 20
0.8
 30
0.0
 11
2.0
 21
-5.429999999999999
 31
0.0
  0
LINE
  5
1BD
330
24
100
AcDbEntity
  8
0
  6
Continuous
 62
     4
100
AcDbLine
 10
0.0
 20
-1.8
 30
0.0
 11
4.25
 21
-1.8
 31
0.0
  0
LINE
  5
1BE
330
24
100
AcDbEntity
  8
0
  6
Continuous
 62
     4
100
AcDbLine
 10
4.7
 20
-3.04
 30
0.0
 11
4.7
 21
-4.599999999999999
 31
0.0
  0
LINE
  5
1BF
330
24
100
AcDbEntity
  8
0
  6
Continuous
 62
     4
100
AcDbLine
 10
0.0
 20
-1.8
 30
0.0
 11
0.0
 21
0.0
 31
0.0
  0
LINE
  5
1C0
330
24
100
AcDbEntity
  8
0
  6
Continuous
 62
     4
100
AcDbLine
 10
22.0
 20
0.0
 30
0.0
 11
22.0
 21
-4.599999999999999
 31
0.0
  0
LINE
  5
1C1
330
24
100
AcDbEntity
  8
0
  6
Continuous
 62
     4
100
AcDbLine
 10
4.7
 20
-4.599999999999999
 30
0.0
 11
22.0
 21
-4.599999999999999
 31
0.0
  0
LINE
  5
1C2
330
24
100
AcDbEntity
  8
0
  6
Continuous
 62
     4
100
AcDbLine
 10
0.0
 20
0.0
 30
0.0
 11
22.0
 21
0.0
 31
0.0
  0
ENDBLK
  5
1C3
330
24
100
AcDbEntity
  8
0
100
AcDbBlockEnd
  0
BLOCK
  5
1C4
330
25
100
AcDbEntity
  8
0
100
AcDbBlockBegin
  2
CTA25-8
 70
     0
 10
0.0
 20
0.0
 30
0.0
  3
CTA25-8
  1

  0
ARC
  5
1C5
330
25
100
AcDbEntity
  8
0
  6
Continuous
 62
     4
100
AcDbCircle
 10
-0.0000022888196369
 20
-2.549997711180362
 30
0.0
 40
2.050002288820914
100
AcDbArc
 50
270.0000639705165
 51
359.9999360294835
  0
ARC
  5
1C6
330
25
100
AcDbEntity
  8
0
  6
Continuous
 62
     4
100
AcDbCircle
 10
0.0000022888196369
 20
-2.549997711180362
 30
0.0
 40
2.050002288820914
100
AcDbArc
 50
180.0000639705165
 51
269.9999360294835
  0
LINE
  5
1C7
330
25
100
AcDbEntity
  8
0
  6
Continuous
 62
     4
100
AcDbLine
 10
-1.25
 20
0.5
 30
0.0
 11
1.25
 21
0.5
 31
0.0
  0
LINE
  5
1C8
330
25
100
AcDbEntity
  8
0
  6
Continuous
 62
     4
100
AcDbLine
 10
1.25
 20
0.5
 30
0.0
 11
1.25
 21
0.0
 31
0.0
  0
LINE
  5
1C9
330
25
100
AcDbEntity
  8
0
  6
Continuous
 62
   200
100
AcDbLine
 10
1.02
 20
0.5
 30
0.0
 11
1.02
 21
0.0
 31
0.0
  0
LINE
  5
1CA
330
25
100
AcDbEntity
  8
0
  6
Continuous
 62
   200
100
AcDbLine
 10
-1.02
 20
0.5
 30
0.0
 11
-1.02
 21
0.0
 31
0.0
  0
LINE
  5
1CB
330
25
100
AcDbEntity
  8
0
  6
Continuous
 62
     4
100
AcDbLine
 10
-1.25
 20
0.5
 30
0.0
 11
-1.25
 21
0.0
 31
0.0
  0
LINE
  5
1CC
330
25
100
AcDbEntity
  8
0
  6
Continuous
 62
     4
100
AcDbLine
 10
-1.25
 20
-3.77
 30
0.0
 11
1.25
 21
-3.77
 31
0.0
  0
LINE
  5
1CD
330
25
100
AcDbEntity
  8
0
  6
Continuous
 62
     4
100
AcDbLine
 10
1.25
 20
-2.589999999999999
 30
0.0
 11
1.25
 21
-3.77
 31
0.0
  0
LINE
  5
1CE
330
25
100
AcDbEntity
  8
0
  6
Continuous
 62
   200
100
AcDbLine
 10
1.02
 20
-2.589999999999999
 30
0.0
 11
1.02
 21
-4.0
 31
0.0
  0
LINE
  5
1CF
330
25
100
AcDbEntity
  8
0
  6
Continuous
 62
   200
100
AcDbLine
 10
-1.02
 20
-2.589999999999999
 30
0.0
 11
-1.02
 21
-4.0
 31
0.0
  0
LINE
  5
1D0
330
25
100
AcDbEntity
  8
0
  6
Continuous
 62
     4
100
AcDbLine
 10
-1.25
 20
-2.589999999999999
 30
0.0
 11
-1.25
 21
-3.77
 31
0.0
  0
LINE
  5
1D1
330
25
100
AcDbEntity
  8
0
  6
Continuous
 62
     4
100
AcDbLine
 10
-1.02
 20
-4.0
 30
0.0
 11
-1.25
 21
-3.77
 31
0.0
  0
LINE
  5
1D2
330
25
100
AcDbEntity
  8
0
  6
Continuous
 62
     4
100
AcDbLine
 10
1.02
 20
-4.0
 30
0.0
 11
1.25
 21
-3.77
 31
0.0
  0
LINE
  5
1D3
330
25
100
AcDbEntity
  8
0
  6
Continuous
 62
     4
100
AcDbLine
 10
-1.02
 20
-4.0
 30
0.0
 11
1.02
 21
-4.0
 31
0.0
  0
LINE
  5
1D4
330
25
100
AcDbEntity
  8
0
  6
Continuous
 62
     4
100
AcDbLine
 10
-2.049999999999999
 20
-2.589999999999999
 30
0.0
 11
2.049999999999999
 21
-2.589999999999999
 31
0.0
  0
LINE
  5
1D5
330
25
100
AcDbEntity
  8
0
  6
Continuous
 62
     4
100
AcDbLine
 10
-2.049999999999999
 20
-1.8
 30
0.0
 11
2.049999999999999
 21
-1.8
 31
0.0
  0
LINE
  5
1D6
330
25
100
AcDbEntity
  8
0
  6
Continuous
 62
     4
100
AcDbLine
 10
2.049999999999999
 20
-1.0
 30
0.0
 11
2.049999999999999
 21
-2.549999999999999
 31
0.0
  0
LINE
  5
1D7
330
25
100
AcDbEntity
  8
0
  6
Continuous
 62
     4
100
AcDbLine
 10
2.049999999999999
 20
-1.0
 30
0.0
 11
1.5
 21
-0.45
 31
0.0
  0
LINE
  5
1D8
330
25
100
AcDbEntity
  8
0
  6
Continuous
 62
     4
100
AcDbLine
 10
1.5
 20
0.0
 30
0.0
 11
1.5
 21
-0.45
 31
0.0
  0
LINE
  5
1D9
330
25
100
AcDbEntity
  8
0
  6
Continuous
 62
     4
100
AcDbLine
 10
-1.5
 20
0.0
 30
0.0
 11
1.5
 21
0.0
 31
0.0
  0
LINE
  5
1DA
330
25
100
AcDbEntity
  8
0
  6
Continuous
 62
     4
100
AcDbLine
 10
-1.5
 20
0.0
 30
0.0
 11
-1.5
 21
-0.45
 31
0.0
  0
LINE
  5
1DB
330
25
100
AcDbEntity
  8
0
  6
Continuous
 62
     4
100
AcDbLine
 10
-2.049999999999999
 20
-1.0
 30
0.0
 11
-1.5
 21
-0.45
 31
0.0
  0
LINE
  5
1DC
330
25
100
AcDbEntity
  8
0
  6
Continuous
 62
     4
100
AcDbLine
 10
-2.049999999999999
 20
-1.0
 30
0.0
 11
-2.049999999999999
 21
-2.549999999999999
 31
0.0
  0
LINE
  5
1DD
330
25
100
AcDbEntity
  8
0
  6
CENTER
 62
   200
100
AcDbLine
 10
0.0
 20
2.049999999999999
 30
0.0
 11
0.0
 21
-6.66
 31
0.0
  0
ENDBLK
  5
1DE
330
25
100
AcDbEntity
  8
0
100
AcDbBlockEnd
  0
BLOCK
  5
1DF
330
26
100
AcDbEntity
  8
0
100
AcDbBlockBegin
  2
CTA25-9
 70
     0
 10
0.0
 20
0.0
 30
0.0
  3
CTA25-9
  1

  0
CIRCLE
  5
1E0
330
26
100
AcDbEntity
  8
0
  6
Continuous
 62
     4
100
AcDbCircle
 10
2.000015258789062
 20
0.0
 30
0.0
 40
1.399999618530273
  0
CIRCLE
  5
1E1
330
26
100
AcDbEntity
  8
0
  6
Continuous
 62
     4
100
AcDbCircle
 10
2.000015258789062
 20
0.0
 30
0.0
 40
1.25
  0
LINE
  5
1E2
330
26
100
AcDbEntity
  8
0
  6
Continuous
 62
     4
100
AcDbLine
 10
22.0
 20
-1.3
 30
0.0
 11
25.09
 21
-1.3
 31
0.0
  0
LINE
  5
1E3
330
26
100
AcDbEntity
  8
0
  6
Continuous
 62
     4
100
AcDbLine
 10
22.0
 20
1.3
 30
0.0
 11
23.58
 21
1.3
 31
0.0
  0
LINE
  5
1E4
330
26
100
AcDbEntity
  8
0
  6
Continuous
 62
   200
100
AcDbLine
 10
23.08
 20
2.16
 30
0.0
 11
25.58
 21
-2.16
 31
0.0
  0
LINE
  5
1E5
330
26
100
AcDbEntity
  8
0
  6
Continuous
 62
     4
100
AcDbLine
 10
1.3
 20
-1.06
 30
0.0
 11
2.939999999999999
 21
0.5600000000000001
 31
0.0
  0
LINE
  5
1E6
330
26
100
AcDbEntity
  8
0
  6
Continuous
 62
     4
100
AcDbLine
 10
0.95
 20
-0.71
 30
0.0
 11
2.68
 21
1.02
 31
0.0
  0
LINE
  5
1E7
330
26
100
AcDbEntity
  8
0
  6
CENTER
 62
   200
100
AcDbLine
 10
2.0
 20
2.83
 30
0.0
 11
2.0
 21
-2.75
 31
0.0
  0
LINE
  5
1E8
330
26
100
AcDbEntity
  8
0
  6
Continuous
 62
     4
100
AcDbLine
 10
22.0
 20
2.049999999999999
 30
0.0
 11
22.0
 21
-2.049999999999999
 31
0.0
  0
LINE
  5
1E9
330
26
100
AcDbEntity
  8
0
  6
Continuous
 62
     4
100
AcDbLine
 10
0.0
 20
2.049999999999999
 30
0.0
 11
0.0
 21
-2.049999999999999
 31
0.0
  0
LINE
  5
1EA
330
26
100
AcDbEntity
  8
0
  6
Continuous
 62
     4
100
AcDbLine
 10
0.0
 20
2.049999999999999
 30
0.0
 11
22.0
 21
2.049999999999999
 31
0.0
  0
LINE
  5
1EB
330
26
100
AcDbEntity
  8
0
  6
Continuous
 62
     4
100
AcDbLine
 10
0.0
 20
-2.049999999999999
 30
0.0
 11
22.0
 21
-2.049999999999999
 31
0.0
  0
LINE
  5
1EC
330
26
100
AcDbEntity
  8
0
  6
Continuous
 62
     4
100
AcDbLine
 10
0.0
 20
1.5
 30
0.0
 11
22.0
 21
1.5
 31
0.0
  0
LINE
  5
1ED
330
26
100
AcDbEntity
  8
0
  6
Continuous
 62
     4
100
AcDbLine
 10
0.0
 20
-1.5
 30
0.0
 11
22.0
 21
-1.5
 31
0.0
  0
LINE
  5
1EE
330
26
100
AcDbEntity
  8
0
  6
CENTER
 62
   200
100
AcDbLine
 10
-2.799999999999999
 20
0.0
 30
0.0
 11
27.4
 21
0.0
 31
0.0
  0
ENDBLK
  5
1EF
330
26
100
AcDbEntity
  8
0
100
AcDbBlockEnd
  0
BLOCK
  5
1F0
330
27
100
AcDbEntity
  8
0
100
AcDbBlockBegin
  2
CTA25-10
 70
     0
 10
0.0
 20
0.0
 30
0.0
  3
CTA25-10
  1

  0
LINE
  5
1F1
330
27
100
AcDbEntity
  8
0
  6
Continuous
 62
     4
100
AcDbLine
 10
20.7
 20
12.15
 30
0.0
 11
20.7
 21
15.4
 31
0.0
  0
LINE
  5
1F2
330
27
100
AcDbEntity
  8
0
  6
Continuous
 62
     4
100
AcDbLine
 10
18.1
 20
10.65
 30
0.0
 11
18.1
 21
15.4
 31
0.0
  0
LINE
  5
1F3
330
27
100
AcDbEntity
  8
0
  6
Continuous
 62
     4
100
AcDbLine
 10
18.1
 20
6.9
 30
0.0
 11
18.1
 21
9.15
 31
0.0
  0
LINE
  5
1F4
330
27
100
AcDbEntity
  8
0
  6
Continuous
 62
     4
100
AcDbLine
 10
20.7
 20
6.9
 30
0.0
 11
20.7
 21
10.65
 31
0.0
  0
LINE
  5
1F5
330
27
100
AcDbEntity
  8
0
  6
Continuous
 62
     4
100
AcDbLine
 10
0.75
 20
0.5
 30
0.0
 11
3.25
 21
0.5
 31
0.0
  0
LINE
  5
1F6
330
27
100
AcDbEntity
  8
0
  6
Continuous
 62
     4
100
AcDbLine
 10
3.25
 20
0.5
 30
0.0
 11
3.25
 21
0.0
 31
0.0
  0
LINE
  5
1F7
330
27
100
AcDbEntity
  8
0
  6
Continuous
 62
   200
100
AcDbLine
 10
3.02
 20
0.5
 30
0.0
 11
3.02
 21
0.0
 31
0.0
  0
LINE
  5
1F8
330
27
100
AcDbEntity
  8
0
  6
Continuous
 62
   200
100
AcDbLine
 10
0.9699999999999999
 20
0.5
 30
0.0
 11
0.9699999999999999
 21
0.0
 31
0.0
  0
LINE
  5
1F9
330
27
100
AcDbEntity
  8
0
  6
Continuous
 62
     4
100
AcDbLine
 10
0.75
 20
0.5
 30
0.0
 11
0.75
 21
0.0
 31
0.0
  0
LINE
  5
1FA
330
27
100
AcDbEntity
  8
0
  6
Continuous
 62
     4
100
AcDbLine
 10
0.75
 20
-3.77
 30
0.0
 11
3.25
 21
-3.77
 31
0.0
  0
LINE
  5
1FB
330
27
100
AcDbEntity
  8
0
  6
Continuous
 62
     4
100
AcDbLine
 10
3.25
 20
-2.6
 30
0.0
 11
3.25
 21
-3.77
 31
0.0
  0
LINE
  5
1FC
330
27
100
AcDbEntity
  8
0
  6
Continuous
 62
   200
100
AcDbLine
 10
3.02
 20
-2.6
 30
0.0
 11
3.02
 21
-4.0
 31
0.0
  0
LINE
  5
1FD
330
27
100
AcDbEntity
  8
0
  6
Continuous
 62
   200
100
AcDbLine
 10
0.9699999999999999
 20
-2.6
 30
0.0
 11
0.9699999999999999
 21
-4.0
 31
0.0
  0
LINE
  5
1FE
330
27
100
AcDbEntity
  8
0
  6
Continuous
 62
     4
100
AcDbLine
 10
0.75
 20
-2.6
 30
0.0
 11
0.75
 21
-3.77
 31
0.0
  0
LINE
  5
1FF
330
27
100
AcDbEntity
  8
0
  6
Continuous
 62
     4
100
AcDbLine
 10
0.9699999999999999
 20
-4.0
 30
0.0
 11
0.75
 21
-3.77
 31
0.0
  0
LINE
  5
200
330
27
100
AcDbEntity
  8
0
  6
Continuous
 62
     4
100
AcDbLine
 10
3.02
 20
-4.0
 30
0.0
 11
3.25
 21
-3.77
 31
0.0
  0
LINE
  5
201
330
27
100
AcDbEntity
  8
0
  6
Continuous
 62
     4
100
AcDbLine
 10
0.9699999999999999
 20
-4.0
 30
0.0
 11
3.02
 21
-4.0
 31
0.0
  0
LINE
  5
202
330
27
100
AcDbEntity
  8
0
  6
Continuous
 62
   200
100
AcDbLine
 10
17.24
 20
8.65
 30
0.0
 11
21.57
 21
11.15
 31
0.0
  0
LINE
  5
203
330
27
100
AcDbEntity
  8
0
  6
Continuous
 62
   200
100
AcDbLine
 10
17.24
 20
10.15
 30
0.0
 11
21.57
 21
12.65
 31
0.0
  0
LINE
  5
204
330
27
100
AcDbEntity
  8
0
  6
Continuous
 62
   200
100
AcDbLine
 10
17.24
 20
17.63
 30
0.0
 11
21.57
 21
20.13
 31
0.0
  0
LINE
  5
205
330
27
100
AcDbEntity
  8
0
  6
CENTER
 62
   200
100
AcDbLine
 10
19.4
 20
5.58
 30
0.0
 11
19.4
 21
15.4
 31
0.0
  0
LINE
  5
206
330
27
100
AcDbEntity
  8
0
  6
Continuous
 62
   200
100
AcDbLine
 10
17.24
 20
19.13
 30
0.0
 11
21.57
 21
21.63
 31
0.0
  0
LINE
  5
207
330
27
100
AcDbEntity
  8
0
  6
Continuous
 62
     4
100
AcDbLine
 10
20.1
 20
22.4
 30
0.0
 11
20.1
 21
25.4
 31
0.0
  0
LINE
  5
208
330
27
100
AcDbEntity
  8
0
  6
Continuous
 62
     4
100
AcDbLine
 10
19.6
 20
22.4
 30
0.0
 11
19.6
 21
25.4
 31
0.0
  0
LINE
  5
209
330
27
100
AcDbEntity
  8
0
  6
Continuous
 62
     4
100
AcDbLine
 10
19.2
 20
22.4
 30
0.0
 11
19.2
 21
25.4
 31
0.0
  0
LINE
  5
20A
330
27
100
AcDbEntity
  8
0
  6
Continuous
 62
     4
100
AcDbLine
 10
18.7
 20
22.4
 30
0.0
 11
18.7
 21
25.4
 31
0.0
  0
LINE
  5
20B
330
27
100
AcDbEntity
  8
0
  6
Continuous
 62
     4
100
AcDbLine
 10
18.5
 20
19.86
 30
0.0
 11
18.5
 21
22.4
 31
0.0
  0
LINE
  5
20C
330
27
100
AcDbEntity
  8
0
  6
Continuous
 62
     4
100
AcDbLine
 10
18.5
 20
15.4
 30
0.0
 11
18.5
 21
18.36
 31
0.0
  0
LINE
  5
20D
330
27
100
AcDbEntity
  8
0
  6
Continuous
 62
     4
100
AcDbLine
 10
20.3
 20
20.9
 30
0.0
 11
20.3
 21
22.4
 31
0.0
  0
LINE
  5
20E
330
27
100
AcDbEntity
  8
0
  6
Continuous
 62
     4
100
AcDbLine
 10
19.4
 20
20.38
 30
0.0
 11
19.4
 21
22.4
 31
0.0
  0
LINE
  5
20F
330
27
100
AcDbEntity
  8
0
  6
Continuous
 62
     4
100
AcDbLine
 10
19.4
 20
15.4
 30
0.0
 11
19.4
 21
18.88
 31
0.0
  0
LINE
  5
210
330
27
100
AcDbEntity
  8
0
  6
Continuous
 62
     4
100
AcDbLine
 10
20.3
 20
15.4
 30
0.0
 11
20.3
 21
19.4
 31
0.0
  0
LINE
  5
211
330
27
100
AcDbEntity
  8
0
  6
Continuous
 62
     4
100
AcDbLine
 10
18.5
 20
22.4
 30
0.0
 11
20.3
 21
22.4
 31
0.0
  0
LINE
  5
212
330
27
100
AcDbEntity
  8
0
  6
Continuous
 62
     4
100
AcDbLine
 10
19.6
 20
25.4
 30
0.0
 11
20.1
 21
25.4
 31
0.0
  0
LINE
  5
213
330
27
100
AcDbEntity
  8
0
  6
Continuous
 62
     4
100
AcDbLine
 10
18.7
 20
25.4
 30
0.0
 11
19.2
 21
25.4
 31
0.0
  0
LINE
  5
214
330
27
100
AcDbEntity
  8
0
  6
CENTER
 62
   200
100
AcDbLine
 10
19.85
 20
13.72
 30
0.0
 11
19.85
 21
25.65
 31
0.0
  0
LINE
  5
215
330
27
100
AcDbEntity
  8
0
  6
CENTER
 62
   200
100
AcDbLine
 10
18.95
 20
13.67
 30
0.0
 11
18.95
 21
25.6
 31
0.0
  0
LINE
  5
216
330
27
100
AcDbEntity
  8
0
  6
Continuous
 62
     4
100
AcDbLine
 10
18.1
 20
15.4
 30
0.0
 11
20.7
 21
15.4
 31
0.0
  0
LINE
  5
217
330
27
100
AcDbEntity
  8
0
  6
Continuous
 62
     4
100
AcDbLine
 10
16.1
 20
5.4
 30
0.0
 11
22.0
 21
5.4
 31
0.0
  0
LINE
  5
218
330
27
100
AcDbEntity
  8
0
  6
Continuous
 62
     4
100
AcDbLine
 10
16.1
 20
0.4
 30
0.0
 11
22.0
 21
0.4
 31
0.0
  0
LINE
  5
219
330
27
100
AcDbEntity
  8
0
  6
Continuous
 62
     4
100
AcDbLine
 10
16.1
 20
1.149999999999999
 30
0.0
 11
22.0
 21
1.149999999999999
 31
0.0
  0
LINE
  5
21A
330
27
100
AcDbEntity
  8
0
  6
Continuous
 62
     4
100
AcDbLine
 10
0.0
 20
-0.45
 30
0.0
 11
22.0
 21
-0.45
 31
0.0
  0
LINE
  5
21B
330
27
100
AcDbEntity
  8
0
  6
Continuous
 62
     4
100
AcDbLine
 10
0.0
 20
-1.0
 30
0.0
 11
22.0
 21
-1.0
 31
0.0
  0
LINE
  5
21C
330
27
100
AcDbEntity
  8
0
  6
Continuous
 62
     4
100
AcDbLine
 10
4.269999999999999
 20
-1.8
 30
0.0
 11
4.269999999999999
 21
-2.98
 31
0.0
  0
LINE
  5
21D
330
27
100
AcDbEntity
  8
0
  6
Continuous
 62
     4
100
AcDbLine
 10
4.269999999999999
 20
-2.98
 30
0.0
 11
4.7
 21
-2.98
 31
0.0
  0
LINE
  5
21E
330
27
100
AcDbEntity
  8
0
  6
Continuous
 62
     4
100
AcDbLine
 10
4.2
 20
-1.8
 30
0.0
 11
4.2
 21
-3.799999999999999
 31
0.0
  0
LINE
  5
21F
330
27
100
AcDbEntity
  8
0
  6
Continuous
 62
     4
100
AcDbLine
 10
4.2
 20
-3.799999999999999
 30
0.0
 11
4.7
 21
-3.799999999999999
 31
0.0
  0
LINE
  5
220
330
27
100
AcDbEntity
  8
0
  6
Continuous
 62
     4
100
AcDbLine
 10
16.1
 20
6.9
 30
0.0
 11
22.0
 21
6.9
 31
0.0
  0
LINE
  5
221
330
27
100
AcDbEntity
  8
0
  6
Continuous
 62
     4
100
AcDbLine
 10
4.0
 20
-1.8
 30
0.0
 11
4.0
 21
-2.6
 31
0.0
  0
LINE
  5
222
330
27
100
AcDbEntity
  8
0
  6
Continuous
 62
     4
100
AcDbLine
 10
0.0
 20
-2.6
 30
0.0
 11
4.0
 21
-2.6
 31
0.0
  0
LINE
  5
223
330
27
100
AcDbEntity
  8
0
  6
Continuous
 62
     4
100
AcDbLine
 10
0.0
 20
-1.8
 30
0.0
 11
4.269999999999999
 21
-1.8
 31
0.0
  0
LINE
  5
224
330
27
100
AcDbEntity
  8
0
  6
Continuous
 62
     4
100
AcDbLine
 10
16.1
 20
6.9
 30
0.0
 11
16.1
 21
0.0
 31
0.0
  0
LINE
  5
225
330
27
100
AcDbEntity
  8
0
  6
CENTER
 62
   200
100
AcDbLine
 10
2.0
 20
0.73
 30
0.0
 11
2.0
 21
-5.169999999999999
 31
0.0
  0
LINE
  5
226
330
27
100
AcDbEntity
  8
0
  6
Continuous
 62
     4
100
AcDbLine
 10
4.7
 20
-2.98
 30
0.0
 11
4.7
 21
-4.599999999999999
 31
0.0
  0
LINE
  5
227
330
27
100
AcDbEntity
  8
0
  6
Continuous
 62
     4
100
AcDbLine
 10
0.0
 20
-2.6
 30
0.0
 11
0.0
 21
0.0
 31
0.0
  0
LINE
  5
228
330
27
100
AcDbEntity
  8
0
  6
Continuous
 62
     4
100
AcDbLine
 10
22.0
 20
6.9
 30
0.0
 11
22.0
 21
-4.599999999999999
 31
0.0
  0
LINE
  5
229
330
27
100
AcDbEntity
  8
0
  6
Continuous
 62
     4
100
AcDbLine
 10
4.7
 20
-4.599999999999999
 30
0.0
 11
22.0
 21
-4.599999999999999
 31
0.0
  0
LINE
  5
22A
330
27
100
AcDbEntity
  8
0
  6
Continuous
 62
     4
100
AcDbLine
 10
0.0
 20
0.0
 30
0.0
 11
16.1
 21
0.0
 31
0.0
  0
ENDBLK
  5
22B
330
27
100
AcDbEntity
  8
0
100
AcDbBlockEnd
  0
BLOCK
  5
22C
330
28
100
AcDbEntity
  8
0
100
AcDbBlockBegin
  2
CTA25-11
 70
     0
 10
0.0
 20
0.0
 30
0.0
  3
CTA25-11
  1

  0
ARC
  5
22D
330
28
100
AcDbEntity
  8
0
  6
Continuous
 62
     4
100
AcDbCircle
 10
0.0
 20
-2.55
 30
0.0
 40
2.049999999999999
100
AcDbArc
 50
180.0
 51
0.0
  0
LINE
  5
22E
330
28
100
AcDbEntity
  8
0
  6
Continuous
 62
     4
100
AcDbLine
 10
1.3
 20
10.65231481481482
 30
0.0
 11
1.3
 21
6.9
 31
0.0
  0
LINE
  5
22F
330
28
100
AcDbEntity
  8
0
  6
Continuous
 62
     4
100
AcDbLine
 10
-1.3
 20
9.147685185185183
 30
0.0
 11
-1.3
 21
6.9
 31
0.0
  0
LINE
  5
230
330
28
100
AcDbEntity
  8
0
  6
Continuous
 62
     4
100
AcDbLine
 10
-1.25
 20
0.5
 30
0.0
 11
1.25
 21
0.5
 31
0.0
  0
LINE
  5
231
330
28
100
AcDbEntity
  8
0
  6
Continuous
 62
     4
100
AcDbLine
 10
1.25
 20
0.5
 30
0.0
 11
1.25
 21
0.0
 31
0.0
  0
LINE
  5
232
330
28
100
AcDbEntity
  8
0
  6
Continuous
 62
   200
100
AcDbLine
 10
1.02
 20
0.5
 30
0.0
 11
1.02
 21
0.0
 31
0.0
  0
LINE
  5
233
330
28
100
AcDbEntity
  8
0
  6
Continuous
 62
   200
100
AcDbLine
 10
-1.02
 20
0.5
 30
0.0
 11
-1.02
 21
0.0
 31
0.0
  0
LINE
  5
234
330
28
100
AcDbEntity
  8
0
  6
Continuous
 62
     4
100
AcDbLine
 10
-1.25
 20
0.5
 30
0.0
 11
-1.25
 21
0.0
 31
0.0
  0
LINE
  5
235
330
28
100
AcDbEntity
  8
0
  6
Continuous
 62
     4
100
AcDbLine
 10
-1.25
 20
-3.77
 30
0.0
 11
1.25
 21
-3.77
 31
0.0
  0
LINE
  5
236
330
28
100
AcDbEntity
  8
0
  6
Continuous
 62
     4
100
AcDbLine
 10
1.25
 20
-2.6
 30
0.0
 11
1.25
 21
-3.77
 31
0.0
  0
LINE
  5
237
330
28
100
AcDbEntity
  8
0
  6
Continuous
 62
   200
100
AcDbLine
 10
1.02
 20
-2.6
 30
0.0
 11
1.02
 21
-4.0
 31
0.0
  0
LINE
  5
238
330
28
100
AcDbEntity
  8
0
  6
Continuous
 62
   200
100
AcDbLine
 10
-1.02
 20
-2.6
 30
0.0
 11
-1.02
 21
-4.0
 31
0.0
  0
LINE
  5
239
330
28
100
AcDbEntity
  8
0
  6
Continuous
 62
     4
100
AcDbLine
 10
-1.25
 20
-2.6
 30
0.0
 11
-1.25
 21
-3.77
 31
0.0
  0
LINE
  5
23A
330
28
100
AcDbEntity
  8
0
  6
Continuous
 62
     4
100
AcDbLine
 10
-1.02
 20
-4.0
 30
0.0
 11
-1.25
 21
-3.77
 31
0.0
  0
LINE
  5
23B
330
28
100
AcDbEntity
  8
0
  6
Continuous
 62
     4
100
AcDbLine
 10
1.02
 20
-4.0
 30
0.0
 11
1.25
 21
-3.77
 31
0.0
  0
LINE
  5
23C
330
28
100
AcDbEntity
  8
0
  6
Continuous
 62
     4
100
AcDbLine
 10
-1.02
 20
-4.0
 30
0.0
 11
1.02
 21
-4.0
 31
0.0
  0
LINE
  5
23D
330
28
100
AcDbEntity
  8
0
  6
Continuous
 62
   200
100
AcDbLine
 10
-2.16
 20
8.65
 30
0.0
 11
2.16
 21
11.15
 31
0.0
  0
LINE
  5
23E
330
28
100
AcDbEntity
  8
0
  6
Continuous
 62
     4
100
AcDbLine
 10
-2.25
 20
6.9
 30
0.0
 11
2.25
 21
6.9
 31
0.0
  0
LINE
  5
23F
330
28
100
AcDbEntity
  8
0
  6
Continuous
 62
     4
100
AcDbLine
 10
-2.049390153191918
 20
-2.6
 30
0.0
 11
2.049390153191919
 21
-2.6
 31
0.0
  0
LINE
  5
240
330
28
100
AcDbEntity
  8
0
  6
Continuous
 62
     4
100
AcDbLine
 10
-2.049999999999999
 20
-1.8
 30
0.0
 11
2.049999999999999
 21
-1.8
 31
0.0
  0
LINE
  5
241
330
28
100
AcDbEntity
  8
0
  6
Continuous
 62
     4
100
AcDbLine
 10
-1.5
 20
0.0
 30
0.0
 11
1.5
 21
0.0
 31
0.0
  0
LINE
  5
242
330
28
100
AcDbEntity
  8
0
  6
CENTER
 62
   200
100
AcDbLine
 10
0.0
 20
12.56
 30
0.0
 11
0.0
 21
-6.059999999999999
 31
0.0
  0
LINE
  5
243
330
28
100
AcDbEntity
  8
0
  6
Continuous
 62
     4
100
AcDbLine
 10
2.25
 20
6.9
 30
0.0
 11
2.25
 21
1.149999999999999
 31
0.0
  0
LINE
  5
244
330
28
100
AcDbEntity
  8
0
  6
Continuous
 62
     4
100
AcDbLine
 10
1.5
 20
0.4
 30
0.0
 11
2.25
 21
1.149999999999999
 31
0.0
  0
LINE
  5
245
330
28
100
AcDbEntity
  8
0
  6
Continuous
 62
     4
100
AcDbLine
 10
1.5
 20
-0.45
 30
0.0
 11
1.5
 21
0.4
 31
0.0
  0
LINE
  5
246
330
28
100
AcDbEntity
  8
0
  6
Continuous
 62
     4
100
AcDbLine
 10
2.049999999999999
 20
-1.0
 30
0.0
 11
1.5
 21
-0.45
 31
0.0
  0
LINE
  5
247
330
28
100
AcDbEntity
  8
0
  6
Continuous
 62
     4
100
AcDbLine
 10
2.049999999999999
 20
-1.0
 30
0.0
 11
2.049999999999999
 21
-2.549999999999999
 31
0.0
  0
LINE
  5
248
330
28
100
AcDbEntity
  8
0
  6
Continuous
 62
     4
100
AcDbLine
 10
-2.049999999999999
 20
-1.0
 30
0.0
 11
-2.049999999999999
 21
-2.549999999999999
 31
0.0
  0
LINE
  5
249
330
28
100
AcDbEntity
  8
0
  6
Continuous
 62
     4
100
AcDbLine
 10
-2.049999999999999
 20
-1.0
 30
0.0
 11
-1.5
 21
-0.45
 31
0.0
  0
LINE
  5
24A
330
28
100
AcDbEntity
  8
0
  6
Continuous
 62
     4
100
AcDbLine
 10
-1.5
 20
-0.45
 30
0.0
 11
-1.5
 21
0.4
 31
0.0
  0
LINE
  5
24B
330
28
100
AcDbEntity
  8
0
  6
Continuous
 62
     4
100
AcDbLine
 10
-1.5
 20
0.4
 30
0.0
 11
-2.25
 21
1.149999999999999
 31
0.0
  0
LINE
  5
24C
330
28
100
AcDbEntity
  8
0
  6
Continuous
 62
     4
100
AcDbLine
 10
-2.25
 20
6.9
 30
0.0
 11
-2.25
 21
1.149999999999999
 31
0.0
  0
LINE
  5
24D
330
28
100
AcDbEntity
  8
0
  6
Continuous
 62
     4
100
AcDbLine
 10
-2.25
 20
5.4
 30
0.0
 11
2.25
 21
5.4
 31
0.0
  0
ENDBLK
  5
24E
330
28
100
AcDbEntity
  8
0
100
AcDbBlockEnd
  0
BLOCK
  5
24F
330
29
100
AcDbEntity
  8
0
100
AcDbBlockBegin
  2
CTA25-12
 70
     0
 10
0.0
 20
0.0
 30
0.0
  3
CTA25-12
  1

  0
CIRCLE
  5
250
330
29
100
AcDbEntity
  8
0
  6
Continuous
 62
     4
100
AcDbCircle
 10
19.11727905273437
 20
0.3181533813476563
 30
0.0
 40
0.25
  0
CIRCLE
  5
251
330
29
100
AcDbEntity
  8
0
  6
Continuous
 62
     4
100
AcDbCircle
 10
19.72915649414062
 20
-0.34100341796875
 30
0.0
 40
0.25
  0
CIRCLE
  5
252
330
29
100
AcDbEntity
  8
0
  6
Continuous
 62
     4
100
AcDbCircle
 10
19.11727905273437
 20
0.3181533813476563
 30
0.0
 40
0.4499999880790711
  0
CIRCLE
  5
253
330
29
100
AcDbEntity
  8
0
  6
Continuous
 62
     4
100
AcDbCircle
 10
19.72915649414062
 20
-0.34100341796875
 30
0.0
 40
0.4499999880790711
  0
CIRCLE
  5
254
330
29
100
AcDbEntity
  8
0
  6
Continuous
 62
     4
100
AcDbCircle
 10
19.4073486328125
 20
0.0
 30
0.0
 40
1.299999237060546
  0
CIRCLE
  5
255
330
29
100
AcDbEntity
  8
0
  6
Continuous
 62
     4
100
AcDbCircle
 10
2.0
 20
0.0
 30
0.0
 40
1.399999618530273
  0
CIRCLE
  5
256
330
29
100
AcDbEntity
  8
0
  6
Continuous
 62
     4
100
AcDbCircle
 10
2.0
 20
0.0
 30
0.0
 40
1.25
  0
ARC
  5
257
330
29
100
AcDbEntity
  8
0
  6
Continuous
 62
     4
100
AcDbCircle
 10
19.5
 20
0.0
 30
0.0
 40
3.304375886608544
100
AcDbArc
 50
137.0847930405102
 51
222.9152069594897
  0
LINE
  5
258
330
29
100
AcDbEntity
  8
0
  6
Continuous
 62
     4
100
AcDbLine
 10
0.93
 20
-0.6400000000000001
 30
0.0
 11
2.64
 21
1.07
 31
0.0
  0
LINE
  5
259
330
29
100
AcDbEntity
  8
0
  6
Continuous
 62
     4
100
AcDbLine
 10
1.35
 20
-1.07
 30
0.0
 11
3.069999999999999
 21
0.6400000000000001
 31
0.0
  0
LINE
  5
25A
330
29
100
AcDbEntity
  8
0
  6
Continuous
 62
     4
100
AcDbLine
 10
22.0
 20
2.25
 30
0.0
 11
22.0
 21
-2.25
 31
0.0
  0
LINE
  5
25B
330
29
100
AcDbEntity
  8
0
  6
Continuous
 62
     4
100
AcDbLine
 10
17.08
 20
-2.25
 30
0.0
 11
22.0
 21
-2.25
 31
0.0
  0
LINE
  5
25C
330
29
100
AcDbEntity
  8
0
  6
Continuous
 62
     4
100
AcDbLine
 10
17.08
 20
2.25
 30
0.0
 11
22.0
 21
2.25
 31
0.0
  0
LINE
  5
25D
330
29
100
AcDbEntity
  8
0
  6
CENTER
 62
   200
100
AcDbLine
 10
2.0
 20
2.83
 30
0.0
 11
2.0
 21
-2.75
 31
0.0
  0
LINE
  5
25E
330
29
100
AcDbEntity
  8
0
  6
Continuous
 62
     4
100
AcDbLine
 10
0.0
 20
2.049999999999999
 30
0.0
 11
0.0
 21
-2.049999999999999
 31
0.0
  0
LINE
  5
25F
330
29
100
AcDbEntity
  8
0
  6
Continuous
 62
     4
100
AcDbLine
 10
0.0
 20
2.049999999999999
 30
0.0
 11
16.91
 21
2.049999999999999
 31
0.0
  0
LINE
  5
260
330
29
100
AcDbEntity
  8
0
  6
Continuous
 62
     4
100
AcDbLine
 10
0.0
 20
-2.049999999999999
 30
0.0
 11
16.91
 21
-2.049999999999999
 31
0.0
  0
LINE
  5
261
330
29
100
AcDbEntity
  8
0
  6
Continuous
 62
     4
100
AcDbLine
 10
0.0
 20
1.5
 30
0.0
 11
16.56
 21
1.5
 31
0.0
  0
LINE
  5
262
330
29
100
AcDbEntity
  8
0
  6
Continuous
 62
     4
100
AcDbLine
 10
0.0
 20
-1.5
 30
0.0
 11
16.56
 21
-1.5
 31
0.0
  0
LINE
  5
263
330
29
100
AcDbEntity
  8
0
  6
CENTER
 62
   200
100
AcDbLine
 10
-1.32
 20
0.0
 30
0.0
 11
23.58
 21
0.0
 31
0.0
  0
ENDBLK
  5
264
330
29
100
AcDbEntity
  8
0
100
AcDbBlockEnd
  0
BLOCK
  5
265
330
2A
100
AcDbEntity
  8
0
100
AcDbBlockBegin
  2
CTA25-13
 70
     0
 10
0.0
 20
0.0
 30
0.0
  3
CTA25-13
  1

  0
LINE
  5
266
330
2A
100
AcDbEntity
  8
0
  6
Continuous
 62
   200
100
AcDbLine
 10
27.73000000476834
 20
-0.3299995223464407
 30
0.0
 11
30.23000000476834
 21
-4.659999522346453
 31
0.0
  0
LINE
  5
267
330
2A
100
AcDbEntity
  8
0
  6
Continuous
 62
   200
100
AcDbLine
 10
26.23000000476834
 20
-0.3299995223464407
 30
0.0
 11
28.73000000476834
 21
-4.659999522346453
 31
0.0
  0
LINE
  5
268
330
2A
100
AcDbEntity
  8
0
  6
Continuous
 62
   200
100
AcDbLine
 10
18.75000000476838
 20
-0.3299995223464407
 30
0.0
 11
21.25000000476838
 21
-4.659999522346453
 31
0.0
  0
LINE
  5
269
330
2A
100
AcDbEntity
  8
0
  6
Continuous
 62
   200
100
AcDbLine
 10
17.25000000476838
 20
-0.3299995223464407
 30
0.0
 11
19.75000000476837
 21
-4.659999522346453
 31
0.0
  0
LINE
  5
26A
330
2A
100
AcDbEntity
  8
0
  6
CENTER
 62
   200
100
AcDbLine
 10
22.27
 20
-1.84999952234645
 30
0.0
 11
34.2
 21
-1.84999952234645
 31
0.0
  0
LINE
  5
26B
330
2A
100
AcDbEntity
  8
0
  6
CENTER
 62
   200
100
AcDbLine
 10
22.32000000000001
 20
-3.149999522346448
 30
0.0
 11
34.2
 21
-3.149999522346448
 31
0.0
  0
LINE
  5
26C
330
2A
100
AcDbEntity
  8
0
  6
Continuous
 62
     4
100
AcDbLine
 10
34.00000000000001
 20
-1.559999514629822
 30
0.0
 11
34.00000000000001
 21
-2.139999523485371
 31
0.0
  0
LINE
  5
26D
330
2A
100
AcDbEntity
  8
0
  6
Continuous
 62
     4
100
AcDbLine
 10
31.00000000000001
 20
-1.559999522346458
 30
0.0
 11
34.00000000498092
 21
-1.559999522346458
 31
0.0
  0
LINE
  5
26E
330
2A
100
AcDbEntity
  8
0
  6
Continuous
 62
     4
100
AcDbLine
 10
31.00000000000001
 20
-2.139999522346456
 30
0.0
 11
34.00000000498092
 21
-2.139999522346456
 31
0.0
  0
LINE
  5
26F
330
2A
100
AcDbEntity
  8
0
  6
Continuous
 62
     4
100
AcDbLine
 10
31.00000000000001
 20
-2.34999952234645
 30
0.0
 11
31.00000000000001
 21
-1.34999952234645
 31
0.0
  0
LINE
  5
270
330
2A
100
AcDbEntity
  8
0
  6
Continuous
 62
     4
100
AcDbLine
 10
28.89628175996468
 20
-2.34999952234645
 30
0.0
 11
31.00000000000001
 21
-2.34999952234645
 31
0.0
  0
LINE
  5
271
330
2A
100
AcDbEntity
  8
0
  6
Continuous
 62
     4
100
AcDbLine
 10
28.31891455442197
 20
-1.34999952234645
 30
0.0
 11
31.00000000000001
 21
-1.34999952234645
 31
0.0
  0
LINE
  5
272
330
2A
100
AcDbEntity
  8
0
  6
Continuous
 62
     4
100
AcDbLine
 10
24.00000000000001
 20
-2.34999952234645
 30
0.0
 11
27.39628175996468
 21
-2.34999952234645
 31
0.0
  0
LINE
  5
273
330
2A
100
AcDbEntity
  8
0
  6
Continuous
 62
     4
100
AcDbLine
 10
24.00000000000001
 20
-1.34999952234645
 30
0.0
 11
26.81891455442193
 21
-1.34999952234645
 31
0.0
  0
LINE
  5
274
330
2A
100
AcDbEntity
  8
0
  6
Continuous
 62
     4
100
AcDbLine
 10
31.00000000000001
 20
-3.439999522346454
 30
0.0
 11
34.00000000498092
 21
-3.439999522346454
 31
0.0
  0
LINE
  5
275
330
2A
100
AcDbEntity
  8
0
  6
Continuous
 62
     4
100
AcDbLine
 10
31.00000000000001
 20
-2.859999522346456
 30
0.0
 11
34.00000000498092
 21
-2.859999522346456
 31
0.0
  0
LINE
  5
276
330
2A
100
AcDbEntity
  8
0
  6
Continuous
 62
     4
100
AcDbLine
 10
34.00000000000001
 20
-3.439999530063076
 30
0.0
 11
34.00000000000001
 21
-2.859999521207527
 31
0.0
  0
LINE
  5
277
330
2A
100
AcDbEntity
  8
0
  6
Continuous
 62
     4
100
AcDbLine
 10
29.06949192162746
 20
-2.649999522346448
 30
0.0
 11
31.00000000000001
 21
-2.649999522346448
 31
0.0
  0
LINE
  5
278
330
2A
100
AcDbEntity
  8
0
  6
Continuous
 62
     4
100
AcDbLine
 10
29.64685912717023
 20
-3.649999522346448
 30
0.0
 11
31.00000000000001
 21
-3.649999522346448
 31
0.0
  0
LINE
  5
279
330
2A
100
AcDbEntity
  8
0
  6
Continuous
 62
     4
100
AcDbLine
 10
31.00000000000001
 20
-2.649999522346448
 30
0.0
 11
31.00000000000001
 21
-3.649999522346448
 31
0.0
  0
LINE
  5
27A
330
2A
100
AcDbEntity
  8
0
  6
Continuous
 62
     4
100
AcDbLine
 10
24.00000000000001
 20
-2.649999522346448
 30
0.0
 11
27.56949192162746
 21
-2.649999522346448
 31
0.0
  0
LINE
  5
27B
330
2A
100
AcDbEntity
  8
0
  6
Continuous
 62
     4
100
AcDbLine
 10
24.00000000000001
 20
-3.649999522346448
 30
0.0
 11
28.14685912717017
 21
-3.649999522346448
 31
0.0
  0
LINE
  5
27C
330
2A
100
AcDbEntity
  8
0
  6
Continuous
 62
   200
100
AcDbLine
 10
0.95000000476837
 20
0.6001359972752312
 30
0.0
 11
0.95000000476837
 21
0.0
 31
0.0
  0
LINE
  5
27D
330
2A
100
AcDbEntity
  8
0
  6
Continuous
 62
   200
100
AcDbLine
 10
3.050000004768392
 20
0.6001359972752312
 30
0.0
 11
3.050000004768392
 21
0.0
 31
0.0
  0
LINE
  5
27E
330
2A
100
AcDbEntity
  8
0
  6
Continuous
 62
     4
100
AcDbLine
 10
0.7514285761969433
 20
0.4001359972752141
 30
0.0
 11
3.251428576196943
 21
0.4001359972752141
 31
0.0
  0
LINE
  5
27F
330
2A
100
AcDbEntity
  8
0
  6
Continuous
 62
     4
100
AcDbLine
 10
3.051428576196954
 20
0.6001359972752312
 30
0.0
 11
3.251428576196943
 21
0.4001359972752141
 31
0.0
  0
LINE
  5
280
330
2A
100
AcDbEntity
  8
0
  6
Continuous
 62
     4
100
AcDbLine
 10
0.7514285761969433
 20
0.4001359972752141
 30
0.0
 11
0.9514285761969459
 21
0.6001359972752312
 31
0.0
  0
LINE
  5
281
330
2A
100
AcDbEntity
  8
0
  6
Continuous
 62
     4
100
AcDbLine
 10
3.251428576196943
 20
0.4001359972752141
 30
0.0
 11
3.251428576196943
 21
0.0
 31
0.0
  0
LINE
  5
282
330
2A
100
AcDbEntity
  8
0
  6
Continuous
 62
     4
100
AcDbLine
 10
0.7514285761969433
 20
0.0
 30
0.0
 11
0.7514285761969433
 21
0.4001359972752141
 31
0.0
  0
LINE
  5
283
330
2A
100
AcDbEntity
  8
0
  6
Continuous
 62
   200
100
AcDbLine
 10
0.95000000476837
 20
-2.599864002724785
 30
0.0
 11
0.95000000476837
 21
-4.098435431296209
 31
0.0
  0
LINE
  5
284
330
2A
100
AcDbEntity
  8
0
  6
Continuous
 62
   200
100
AcDbLine
 10
3.050000004768392
 20
-2.599864002724785
 30
0.0
 11
3.050000004768392
 21
-4.101292574153347
 31
0.0
  0
LINE
  5
285
330
2A
100
AcDbEntity
  8
0
  6
Continuous
 62
     4
100
AcDbLine
 10
0.9514285761969459
 20
0.6001359972752312
 30
0.0
 11
3.051428576196954
 21
0.6001359972752312
 31
0.0
  0
LINE
  5
286
330
2A
100
AcDbEntity
  8
0
  6
CENTER
 62
   200
100
AcDbLine
 10
6.00000000476838
 20
-6.090416199176913
 30
0.0
 11
6.00000000476838
 21
-3.681009065741847
 31
0.0
  0
LINE
  5
287
330
2A
100
AcDbEntity
  8
0
  6
Continuous
 62
     4
100
AcDbLine
 10
0.000000004768367
 20
-1.799864002724774
 30
0.0
 11
0.000000004768367
 21
0.0
 31
0.0
  0
LINE
  5
288
330
2A
100
AcDbEntity
  8
0
  6
CENTER
 62
   200
100
AcDbLine
 10
2.000000004768367
 20
1.286482308440184
 30
0.0
 11
2.000000004768367
 21
-5.067036249354088
 31
0.0
  0
LINE
  5
289
330
2A
100
AcDbEntity
  8
0
  6
Continuous
 62
     4
100
AcDbLine
 10
4.00000000476838
 20
-1.800000002724772
 30
0.0
 11
4.00000000476838
 21
-2.600000002724784
 31
0.0
  0
LINE
  5
28A
330
2A
100
AcDbEntity
  8
0
  6
Continuous
 62
     4
100
AcDbLine
 10
0.000000004768367
 20
-1.799864002724774
 30
0.0
 11
0.000000004768367
 21
-2.600000002724784
 31
0.0
  0
LINE
  5
28B
330
2A
100
AcDbEntity
  8
0
  6
Continuous
 62
     4
100
AcDbLine
 10
0.7514285761969433
 20
-2.599864002724785
 30
0.0
 11
0.7514285761969433
 21
-3.899864002724783
 31
0.0
  0
LINE
  5
28C
330
2A
100
AcDbEntity
  8
0
  6
Continuous
 62
   200
100
AcDbLine
 10
0.7514285761969433
 20
-3.899864002724783
 30
0.0
 11
3.251428576196943
 21
-3.899864002724783
 31
0.0
  0
LINE
  5
28D
330
2A
100
AcDbEntity
  8
0
  6
Continuous
 62
     4
100
AcDbLine
 10
1.251428576196943
 20
-4.399864002724783
 30
0.0
 11
0.7514285761969433
 21
-3.899864002724783
 31
0.0
  0
LINE
  5
28E
330
2A
100
AcDbEntity
  8
0
  6
Continuous
 62
     4
100
AcDbLine
 10
1.251428576196943
 20
-4.399864002724783
 30
0.0
 11
2.751428576196943
 21
-4.399864002724783
 31
0.0
  0
LINE
  5
28F
330
2A
100
AcDbEntity
  8
0
  6
Continuous
 62
     4
100
AcDbLine
 10
3.251428576196943
 20
-3.899864002724783
 30
0.0
 11
2.751428576196943
 21
-4.399864002724783
 31
0.0
  0
LINE
  5
290
330
2A
100
AcDbEntity
  8
0
  6
Continuous
 62
     4
100
AcDbLine
 10
3.251428576196943
 20
-2.599864002724785
 30
0.0
 11
3.251428576196943
 21
-3.899864002724783
 31
0.0
  0
LINE
  5
291
330
2A
100
AcDbEntity
  8
0
  6
Continuous
 62
     4
100
AcDbLine
 10
4.300000004768392
 20
-1.800000002724772
 30
0.0
 11
4.300000004768392
 21
-4.59999952234645
 31
0.0
  0
LINE
  5
292
330
2A
100
AcDbEntity
  8
0
  6
Continuous
 62
     4
100
AcDbLine
 10
15.50000000476838
 20
-4.59999952234645
 30
0.0
 11
15.50000000476838
 21
0.0
 31
0.0
  0
LINE
  5
293
330
2A
100
AcDbEntity
  8
0
  6
Continuous
 62
     4
100
AcDbLine
 10
24.00000000000001
 20
-1.199999522346445
 30
0.0
 11
24.00000000000001
 21
-3.799999522346453
 31
0.0
  0
LINE
  5
294
330
2A
100
AcDbEntity
  8
0
  6
Continuous
 62
     4
100
AcDbLine
 10
4.300000003405969
 20
-4.59999952234645
 30
0.0
 11
15.50000000000001
 21
-4.59999952234645
 31
0.0
  0
LINE
  5
295
330
2A
100
AcDbEntity
  8
0
  6
Continuous
 62
     4
100
AcDbLine
 10
0.0
 20
-1.800000002724772
 30
0.0
 11
4.300000003405969
 21
-1.800000002724772
 31
0.0
  0
LINE
  5
296
330
2A
100
AcDbEntity
  8
0
  6
Continuous
 62
     4
100
AcDbLine
 10
0.0
 20
-2.600000002724784
 30
0.0
 11
4.000000000000014
 21
-2.600000002724784
 31
0.0
  0
LINE
  5
297
330
2A
100
AcDbEntity
  8
0
  6
Continuous
 62
     4
100
AcDbLine
 10
0.0
 20
-1.100000002724783
 30
0.0
 11
15.50000000476838
 21
-1.100000002724783
 31
0.0
  0
LINE
  5
298
330
2A
100
AcDbEntity
  8
0
  6
Continuous
 62
     4
100
AcDbLine
 10
0.0
 20
-0.5499999965940106
 30
0.0
 11
15.50000000476838
 21
-0.5499999965940106
 31
0.0
  0
LINE
  5
299
330
2A
100
AcDbEntity
  8
0
  6
Continuous
 62
     4
100
AcDbLine
 10
0.0
 20
0.0
 30
0.0
 11
15.50000000476838
 21
0.0
 31
0.0
  0
LINE
  5
29A
330
2A
100
AcDbEntity
  8
0
  6
Continuous
 62
     4
100
AcDbLine
 10
15.50000000476838
 20
-1.199999522346445
 30
0.0
 11
17.75230947359052
 21
-1.199999522346445
 31
0.0
  0
LINE
  5
29B
330
2A
100
AcDbEntity
  8
0
  6
Continuous
 62
     4
100
AcDbLine
 10
15.50000000476838
 20
-3.799999522346453
 30
0.0
 11
19.25346420800163
 21
-3.799999522346453
 31
0.0
  0
LINE
  5
29C
330
2A
100
AcDbEntity
  8
0
  6
Continuous
 62
     4
100
AcDbLine
 10
19.25230947359052
 20
-1.199999522346445
 30
0.0
 11
24.00000000000001
 21
-1.199999522346445
 31
0.0
  0
LINE
  5
29D
330
2A
100
AcDbEntity
  8
0
  6
Continuous
 62
     4
100
AcDbLine
 10
20.75346420800163
 20
-3.799999522346453
 30
0.0
 11
24.00000000000001
 21
-3.799999522346453
 31
0.0
  0
LINE
  5
29E
330
2A
100
AcDbEntity
  8
0
  6
CENTER
 62
   200
100
AcDbLine
 10
14.65160361358097
 20
-2.499999522346456
 30
0.0
 11
33.25263101131954
 21
-2.499999522346456
 31
0.0
  0
ENDBLK
  5
29F
330
2A
100
AcDbEntity
  8
0
100
AcDbBlockEnd
  0
BLOCK
  5
2A0
330
2B
100
AcDbEntity
  8
0
100
AcDbBlockBegin
  2
CTA25-14
 70
     0
 10
0.0
 20
0.0
 30
0.0
  3
CTA25-14
  1

  0
LINE
  5
2A1
330
2B
100
AcDbEntity
  8
0
  6
Continuous
 62
   200
100
AcDbLine
 10
1.050000000000011
 20
0.0
 30
0.0
 11
1.050000000000011
 21
0.6001360000000063
 31
0.0
  0
LINE
  5
2A2
330
2B
100
AcDbEntity
  8
0
  6
Continuous
 62
   200
100
AcDbLine
 10
-1.049999999999982
 20
0.0
 30
0.0
 11
-1.049999999999982
 21
0.6001360000000063
 31
0.0
  0
LINE
  5
2A3
330
2B
100
AcDbEntity
  8
0
  6
Continuous
 62
   200
100
AcDbLine
 10
1.050000000000011
 20
-4.097006857142857
 30
0.0
 11
1.050000000000011
 21
-2.600000000000008
 31
0.0
  0
LINE
  5
2A4
330
2B
100
AcDbEntity
  8
0
  6
Continuous
 62
   200
100
AcDbLine
 10
-1.049999999999982
 20
-4.097006857142857
 30
0.0
 11
-1.049999999999982
 21
-2.600000000000008
 31
0.0
  0
LINE
  5
2A5
330
2B
100
AcDbEntity
  8
0
  6
Continuous
 62
     4
100
AcDbLine
 10
-1.25
 20
0.4001359999999893
 30
0.0
 11
-1.049999999999982
 21
0.6001360000000063
 31
0.0
  0
LINE
  5
2A6
330
2B
100
AcDbEntity
  8
0
  6
Continuous
 62
     4
100
AcDbLine
 10
-1.25
 20
0.0
 30
0.0
 11
-1.25
 21
0.4001359999999893
 31
0.0
  0
LINE
  5
2A7
330
2B
100
AcDbEntity
  8
0
  6
Continuous
 62
     4
100
AcDbLine
 10
-2.049999999999996
 20
-1.100000000000008
 30
0.0
 11
-2.049999999999996
 21
-2.548435428571437
 31
0.0
  0
LINE
  5
2A8
330
2B
100
AcDbEntity
  8
0
  6
Continuous
 62
     4
100
AcDbLine
 10
-2.049999999999996
 20
-1.100000000000008
 30
0.0
 11
-1.501428571428561
 21
-0.5485714285714352
 31
0.0
  0
LINE
  5
2A9
330
2B
100
AcDbEntity
  8
0
  6
Continuous
 62
     4
100
AcDbLine
 10
-1.25
 20
-2.600000000000008
 30
0.0
 11
-1.25
 21
-3.897006857142855
 31
0.0
  0
LINE
  5
2AA
330
2B
100
AcDbEntity
  8
0
  6
Continuous
 62
     4
100
AcDbLine
 10
-0.7471428571428476
 20
-4.399864000000007
 30
0.0
 11
-1.25
 21
-3.897006857142855
 31
0.0
  0
LINE
  5
2AB
330
2B
100
AcDbEntity
  8
0
  6
Continuous
 62
     4
100
AcDbLine
 10
-0.7471428571428476
 20
-4.399864000000007
 30
0.0
 11
0.747142857142876
 21
-4.399864000000007
 31
0.0
  0
LINE
  5
2AC
330
2B
100
AcDbEntity
  8
0
  6
CENTER
 62
   200
100
AcDbLine
 10
0.0
 20
-5.067036246629313
 30
0.0
 11
0.0
 21
1.286482311164959
 31
0.0
  0
LINE
  5
2AD
330
2B
100
AcDbEntity
  8
0
  6
Continuous
 62
     4
100
AcDbLine
 10
-1.5
 20
-0.5471354166666771
 30
0.0
 11
-1.5
 21
0.0000000027247751
 31
0.0
  0
LINE
  5
2AE
330
2B
100
AcDbEntity
  8
0
  6
Continuous
 62
     4
100
AcDbLine
 10
1.050000000000011
 20
0.6001360000000063
 30
0.0
 11
1.25
 21
0.4001359999999893
 31
0.0
  0
LINE
  5
2AF
330
2B
100
AcDbEntity
  8
0
  6
Continuous
 62
     4
100
AcDbLine
 10
1.25
 20
0.4001359999999893
 30
0.0
 11
1.25
 21
0.0
 31
0.0
  0
LINE
  5
2B0
330
2B
100
AcDbEntity
  8
0
  6
Continuous
 62
     4
100
AcDbLine
 10
2.050000000000011
 20
-1.100000000000008
 30
0.0
 11
2.050000000000011
 21
-2.548435428571437
 31
0.0
  0
LINE
  5
2B1
330
2B
100
AcDbEntity
  8
0
  6
Continuous
 62
     4
100
AcDbLine
 10
1.25
 20
-2.59986400000001
 30
0.0
 11
1.25
 21
-3.897006857142855
 31
0.0
  0
LINE
  5
2B2
330
2B
100
AcDbEntity
  8
0
  6
Continuous
 62
     4
100
AcDbLine
 10
1.5
 20
-0.5499999999999972
 30
0.0
 11
1.5
 21
0.0000000027247751
 31
0.0
  0
LINE
  5
2B3
330
2B
100
AcDbEntity
  8
0
  6
Continuous
 62
     4
100
AcDbLine
 10
1.499999993869252
 20
-0.5499999938692355
 30
0.0
 11
2.050000000000011
 21
-1.100000000000008
 31
0.0
  0
LINE
  5
2B4
330
2B
100
AcDbEntity
  8
0
  6
Continuous
 62
     4
100
AcDbLine
 10
-2.049999999999996
 20
-2.600000000000008
 30
0.0
 11
2.049390723326027
 21
-2.600000000000008
 31
0.0
  0
LINE
  5
2B5
330
2B
100
AcDbEntity
  8
0
  6
Continuous
 62
     4
100
AcDbLine
 10
-2.049999999999996
 20
-1.799999999999997
 30
0.0
 11
2.050000000000011
 21
-1.799999999999997
 31
0.0
  0
ARC
  5
2B6
330
2B
100
AcDbEntity
  8
0
  6
Continuous
 62
     4
100
AcDbCircle
 10
0.0
 20
-2.549998923398334
 30
0.0
 40
2.050000596223346
100
AcDbArc
 50
179.9563016403135
 51
0.0
  0
LINE
  5
2B7
330
2B
100
AcDbEntity
  8
0
  6
Continuous
 62
     4
100
AcDbLine
 10
1.25
 20
-3.897006857142855
 30
0.0
 11
0.747142857142876
 21
-4.399864000000007
 31
0.0
  0
LINE
  5
2B8
330
2B
100
AcDbEntity
  8
0
  6
Continuous
 62
     4
100
AcDbLine
 10
-1.25
 20
-3.897006857142855
 30
0.0
 11
1.25
 21
-3.897006857142855
 31
0.0
  0
LINE
  5
2B9
330
2B
100
AcDbEntity
  8
0
  6
Continuous
 62
     4
100
AcDbLine
 10
-1.501428571428561
 20
0.0
 30
0.0
 11
1.5
 21
0.0
 31
0.0
  0
LINE
  5
2BA
330
2B
100
AcDbEntity
  8
0
  6
Continuous
 62
     4
100
AcDbLine
 10
-1.25
 20
0.4001359999999893
 30
0.0
 11
1.25
 21
0.4001359999999893
 31
0.0
  0
LINE
  5
2BB
330
2B
100
AcDbEntity
  8
0
  6
Continuous
 62
     4
100
AcDbLine
 10
-1.049999999999982
 20
0.6001360000000063
 30
0.0
 11
1.050000000000011
 21
0.6001360000000063
 31
0.0
  0
ENDBLK
  5
2BC
330
2B
100
AcDbEntity
  8
0
100
AcDbBlockEnd
  0
BLOCK
  5
2BD
330
2C
100
AcDbEntity
  8
0
100
AcDbBlockBegin
  2
CTA25-15
 70
     0
 10
0.0
 20
0.0
 30
0.0
  3
CTA25-15
  1

  0
LINE
  5
2BE
330
2C
100
AcDbEntity
  8
0
  6
CENTER
 62
   200
100
AcDbLine
 10
-1.410401753016884
 20
0.0
 30
0.0
 11
21.50288684079608
 21
0.0
 31
0.0
  0
LINE
  5
2BF
330
2C
100
AcDbEntity
  8
0
  6
Continuous
 62
   200
100
AcDbLine
 10
17.25000000476838
 20
2.170000000000015
 30
0.0
 11
19.75000000476837
 21
-2.159999999999996
 31
0.0
  0
LINE
  5
2C0
330
2C
100
AcDbEntity
  8
0
  6
Continuous
 62
     4
100
AcDbLine
 10
15.50000000476838
 20
-1.299999999999997
 30
0.0
 11
19.25346420800163
 21
-1.299999999999997
 31
0.0
  0
LINE
  5
2C1
330
2C
100
AcDbEntity
  8
0
  6
Continuous
 62
     4
100
AcDbLine
 10
15.50000000476838
 20
1.300000000000011
 30
0.0
 11
17.75230947359052
 21
1.300000000000011
 31
0.0
  0
LINE
  5
2C2
330
2C
100
AcDbEntity
  8
0
  6
CENTER
 62
   200
100
AcDbLine
 10
2.000000004768367
 20
2.94285714285715
 30
0.0
 11
2.000000004768367
 21
-3.299984673423466
 31
0.0
  0
LINE
  5
2C3
330
2C
100
AcDbEntity
  8
0
  6
Continuous
 62
     4
100
AcDbLine
 10
3.900000004768359
 20
-1.5
 30
0.0
 11
3.900000004768359
 21
1.5
 31
0.0
  0
LINE
  5
2C4
330
2C
100
AcDbEntity
  8
0
  6
Continuous
 62
     4
100
AcDbLine
 10
10.40000000476836
 20
-1.5
 30
0.0
 11
10.40000000476836
 21
1.5
 31
0.0
  0
LINE
  5
2C5
330
2C
100
AcDbEntity
  8
0
  6
Continuous
 62
     4
100
AcDbLine
 10
8.000000004768381
 20
-0.5999999999999944
 30
0.0
 11
8.000000004768381
 21
0.9000000000000056
 31
0.0
  0
LINE
  5
2C6
330
2C
100
AcDbEntity
  8
0
  6
Continuous
 62
     4
100
AcDbLine
 10
9.600000004768375
 20
-0.5999999999999944
 30
0.0
 11
9.600000004768375
 21
0.9000000000000056
 31
0.0
  0
LINE
  5
2C7
330
2C
100
AcDbEntity
  8
0
  6
Continuous
 62
     4
100
AcDbLine
 10
0.0
 20
-2.049999999999996
 30
0.0
 11
0.0
 21
2.050000000000011
 31
0.0
  0
LINE
  5
2C8
330
2C
100
AcDbEntity
  8
0
  6
Continuous
 62
     4
100
AcDbLine
 10
15.50000000476838
 20
-2.049999999999996
 30
0.0
 11
15.50000000476838
 21
2.050000000000011
 31
0.0
  0
LINE
  5
2C9
330
2C
100
AcDbEntity
  8
0
  6
Continuous
 62
     4
100
AcDbLine
 10
0.0
 20
1.5
 30
0.0
 11
15.50000000476838
 21
1.5
 31
0.0
  0
LINE
  5
2CA
330
2C
100
AcDbEntity
  8
0
  6
Continuous
 62
     4
100
AcDbLine
 10
0.0
 20
-1.5
 30
0.0
 11
15.50000000476838
 21
-1.5
 31
0.0
  0
CIRCLE
  5
2CB
330
2C
100
AcDbEntity
  8
0
  6
Continuous
 62
     4
100
AcDbCircle
 10
2.000000004768367
 20
0.0
 30
0.0
 40
1.399999999999999
  0
CIRCLE
  5
2CC
330
2C
100
AcDbEntity
  8
0
  6
Continuous
 62
     4
100
AcDbCircle
 10
2.000000004768367
 20
0.0
 30
0.0
 40
1.25
  0
CIRCLE
  5
2CD
330
2C
100
AcDbEntity
  8
0
  6
Continuous
 62
   200
100
AcDbCircle
 10
2.000000004768367
 20
0.0
 30
0.0
 40
1.05
  0
LINE
  5
2CE
330
2C
100
AcDbEntity
  8
0
  6
Continuous
 62
     4
100
AcDbLine
 10
0.9571978986753322
 20
-0.6892486978790089
 30
0.0
 11
2.68924870264739
 21
1.042802106093034
 31
0.0
  0
LINE
  5
2CF
330
2C
100
AcDbEntity
  8
0
  6
Continuous
 62
     4
100
AcDbLine
 10
1.310751318931579
 20
-1.042802072252555
 30
0.0
 11
3.042802112443112
 21
0.6892487212589913
 31
0.0
  0
LINE
  5
2D0
330
2C
100
AcDbEntity
  8
0
  6
Continuous
 62
     4
100
AcDbLine
 10
8.000000004768381
 20
0.9000000000000056
 30
0.0
 11
9.600000004768375
 21
0.9000000000000056
 31
0.0
  0
LINE
  5
2D1
330
2C
100
AcDbEntity
  8
0
  6
Continuous
 62
     4
100
AcDbLine
 10
8.000000004768381
 20
-0.5999999999999944
 30
0.0
 11
9.600000004768375
 21
-0.5999999999999944
 31
0.0
  0
LINE
  5
2D2
330
2C
100
AcDbEntity
  8
0
  6
Continuous
 62
     4
100
AcDbLine
 10
0.0
 20
2.050000000000011
 30
0.0
 11
15.50000000476838
 21
2.050000000000011
 31
0.0
  0
LINE
  5
2D3
330
2C
100
AcDbEntity
  8
0
  6
Continuous
 62
     4
100
AcDbLine
 10
0.0
 20
-2.049999999999996
 30
0.0
 11
15.50000000476838
 21
-2.049999999999996
 31
0.0
  0
ENDBLK
  5
2D4
330
2C
100
AcDbEntity
  8
0
100
AcDbBlockEnd
  0
BLOCK
  5
2D5
330
2D
100
AcDbEntity
  8
0
100
AcDbBlockBegin
  2
CTA25-16
 70
     0
 10
0.0
 20
0.0
 30
0.0
  3
CTA25-16
  1

  0
LINE
  5
2D6
330
2D
100
AcDbEntity
  8
0
  6
Continuous
 62
     4
100
AcDbLine
 10
11.20000000476835
 20
9.64451211272798
 30
0.0
 11
11.20000000476835
 21
14.39797631596124
 31
0.0
  0
LINE
  5
2D7
330
2D
100
AcDbEntity
  8
0
  6
Continuous
 62
     4
100
AcDbLine
 10
13.80000000476838
 20
11.14566684713908
 30
0.0
 11
13.80000000476838
 21
14.39797631596124
 31
0.0
  0
LINE
  5
2D8
330
2D
100
AcDbEntity
  8
0
  6
Continuous
 62
   200
100
AcDbLine
 10
10.34000000476837
 20
16.62797631596123
 30
0.0
 11
14.67000000476835
 21
19.12797631596123
 31
0.0
  0
LINE
  5
2D9
330
2D
100
AcDbEntity
  8
0
  6
Continuous
 62
   200
100
AcDbLine
 10
10.34000000476837
 20
18.12797631596123
 30
0.0
 11
14.67000000476835
 21
20.62797631596124
 31
0.0
  0
LINE
  5
2DA
330
2D
100
AcDbEntity
  8
0
  6
Continuous
 62
   200
100
AcDbLine
 10
10.34000000476837
 20
7.647976315961244
 30
0.0
 11
14.67000000476835
 21
10.14797631596124
 31
0.0
  0
LINE
  5
2DB
330
2D
100
AcDbEntity
  8
0
  6
Continuous
 62
   200
100
AcDbLine
 10
10.34000000476837
 20
9.147976315961244
 30
0.0
 11
14.67000000476835
 21
11.64797631596124
 31
0.0
  0
LINE
  5
2DC
330
2D
100
AcDbEntity
  8
0
  6
Continuous
 62
     4
100
AcDbLine
 10
10.40000001021792
 20
0.9479762348989313
 30
0.0
 11
12.05095566806369
 21
1.497976229666193
 31
0.0
  0
LINE
  5
2DD
330
2D
100
AcDbEntity
  8
0
  6
Continuous
 62
     4
100
AcDbLine
 10
12.05095566806369
 20
1.497976229666193
 30
0.0
 11
12.05095566806369
 21
5.897976315961244
 31
0.0
  0
LINE
  5
2DE
330
2D
100
AcDbEntity
  8
0
  6
Continuous
 62
     4
100
AcDbLine
 10
12.94904434147304
 20
4.897976311874074
 30
0.0
 11
12.94904434147304
 21
5.897976311874074
 31
0.0
  0
LINE
  5
2DF
330
2D
100
AcDbEntity
  8
0
  6
Continuous
 62
     4
100
AcDbLine
 10
12.94904434147304
 20
4.897976315961244
 30
0.0
 11
15.00000000476837
 21
4.897976315961244
 31
0.0
  0
LINE
  5
2E0
330
2D
100
AcDbEntity
  8
0
  6
Continuous
 62
     4
100
AcDbLine
 10
14.60000000476839
 20
4.897976315961244
 30
0.0
 11
14.60000000476839
 21
5.897976315961244
 31
0.0
  0
LINE
  5
2E1
330
2D
100
AcDbEntity
  8
0
  6
Continuous
 62
     4
100
AcDbLine
 10
10.40000000476837
 20
-0.0020236840387469
 30
0.0
 11
10.40000000476837
 21
5.897976315961244
 31
0.0
  0
LINE
  5
2E2
330
2D
100
AcDbEntity
  8
0
  6
Continuous
 62
     4
100
AcDbLine
 10
10.40000000476837
 20
5.897976315961244
 30
0.0
 11
14.60000000476839
 21
5.897976315961244
 31
0.0
  0
LINE
  5
2E3
330
2D
100
AcDbEntity
  8
0
  6
Continuous
 62
     4
100
AcDbLine
 10
15.00000000476837
 20
3.897976315961244
 30
0.0
 11
10.40000000476837
 21
3.897976315961244
 31
0.0
  0
LINE
  5
2E4
330
2D
100
AcDbEntity
  8
0
  6
CENTER
 62
   200
100
AcDbLine
 10
12.50000000476837
 20
5.393395200374826
 30
0.0
 11
12.50000000476837
 21
17.18646553472761
 31
0.0
  0
LINE
  5
2E5
330
2D
100
AcDbEntity
  8
0
  6
Continuous
 62
   200
100
AcDbLine
 10
0.9500000047683554
 20
0.5979763159612475
 30
0.0
 11
0.9500000047683554
 21
-0.0020236840387469
 31
0.0
  0
LINE
  5
2E6
330
2D
100
AcDbEntity
  8
0
  6
Continuous
 62
   200
100
AcDbLine
 10
3.050000004768378
 20
0.5979763159612475
 30
0.0
 11
3.050000004768378
 21
-0.0020236840387469
 31
0.0
  0
LINE
  5
2E7
330
2D
100
AcDbEntity
  8
0
  6
Continuous
 62
     4
100
AcDbLine
 10
0.7514285761969291
 20
0.3979763159612446
 30
0.0
 11
3.251428576196928
 21
0.3979763159612446
 31
0.0
  0
LINE
  5
2E8
330
2D
100
AcDbEntity
  8
0
  6
Continuous
 62
     4
100
AcDbLine
 10
3.05142857619694
 20
0.5979763159612475
 30
0.0
 11
3.251428576196928
 21
0.3979763159612446
 31
0.0
  0
LINE
  5
2E9
330
2D
100
AcDbEntity
  8
0
  6
Continuous
 62
     4
100
AcDbLine
 10
0.7514285761969291
 20
0.3979763159612446
 30
0.0
 11
0.9514285761969459
 21
0.5979763159612475
 31
0.0
  0
LINE
  5
2EA
330
2D
100
AcDbEntity
  8
0
  6
Continuous
 62
     4
100
AcDbLine
 10
3.251428576196928
 20
0.3979763159612446
 30
0.0
 11
3.251428576196928
 21
-0.0020236840387469
 31
0.0
  0
LINE
  5
2EB
330
2D
100
AcDbEntity
  8
0
  6
Continuous
 62
     4
100
AcDbLine
 10
0.7514285761969291
 20
-0.0020236840387469
 30
0.0
 11
0.7514285761969291
 21
0.3979763159612446
 31
0.0
  0
LINE
  5
2EC
330
2D
100
AcDbEntity
  8
0
  6
Continuous
 62
   200
100
AcDbLine
 10
0.9500000047683554
 20
-2.602023684038755
 30
0.0
 11
0.9500000047683554
 21
-4.100595112610179
 31
0.0
  0
LINE
  5
2ED
330
2D
100
AcDbEntity
  8
0
  6
Continuous
 62
   200
100
AcDbLine
 10
3.050000004768378
 20
-2.602023684038755
 30
0.0
 11
3.050000004768378
 21
-4.103452255467316
 31
0.0
  0
LINE
  5
2EE
330
2D
100
AcDbEntity
  8
0
  6
Continuous
 62
     4
100
AcDbLine
 10
0.9514285761969459
 20
0.5979763159612475
 30
0.0
 11
3.05142857619694
 21
0.5979763159612475
 31
0.0
  0
LINE
  5
2EF
330
2D
100
AcDbEntity
  8
0
  6
CENTER
 62
   200
100
AcDbLine
 10
6.000000004768367
 20
-6.092575880490883
 30
0.0
 11
6.000000004768367
 21
-3.683168747055816
 31
0.0
  0
LINE
  5
2F0
330
2D
100
AcDbEntity
  8
0
  6
Continuous
 62
     4
100
AcDbLine
 10
0.000000004768367
 20
-1.802023684038758
 30
0.0
 11
0.000000004768367
 21
0.0
 31
0.0
  0
LINE
  5
2F1
330
2D
100
AcDbEntity
  8
0
  6
CENTER
 62
   200
100
AcDbLine
 10
2.000000004768367
 20
1.284322627126215
 30
0.0
 11
2.000000004768367
 21
-5.069195930668058
 31
0.0
  0
LINE
  5
2F2
330
2D
100
AcDbEntity
  8
0
  6
Continuous
 62
     4
100
AcDbLine
 10
4.000000004768367
 20
-1.802023684038758
 30
0.0
 11
4.000000004768367
 21
-2.602023684038755
 31
0.0
  0
LINE
  5
2F3
330
2D
100
AcDbEntity
  8
0
  6
Continuous
 62
     4
100
AcDbLine
 10
0.000000004768367
 20
-1.802023684038758
 30
0.0
 11
0.000000004768367
 21
-2.602023684038755
 31
0.0
  0
LINE
  5
2F4
330
2D
100
AcDbEntity
  8
0
  6
Continuous
 62
     4
100
AcDbLine
 10
0.7514285761969291
 20
-2.602023684038755
 30
0.0
 11
0.7514285761969291
 21
-3.902023684038752
 31
0.0
  0
LINE
  5
2F5
330
2D
100
AcDbEntity
  8
0
  6
Continuous
 62
   200
100
AcDbLine
 10
0.7514285761969291
 20
-3.902023684038752
 30
0.0
 11
3.251428576196928
 21
-3.902023684038752
 31
0.0
  0
LINE
  5
2F6
330
2D
100
AcDbEntity
  8
0
  6
Continuous
 62
     4
100
AcDbLine
 10
1.251428576196928
 20
-4.402023684038752
 30
0.0
 11
0.7514285761969291
 21
-3.902023684038752
 31
0.0
  0
LINE
  5
2F7
330
2D
100
AcDbEntity
  8
0
  6
Continuous
 62
     4
100
AcDbLine
 10
1.251428576196928
 20
-4.402023684038752
 30
0.0
 11
2.751428576196929
 21
-4.402023684038752
 31
0.0
  0
LINE
  5
2F8
330
2D
100
AcDbEntity
  8
0
  6
Continuous
 62
     4
100
AcDbLine
 10
3.251428576196928
 20
-3.902023684038752
 30
0.0
 11
2.751428576196929
 21
-4.402023684038752
 31
0.0
  0
LINE
  5
2F9
330
2D
100
AcDbEntity
  8
0
  6
Continuous
 62
     4
100
AcDbLine
 10
3.251428576196928
 20
-2.602023684038755
 30
0.0
 11
3.251428576196928
 21
-3.902023684038752
 31
0.0
  0
LINE
  5
2FA
330
2D
100
AcDbEntity
  8
0
  6
Continuous
 62
     4
100
AcDbLine
 10
4.300000004768377
 20
-1.800000000000011
 30
0.0
 11
4.300000004768377
 21
-4.600000000000008
 31
0.0
  0
LINE
  5
2FB
330
2D
100
AcDbEntity
  8
0
  6
Continuous
 62
     4
100
AcDbLine
 10
15.00000000476837
 20
-4.600000000000008
 30
0.0
 11
15.00000000476837
 21
4.897976315961244
 31
0.0
  0
LINE
  5
2FC
330
2D
100
AcDbEntity
  8
0
  6
Continuous
 62
     4
100
AcDbLine
 10
11.20000000476835
 20
14.39797631596124
 30
0.0
 11
13.80000000476838
 21
14.39797631596124
 31
0.0
  0
LINE
  5
2FD
330
2D
100
AcDbEntity
  8
0
  6
Continuous
 62
     4
100
AcDbLine
 10
11.20000000476835
 20
5.897976315961244
 30
0.0
 11
11.20000000476835
 21
8.14451211272798
 31
0.0
  0
LINE
  5
2FE
330
2D
100
AcDbEntity
  8
0
  6
Continuous
 62
     4
100
AcDbLine
 10
13.80000000476838
 20
5.897976315961244
 30
0.0
 11
13.80000000476838
 21
9.64566684713908
 31
0.0
  0
LINE
  5
2FF
330
2D
100
AcDbEntity
  8
0
  6
Continuous
 62
     4
100
AcDbLine
 10
4.300000003405983
 20
-4.600000000000008
 30
0.0
 11
15.0
 21
-4.600000000000008
 31
0.0
  0
LINE
  5
300
330
2D
100
AcDbEntity
  8
0
  6
Continuous
 62
     4
100
AcDbLine
 10
0.0
 20
0.0
 30
0.0
 11
15.0
 21
0.0
 31
0.0
  0
LINE
  5
301
330
2D
100
AcDbEntity
  8
0
  6
Continuous
 62
     4
100
AcDbLine
 10
0.000000004768367
 20
-1.800000000000011
 30
0.0
 11
4.300000004768377
 21
-1.800000000000011
 31
0.0
  0
LINE
  5
302
330
2D
100
AcDbEntity
  8
0
  6
Continuous
 62
     4
100
AcDbLine
 10
0.0
 20
-2.600000000000008
 30
0.0
 11
4.0
 21
-2.600000000000008
 31
0.0
  0
LINE
  5
303
330
2D
100
AcDbEntity
  8
0
  6
Continuous
 62
     4
100
AcDbLine
 10
0.0
 20
-1.100000008256415
 30
0.0
 11
15.0
 21
-1.100000008256415
 31
0.0
  0
LINE
  5
304
330
2D
100
AcDbEntity
  8
0
  6
Continuous
 62
     4
100
AcDbLine
 10
0.0
 20
-0.5500000000000114
 30
0.0
 11
15.00000000476837
 21
-0.5500000000000114
 31
0.0
  0
LINE
  5
305
330
2D
100
AcDbEntity
  8
0
  6
Continuous
 62
     4
100
AcDbLine
 10
10.39999999318803
 20
0.9479762301305639
 30
0.0
 11
15.0
 21
0.9479762301305639
 31
0.0
  0
LINE
  5
306
330
2D
100
AcDbEntity
  8
0
  6
Continuous
 62
     4
100
AcDbLine
 10
10.40000001021792
 20
1.497976233536533
 30
0.0
 11
15.00000000476837
 21
1.497976233536533
 31
0.0
  0
LINE
  5
307
330
2D
100
AcDbEntity
  8
0
  6
Continuous
 62
     4
100
AcDbLine
 10
12.35000000476836
 20
14.39797631596124
 30
0.0
 11
12.35000000476836
 21
17.78848439910211
 31
0.0
  0
LINE
  5
308
330
2D
100
AcDbEntity
  8
0
  6
Continuous
 62
     4
100
AcDbLine
 10
12.65000000476837
 20
14.39797631596124
 30
0.0
 11
12.65000000476837
 21
17.96169456076494
 31
0.0
  0
LINE
  5
309
330
2D
100
AcDbEntity
  8
0
  6
Continuous
 62
     4
100
AcDbLine
 10
13.65000000476837
 20
14.39797631596124
 30
0.0
 11
13.65000000476837
 21
18.53906176630767
 31
0.0
  0
LINE
  5
30A
330
2D
100
AcDbEntity
  8
0
  6
Continuous
 62
     4
100
AcDbLine
 10
11.35000000476836
 20
14.39797631596124
 30
0.0
 11
11.35000000476836
 21
17.21111719355938
 31
0.0
  0
LINE
  5
30B
330
2D
100
AcDbEntity
  8
0
  6
Continuous
 62
     4
100
AcDbLine
 10
11.35000000681197
 20
21.39797631596124
 30
0.0
 11
12.35000000476836
 21
21.39797631596124
 31
0.0
  0
LINE
  5
30C
330
2D
100
AcDbEntity
  8
0
  6
Continuous
 62
     4
100
AcDbLine
 10
12.65000000476837
 20
21.39797631596124
 30
0.0
 11
13.65000001021792
 21
21.39797631596124
 31
0.0
  0
LINE
  5
30D
330
2D
100
AcDbEntity
  8
0
  6
Continuous
 62
     4
100
AcDbLine
 10
12.65000000476837
 20
19.46169456076494
 30
0.0
 11
12.65000000476837
 21
21.39797631596124
 31
0.0
  0
LINE
  5
30E
330
2D
100
AcDbEntity
  8
0
  6
Continuous
 62
     4
100
AcDbLine
 10
13.65000000476837
 20
20.03906176630767
 30
0.0
 11
13.65000000476837
 21
21.39797631596124
 31
0.0
  0
LINE
  5
30F
330
2D
100
AcDbEntity
  8
0
  6
Continuous
 62
     4
100
AcDbLine
 10
11.35000000476836
 20
18.71111719355938
 30
0.0
 11
11.35000000476836
 21
21.39797631596124
 31
0.0
  0
LINE
  5
310
330
2D
100
AcDbEntity
  8
0
  6
Continuous
 62
     4
100
AcDbLine
 10
12.35000000476836
 20
19.28848439910212
 30
0.0
 11
12.35000000476836
 21
21.39797631596124
 31
0.0
  0
LINE
  5
311
330
2D
100
AcDbEntity
  8
0
  6
CENTER
 62
   200
100
AcDbLine
 10
11.8500000020436
 20
12.66797631596124
 30
0.0
 11
11.8500000020436
 21
24.59797631596124
 31
0.0
  0
LINE
  5
312
330
2D
100
AcDbEntity
  8
0
  6
CENTER
 62
   200
100
AcDbLine
 10
13.15000000749316
 20
12.66797631596124
 30
0.0
 11
13.15000000749316
 21
24.64797631596124
 31
0.0
  0
LINE
  5
313
330
2D
100
AcDbEntity
  8
0
  6
Continuous
 62
     4
100
AcDbLine
 10
12.86000000749317
 20
21.39797631596124
 30
0.0
 11
12.86000000749317
 21
24.39797631596124
 31
0.0
  0
LINE
  5
314
330
2D
100
AcDbEntity
  8
0
  6
Continuous
 62
     4
100
AcDbLine
 10
13.44000000749315
 20
21.39797631596124
 30
0.0
 11
13.44000000749315
 21
24.39797631596124
 31
0.0
  0
LINE
  5
315
330
2D
100
AcDbEntity
  8
0
  6
Continuous
 62
     4
100
AcDbLine
 10
12.86000001430511
 20
24.39797631596124
 30
0.0
 11
13.44000000613076
 21
24.39797631596124
 31
0.0
  0
LINE
  5
316
330
2D
100
AcDbEntity
  8
0
  6
Continuous
 62
     4
100
AcDbLine
 10
12.13999999523162
 20
24.39797631596124
 30
0.0
 11
11.56000000340597
 21
24.39797631596124
 31
0.0
  0
LINE
  5
317
330
2D
100
AcDbEntity
  8
0
  6
Continuous
 62
     4
100
AcDbLine
 10
12.14000000204356
 20
21.39797631596124
 30
0.0
 11
12.14000000204356
 21
24.39797631596124
 31
0.0
  0
LINE
  5
318
330
2D
100
AcDbEntity
  8
0
  6
Continuous
 62
     4
100
AcDbLine
 10
11.56000000204358
 20
21.39797631596124
 30
0.0
 11
11.56000000204358
 21
24.39797631596124
 31
0.0
  0
ENDBLK
  5
319
330
2D
100
AcDbEntity
  8
0
100
AcDbBlockEnd
  0
BLOCK
  5
31A
330
2E
100
AcDbEntity
  8
0
100
AcDbBlockBegin
  2
CTA25-17
 70
     0
 10
0.0
 20
0.0
 30
0.0
  3
CTA25-17
  1

  0
LINE
  5
31B
330
2E
100
AcDbEntity
  8
0
  6
Continuous
 62
   200
100
AcDbLine
 10
-2.159999999999996
 20
7.647976229666183
 30
0.0
 11
2.169999999999987
 21
10.14797622966618
 31
0.0
  0
LINE
  5
31C
330
2E
100
AcDbEntity
  8
0
  6
Continuous
 62
     4
100
AcDbLine
 10
-2.050000000000011
 20
5.897976229666184
 30
0.0
 11
2.049999999999982
 21
5.897976229666184
 31
0.0
  0
LINE
  5
31D
330
2E
100
AcDbEntity
  8
0
  6
Continuous
 62
     4
100
AcDbLine
 10
-2.050000000000011
 20
3.897976229666184
 30
0.0
 11
2.049999999999982
 21
3.897976229666184
 31
0.0
  0
LINE
  5
31E
330
2E
100
AcDbEntity
  8
0
  6
Continuous
 62
     4
100
AcDbLine
 10
-1.050000000000011
 20
0.5979763159612475
 30
0.0
 11
1.049999999999982
 21
0.5979763159612475
 31
0.0
  0
LINE
  5
31F
330
2E
100
AcDbEntity
  8
0
  6
Continuous
 62
     4
100
AcDbLine
 10
-1.25
 20
0.3979763159612446
 30
0.0
 11
-1.050000000000011
 21
0.5979763159612475
 31
0.0
  0
LINE
  5
320
330
2E
100
AcDbEntity
  8
0
  6
Continuous
 62
     4
100
AcDbLine
 10
1.049999999999982
 20
0.5979763159612475
 30
0.0
 11
1.25
 21
0.3979763159612446
 31
0.0
  0
LINE
  5
321
330
2E
100
AcDbEntity
  8
0
  6
Continuous
 62
     4
100
AcDbLine
 10
-1.25
 20
0.3979763159612446
 30
0.0
 11
1.25
 21
0.3979763159612446
 31
0.0
  0
LINE
  5
322
330
2E
100
AcDbEntity
  8
0
  6
Continuous
 62
     4
100
AcDbLine
 10
1.25
 20
0.3979763159612446
 30
0.0
 11
1.25
 21
0.0
 31
0.0
  0
LINE
  5
323
330
2E
100
AcDbEntity
  8
0
  6
Continuous
 62
     4
100
AcDbLine
 10
-1.25
 20
0.0
 30
0.0
 11
-1.25
 21
0.3979763159612446
 31
0.0
  0
LINE
  5
324
330
2E
100
AcDbEntity
  8
0
  6
Continuous
 62
     4
100
AcDbLine
 10
-2.04797631596125
 20
-1.102023684038755
 30
0.0
 11
-1.5
 21
-0.5511933247651939
 31
0.0
  0
LINE
  5
325
330
2E
100
AcDbEntity
  8
0
  6
Continuous
 62
     4
100
AcDbLine
 10
2.049999999999982
 20
-1.100000000000008
 30
0.0
 11
1.5
 21
-0.5500000000000114
 31
0.0
  0
LINE
  5
326
330
2E
100
AcDbEntity
  8
0
  6
Continuous
 62
     4
100
AcDbLine
 10
1.25
 20
-2.600000000000008
 30
0.0
 11
1.25
 21
-3.899166541181614
 31
0.0
  0
LINE
  5
327
330
2E
100
AcDbEntity
  8
0
  6
Continuous
 62
     4
100
AcDbLine
 10
-1.25
 20
-2.600000000000008
 30
0.0
 11
-1.25
 21
-3.899166541181614
 31
0.0
  0
LINE
  5
328
330
2E
100
AcDbEntity
  8
0
  6
Continuous
 62
     4
100
AcDbLine
 10
-1.25
 20
-3.899166541181614
 30
0.0
 11
1.25
 21
-3.899166541181614
 31
0.0
  0
LINE
  5
329
330
2E
100
AcDbEntity
  8
0
  6
Continuous
 62
     4
100
AcDbLine
 10
1.25
 20
-3.899166541181614
 30
0.0
 11
0.7471428571428476
 21
-4.402023684038752
 31
0.0
  0
LINE
  5
32A
330
2E
100
AcDbEntity
  8
0
  6
Continuous
 62
     4
100
AcDbLine
 10
-0.7471428571428476
 20
-4.402023684038752
 30
0.0
 11
-1.25
 21
-3.899166541181614
 31
0.0
  0
LINE
  5
32B
330
2E
100
AcDbEntity
  8
0
  6
Continuous
 62
     4
100
AcDbLine
 10
2.00059511261017
 20
-1.800000000000011
 30
0.0
 11
2.00059511261017
 21
-2.602023684038755
 31
0.0
  0
LINE
  5
32C
330
2E
100
AcDbEntity
  8
0
  6
Continuous
 62
     4
100
AcDbLine
 10
-1.999404887389829
 20
-1.800000000000011
 30
0.0
 11
-1.999404887389829
 21
-2.602023684038755
 31
0.0
  0
LINE
  5
32D
330
2E
100
AcDbEntity
  8
0
  6
Continuous
 62
     4
100
AcDbLine
 10
-0.7471428571428476
 20
-4.402023684038752
 30
0.0
 11
0.7471428571428476
 21
-4.402023684038752
 31
0.0
  0
LINE
  5
32E
330
2E
100
AcDbEntity
  8
0
  6
Continuous
 62
     4
100
AcDbLine
 10
-2.050000000000011
 20
-2.550595112610181
 30
0.0
 11
-2.050000000000011
 21
-1.102023684038755
 31
0.0
  0
LINE
  5
32F
330
2E
100
AcDbEntity
  8
0
  6
Continuous
 62
     4
100
AcDbLine
 10
2.049999999999982
 20
-2.641112856946989
 30
0.0
 11
2.049999999999982
 21
-1.100000008256415
 31
0.0
  0
ARC
  5
330
330
2E
100
AcDbEntity
  8
0
  6
Continuous
 62
     4
100
AcDbCircle
 10
0.0
 20
-2.550000000000011
 30
0.0
 40
2.049999999999999
100
AcDbArc
 50
180.0
 51
0.0
  0
LINE
  5
331
330
2E
100
AcDbEntity
  8
0
  6
Continuous
 62
     4
100
AcDbLine
 10
-2.050000000000011
 20
1.497976228169022
 30
0.0
 11
-2.050000000000011
 21
5.897976229666184
 31
0.0
  0
LINE
  5
332
330
2E
100
AcDbEntity
  8
0
  6
Continuous
 62
     4
100
AcDbLine
 10
2.049999999999982
 20
1.497976232092085
 30
0.0
 11
2.049999999999982
 21
5.897976229666184
 31
0.0
  0
LINE
  5
333
330
2E
100
AcDbEntity
  8
0
  6
Continuous
 62
     4
100
AcDbLine
 10
1.5
 20
0.9479762320920883
 30
0.0
 11
2.050000001444459
 21
1.497976233536533
 31
0.0
  0
LINE
  5
334
330
2E
100
AcDbEntity
  8
0
  6
Continuous
 62
     4
100
AcDbLine
 10
-2.050000005367508
 20
1.497976233536533
 30
0.0
 11
-1.5
 21
0.9479762281690256
 31
0.0
  0
LINE
  5
335
330
2E
100
AcDbEntity
  8
0
  6
Continuous
 62
     4
100
AcDbLine
 10
-1.5
 20
-0.5511933238986302
 30
0.0
 11
-1.5
 21
0.9479762301305639
 31
0.0
  0
LINE
  5
336
330
2E
100
AcDbEntity
  8
0
  6
Continuous
 62
     4
100
AcDbLine
 10
1.5
 20
-0.5500000048504319
 30
0.0
 11
1.5
 21
0.9479762301305639
 31
0.0
  0
LINE
  5
337
330
2E
100
AcDbEntity
  8
0
  6
Continuous
 62
     4
100
AcDbLine
 10
-1.500000001961524
 20
0.0
 30
0.0
 11
1.499999998038475
 21
0.0
 31
0.0
  0
LINE
  5
338
330
2E
100
AcDbEntity
  8
0
  6
Continuous
 62
     4
100
AcDbLine
 10
-2.050000000000011
 20
-1.800000000000011
 30
0.0
 11
2.049999999999982
 21
-1.800000000000011
 31
0.0
  0
LINE
  5
339
330
2E
100
AcDbEntity
  8
0
  6
Continuous
 62
     4
100
AcDbLine
 10
-1.999404887389829
 20
-2.600000000000008
 30
0.0
 11
2.00059511261017
 21
-2.600000000000008
 31
0.0
  0
LINE
  5
33A
330
2E
100
AcDbEntity
  8
0
  6
Continuous
 62
     4
100
AcDbLine
 10
-1.300000000000011
 20
5.897976229666184
 30
0.0
 11
-1.300000000000011
 21
8.14451202643292
 31
0.0
  0
LINE
  5
33B
330
2E
100
AcDbEntity
  8
0
  6
Continuous
 62
     4
100
AcDbLine
 10
1.299999999999982
 20
5.897976229666184
 30
0.0
 11
1.299999999999982
 21
9.645666760844008
 31
0.0
  0
LINE
  5
33C
330
2E
100
AcDbEntity
  8
0
  6
CENTER
 62
   200
100
AcDbLine
 10
0.0
 20
-5.546406049129259
 30
0.0
 11
0.0
 21
9.669348017065544
 31
0.0
  0
LINE
  5
33D
330
2E
100
AcDbEntity
  8
0
  6
Continuous
 62
   200
100
AcDbLine
 10
-1.025000000000005
 20
-4.124166541181608
 30
0.0
 11
-1.025000000000005
 21
-2.600000000000008
 31
0.0
  0
LINE
  5
33E
330
2E
100
AcDbEntity
  8
0
  6
Continuous
 62
   200
100
AcDbLine
 10
1.025000000000005
 20
-4.124166541181608
 30
0.0
 11
1.025000000000005
 21
-2.600000000000008
 31
0.0
  0
LINE
  5
33F
330
2E
100
AcDbEntity
  8
0
  6
Continuous
 62
   200
100
AcDbLine
 10
1.025000000000005
 20
-0.0000000014444481
 30
0.0
 11
1.025000000000005
 21
0.5979763159612475
 31
0.0
  0
LINE
  5
340
330
2E
100
AcDbEntity
  8
0
  6
Continuous
 62
   200
100
AcDbLine
 10
-1.025000000000005
 20
-0.0000000014444481
 30
0.0
 11
-1.025000000000005
 21
0.5979763159612475
 31
0.0
  0
ENDBLK
  5
341
330
2E
100
AcDbEntity
  8
0
100
AcDbBlockEnd
  0
BLOCK
  5
342
330
2F
100
AcDbEntity
  8
0
100
AcDbBlockBegin
  2
CTA25-18
 70
     0
 10
0.0
 20
0.0
 30
0.0
  3
CTA25-18
  1

  0
CIRCLE
  5
343
330
2F
100
AcDbEntity
  8
0
  6
Continuous
 62
     4
100
AcDbCircle
 10
12.5
 20
0.0
 30
0.0
 40
1.3
  0
LINE
  5
344
330
2F
100
AcDbEntity
  8
0
  6
CENTER
 62
   200
100
AcDbLine
 10
12.5
 20
-2.442956204414358
 30
0.0
 11
12.5
 21
2.44562617846897
 31
0.0
  0
ARC
  5
345
330
2F
100
AcDbEntity
  8
0
  6
Continuous
 62
     4
100
AcDbCircle
 10
12.5
 20
0.0
 30
0.0
 40
2.1
100
AcDbArc
 50
282.3469323674128
 51
77.29365816157045
  0
ARC
  5
346
330
2F
100
AcDbEntity
  8
0
  6
Continuous
 62
     4
100
AcDbCircle
 10
12.5
 20
0.0
 30
0.0
 40
2.1
100
AcDbArc
 50
102.7063418384295
 51
257.6530676325872
  0
LINE
  5
347
330
2F
100
AcDbEntity
  8
0
  6
CENTER
 62
   200
100
AcDbLine
 10
-1.324720577365496
 20
0.0
 30
0.0
 11
16.23761911485022
 21
0.0
 31
0.0
  0
LINE
  5
348
330
2F
100
AcDbEntity
  8
0
  6
Continuous
 62
     4
100
AcDbLine
 10
0.0
 20
1.5
 30
0.0
 11
11.0303061543301
 21
1.5
 31
0.0
  0
LINE
  5
349
330
2F
100
AcDbEntity
  8
0
  6
Continuous
 62
     4
100
AcDbLine
 10
0.0
 20
2.049999999999996
 30
0.0
 11
0.0
 21
-2.049999999999996
 31
0.0
  0
LINE
  5
34A
330
2F
100
AcDbEntity
  8
0
  6
Continuous
 62
     4
100
AcDbLine
 10
15.0
 20
2.049999999999996
 30
0.0
 11
15.0
 21
-2.049999999999996
 31
0.0
  0
LINE
  5
34B
330
2F
100
AcDbEntity
  8
0
  6
CENTER
 62
   200
100
AcDbLine
 10
2.0
 20
2.834285714285712
 30
0.0
 11
2.0
 21
-3.351413244852025
 31
0.0
  0
LINE
  5
34C
330
2F
100
AcDbEntity
  8
0
  6
Continuous
 62
     4
100
AcDbLine
 10
0.9571428571428556
 20
-0.7142857142857082
 30
0.0
 11
2.688571428571436
 21
1.019999999999996
 31
0.0
  0
LINE
  5
34D
330
2F
100
AcDbEntity
  8
0
  6
Continuous
 62
     4
100
AcDbLine
 10
1.30857142857144
 20
-1.068571428571416
 30
0.0
 11
3.051993036971481
 21
0.6748501798286242
 31
0.0
  0
LINE
  5
34E
330
2F
100
AcDbEntity
  8
0
  6
Continuous
 62
     4
100
AcDbLine
 10
3.900000000000005
 20
-1.502857150350294
 30
0.0
 11
3.900000000000005
 21
1.500000006811958
 31
0.0
  0
LINE
  5
34F
330
2F
100
AcDbEntity
  8
0
  6
Continuous
 62
     4
100
AcDbLine
 10
10.4
 20
-1.502857150350294
 30
0.0
 11
10.4
 21
1.500000006811958
 31
0.0
  0
LINE
  5
350
330
2F
100
AcDbEntity
  8
0
  6
Continuous
 62
     4
100
AcDbLine
 10
8.0
 20
-0.7000000068119477
 30
0.0
 11
8.0
 21
0.9000000000000056
 31
0.0
  0
LINE
  5
351
330
2F
100
AcDbEntity
  8
0
  6
Continuous
 62
     4
100
AcDbLine
 10
9.600000000000022
 20
-0.7000000068119477
 30
0.0
 11
9.600000000000022
 21
0.9000000000000056
 31
0.0
  0
LINE
  5
352
330
2F
100
AcDbEntity
  8
0
  6
Continuous
 62
     4
100
AcDbLine
 10
8.0
 20
0.9000000000000056
 30
0.0
 11
9.600000000000022
 21
0.9000000000000056
 31
0.0
  0
LINE
  5
353
330
2F
100
AcDbEntity
  8
0
  6
Continuous
 62
     4
100
AcDbLine
 10
8.0
 20
-0.7000000000000029
 30
0.0
 11
9.600000000000022
 21
-0.7000000000000029
 31
0.0
  0
LINE
  5
354
330
2F
100
AcDbEntity
  8
0
  6
Continuous
 62
     4
100
AcDbLine
 10
0.0
 20
2.049999999999996
 30
0.0
 11
15.0
 21
2.049999999999996
 31
0.0
  0
LINE
  5
355
330
2F
100
AcDbEntity
  8
0
  6
Continuous
 62
     4
100
AcDbLine
 10
0.0
 20
-2.049999999999996
 30
0.0
 11
15.0
 21
-2.049999999999996
 31
0.0
  0
LINE
  5
356
330
2F
100
AcDbEntity
  8
0
  6
Continuous
 62
     4
100
AcDbLine
 10
0.0
 20
-1.5
 30
0.0
 11
11.0303061543301
 21
-1.5
 31
0.0
  0
CIRCLE
  5
357
330
2F
100
AcDbEntity
  8
0
  6
Continuous
 62
     4
100
AcDbCircle
 10
2.0
 20
0.0
 30
0.0
 40
1.399999999999999
  0
CIRCLE
  5
358
330
2F
100
AcDbEntity
  8
0
  6
Continuous
 62
   200
100
AcDbCircle
 10
2.0
 20
0.0
 30
0.0
 40
1.05
  0
CIRCLE
  5
359
330
2F
100
AcDbEntity
  8
0
  6
Continuous
 62
     4
100
AcDbCircle
 10
2.0
 20
0.0
 30
0.0
 40
1.25
  0
LINE
  5
35A
330
2F
100
AcDbEntity
  8
0
  6
CENTER
 62
   200
100
AcDbLine
 10
11.84999999727523
 20
-0.8054622970305871
 30
0.0
 11
11.84999999727523
 21
0.855785622387998
 31
0.0
  0
LINE
  5
35B
330
2F
100
AcDbEntity
  8
0
  6
CENTER
 62
   200
100
AcDbLine
 10
13.15000000272479
 20
-0.8054622970305871
 30
0.0
 11
13.15000000272479
 21
0.855785622387998
 31
0.0
  0
CIRCLE
  5
35C
330
2F
100
AcDbEntity
  8
0
  6
Continuous
 62
     4
100
AcDbCircle
 10
13.15000000272479
 20
0.0
 30
0.0
 40
0.5
  0
CIRCLE
  5
35D
330
2F
100
AcDbEntity
  8
0
  6
Continuous
 62
     4
100
AcDbCircle
 10
11.84999999727523
 20
0.0
 30
0.0
 40
0.5
  0
CIRCLE
  5
35E
330
2F
100
AcDbEntity
  8
0
  6
Continuous
 62
     4
100
AcDbCircle
 10
13.15000000272479
 20
0.0
 30
0.0
 40
0.29
  0
CIRCLE
  5
35F
330
2F
100
AcDbEntity
  8
0
  6
Continuous
 62
     4
100
AcDbCircle
 10
11.84999999727523
 20
0.0
 30
0.0
 40
0.29
  0
ENDBLK
  5
360
330
2F
100
AcDbEntity
  8
0
100
AcDbBlockEnd
  0
ENDSEC
  0
SECTION
  2
ENTITIES
  0
MTEXT
  5
361
330
A
100
AcDbEntity
  8
0
  6
Continuous
 62
     7
100
AcDbMText
 10
-202.2273756425116
 20
-21.4084129750548
 30
0.0
 40
6.300000190734863
 41
0.0
 71
     1
 72
     5
  1
\W1.111;\A1;ZE102
 73
     1
 44
1.0
1001
ACAD
1000
MTEXTBEGIN
1070
    73
1070
     1
1070
    44
1040
1.0
1070
    74
1070
     0
1000
MTEXTEND
  0
MTEXT
  5
362
330
A
100
AcDbEntity
  8
0
  6
Continuous
 62
     7
100
AcDbMText
 10
-202.1340423123606
 20
-14.46535027350671
 30
0.0
 40
6.300000190734863
 41
0.0
 71
     1
 72
     5
  1
\W1.200;\A1;ZE101
 73
     1
 44
1.0
1001
ACAD
1000
MTEXTBEGIN
1070
    73
1070
     1
1070
    44
1040
1.0
1070
    74
1070
     0
1000
MTEXTEND
  0
MTEXT
  5
363
330
A
100
AcDbEntity
  8
0
  6
Continuous
 62
     7
100
AcDbMText
 10
-59.30783541059739
 20
-21.4084129750548
 30
0.0
 40
6.300000190734863
 41
0.0
 71
     1
 72
     5
  1
\W1.034;\A1;ZE202
 73
     1
 44
1.0
1001
ACAD
1000
MTEXTBEGIN
1070
    73
1070
     1
1070
    44
1040
1.0
1070
    74
1070
     0
1000
MTEXTEND
  0
MTEXT
  5
364
330
A
100
AcDbEntity
  8
0
  6
Continuous
 62
     7
100
AcDbMText
 10
-59.22737564251153
 20
-14.46535027350671
 30
0.0
 40
6.300000190734863
 41
0.0
 71
     1
 72
     5
  1
\W1.111;\A1;ZE201
 73
     1
 44
1.0
1001
ACAD
1000
MTEXTBEGIN
1070
    73
1070
     1
1070
    44
1040
1.0
1070
    74
1070
     0
1000
MTEXTEND
  0
MTEXT
  5
365
330
A
100
AcDbEntity
  8
0
  6
Continuous
 62
     7
100
AcDbMText
 10
219.6935691873246
 20
-14.46535027350671
 30
0.0
 40
6.300000190734863
 41
0.0
 71
     1
 72
     5
  1
\A1;ZE235
 73
     1
 44
1.0
1001
ACAD
1000
MTEXTBEGIN
1070
    73
1070
     1
1070
    44
1040
1.0
1070
    74
1070
     0
1000
MTEXTEND
  0
MTEXT
  5
366
330
A
100
AcDbEntity
  8
0
  6
Continuous
 62
     7
100
AcDbMText
 10
219.6935691873246
 20
-21.4084129750548
 30
0.0
 40
6.300000190734863
 41
0.0
 71
     1
 72
     5
  1
\A1;ZE255
 73
     1
 44
1.0
1001
ACAD
1000
MTEXTBEGIN
1070
    73
1070
     1
1070
    44
1040
1.0
1070
    74
1070
     0
1000
MTEXTEND
  0
MTEXT
  5
367
330
A
100
AcDbEntity
  8
0
  6
Continuous
 62
     7
100
AcDbMText
 10
84.73095768477067
 20
-21.4084129750548
 30
0.0
 40
6.300000190734863
 41
0.0
 71
     1
 72
     5
  1
\W1.071;\A1;ZE155
 73
     1
 44
1.0
1001
ACAD
1000
MTEXTBEGIN
1070
    73
1070
     1
1070
    44
1040
1.0
1070
    74
1070
     0
1000
MTEXTEND
  0
MTEXT
  5
368
330
A
100
AcDbEntity
  8
0
  6
Continuous
 62
     7
100
AcDbMText
 10
84.73095768477067
 20
-14.46535027350671
 30
0.0
 40
6.300000190734863
 41
0.0
 71
     1
 72
     5
  1
\W1.071;\A1;ZE135
 73
     1
 44
1.0
1001
ACAD
1000
MTEXTBEGIN
1070
    73
1070
     1
1070
    44
1040
1.0
1070
    74
1070
     0
1000
MTEXTEND
  0
INSERT
  5
369
330
A
100
AcDbEntity
  8
0
  6
ByBlock
100
AcDbBlockReference
  2
CTA25-18
 10
218.9549194171307
 20
-43.70950317382813
 30
0.0
  0
INSERT
  5
36A
330
A
100
AcDbEntity
  8
0
  6
ByBlock
100
AcDbBlockReference
  2
CTA25-17
 10
171.9543242997522
 20
-91.3095245361328
 30
0.0
  0
INSERT
  5
36B
330
A
100
AcDbEntity
  8
0
  6
ByBlock
100
AcDbBlockReference
  2
CTA25-16
 10
218.9549194123624
 20
-91.3095245361328
 30
0.0
  0
INSERT
  5
36C
330
A
100
AcDbEntity
  8
0
  6
ByBlock
100
AcDbBlockReference
  2
CTA25-15
 10
85.44596799526932
 20
-43.70951843261718
 30
0.0
  0
INSERT
  5
36D
330
A
100
AcDbEntity
  8
0
  6
ByBlock
100
AcDbBlockReference
  2
CTA25-14
 10
38.44738776180717
 20
-91.30952501651114
 30
0.0
  0
INSERT
  5
36E
330
A
100
AcDbEntity
  8
0
  6
ByBlock
100
AcDbBlockReference
  2
CTA25-13
 10
85.4459591903786
 20
-91.30952501378635
 30
0.0
  0
INSERT
  5
36F
330
A
100
AcDbEntity
  8
0
  6
ByBlock
100
AcDbBlockReference
  2
CTA25-12
 10
-60.28555297851561
 20
-43.70951843261718
 30
0.0
  0
INSERT
  5
370
330
A
100
AcDbEntity
  8
0
  6
ByBlock
100
AcDbBlockReference
  2
CTA25-11
 10
-103.3282775878906
 20
-91.30953979492188
 30
0.0
  0
INSERT
  5
371
330
A
100
AcDbEntity
  8
0
  6
ByBlock
100
AcDbBlockReference
  2
CTA25-10
 10
-60.28555297851561
 20
-91.30953979492188
 30
0.0
  0
INSERT
  5
372
330
A
100
AcDbEntity
  8
0
  6
ByBlock
100
AcDbBlockReference
  2
CTA25-9
 10
-203.0964050292969
 20
-43.70951843261718
 30
0.0
  0
INSERT
  5
373
330
A
100
AcDbEntity
  8
0
  6
ByBlock
100
AcDbBlockReference
  2
CTA25-8
 10
-247.63916015625
 20
-91.30963134765623
 30
0.0
  0
INSERT
  5
374
330
A
100
AcDbEntity
  8
0
  6
ByBlock
100
AcDbBlockReference
  2
CTA25-7
 10
-203.096435546875
 20
-91.30963134765623
 30
0.0
  0
INSERT
  5
375
330
A
100
AcDbEntity
  8
0
  6
ByBlock
100
AcDbBlockReference
  2
CTA25-6
 10
209.6691284179688
 20
101.53857421875
 30
0.0
  0
INSERT
  5
376
330
A
100
AcDbEntity
  8
0
  6
ByBlock
100
AcDbBlockReference
  2
CTA25-5
 10
128.9443664550781
 20
101.53857421875
 30
0.0
  0
INSERT
  5
377
330
A
100
AcDbEntity
  8
0
  6
ByBlock
100
AcDbBlockReference
  2
CTA25-4
 10
-10.00001811981201
 20
120.0
 30
0.0
  0
INSERT
  5
378
330
A
100
AcDbEntity
  8
0
  6
ByBlock
100
AcDbBlockReference
  2
CTA25-3
 10
89.35411071777343
 20
30.0
 30
0.0
  0
INSERT
  5
379
330
A
100
AcDbEntity
  8
0
  6
ByBlock
100
AcDbBlockReference
  2
CTA25-2
 10
-90.00001525878905
 20
30.0
 30
0.0
  0
INSERT
  5
37A
330
A
100
AcDbEntity
  8
0
  6
ByBlock
100
AcDbBlockReference
  2
CTA25-1
 10
-10.00001811981201
 20
30.0
 30
0.0
  0
MTEXT
  5
37B
330
A
100
AcDbEntity
  8
0
  6
Continuous
 62
     7
100
AcDbMText
 10
204.4192045529684
 20
131.5386657714843
 30
0.0
 40
6.300000190734863
 41
0.0
 71
     4
 72
     5
  1
\A1;-G
 73
     1
 44
1.0
1001
ACAD
1000
MTEXTBEGIN
1070
    73
1070
     1
1070
    44
1040
1.0
1070
    74
1070
     0
1000
MTEXTEND
  0
MTEXT
  5
37C
330
A
100
AcDbEntity
  8
0
  6
Continuous
 62
     7
100
AcDbMText
 10
123.6943815549214
 20
131.5386199951172
 30
0.0
 40
6.300000190734863
 41
0.0
 71
     4
 72
     5
  1
\A1;-B
 73
     1
 44
1.0
1001
ACAD
1000
MTEXTBEGIN
1070
    73
1070
     1
1070
    44
1040
1.0
1070
    74
1070
     0
1000
MTEXTEND
  0
MTEXT
  5
37D
330
A
100
AcDbEntity
  8
0
  6
Continuous
 62
     7
100
AcDbMText
 10
-82.0
 20
-173.0
 30
0.0
 40
4.5
 41
0.0
 71
     4
 72
     5
  1
50
 73
     1
 44
1.0
1001
ACAD
1000
ACAD_MTEXT_DEFINED_HEIGHT_BEGIN
1070
    46
1040
0.0
1000
ACAD_MTEXT_DEFINED_HEIGHT_END
1000
MTEXTBEGIN
1070
    73
1070
     1
1070
    44
1040
1.0
1070
    74
1070
     0
1000
MTEXTEND
  0
MTEXT
  5
37E
330
A
100
AcDbEntity
  8
0
  6
Continuous
 62
     7
100
AcDbMText
 10
-103.9318181729514
 20
-173.0
 30
0.0
 40
4.5
 41
0.0
 71
     4
 72
     5
  1
{\W1.091;45}
 73
     1
 44
1.0
1001
ACAD
1000
ACAD_MTEXT_DEFINED_HEIGHT_BEGIN
1070
    46
1040
0.0
1000
ACAD_MTEXT_DEFINED_HEIGHT_END
1000
MTEXTBEGIN
1070
    73
1070
     1
1070
    44
1040
1.0
1070
    74
1070
     0
1000
MTEXTEND
  0
MTEXT
  5
37F
330
A
100
AcDbEntity
  8
0
  6
Continuous
 62
     7
100
AcDbMText
 10
-126.0
 20
-173.0
 30
0.0
 40
4.5
 41
0.0
 71
     4
 72
     5
  1
40
 73
     1
 44
1.0
1001
ACAD
1000
ACAD_MTEXT_DEFINED_HEIGHT_BEGIN
1070
    46
1040
0.0
1000
ACAD_MTEXT_DEFINED_HEIGHT_END
1000
MTEXTBEGIN
1070
    73
1070
     1
1070
    44
1040
1.0
1070
    74
1070
     0
1000
MTEXTEND
  0
MTEXT
  5
380
330
A
100
AcDbEntity
  8
0
  6
Continuous
 62
     7
100
AcDbMText
 10
-82.0
 20
-181.0
 30
0.0
 40
4.5
 41
0.0
 71
     4
 72
     5
  1
\A1;35
 73
     1
 44
1.0
1001
ACAD
1000
MTEXTBEGIN
1070
    73
1070
     1
1070
    44
1040
1.0
1070
    74
1070
     0
1000
MTEXTEND
  0
MTEXT
  5
381
330
A
100
AcDbEntity
  8
0
  6
Continuous
 62
     7
100
AcDbMText
 10
-103.9318181729514
 20
-181.0
 30
0.0
 40
4.5
 41
0.0
 71
     4
 72
     5
  1
\W1.091;\A1;30
 73
     1
 44
1.0
1001
ACAD
1000
MTEXTBEGIN
1070
    73
1070
     1
1070
    44
1040
1.0
1070
    74
1070
     0
1000
MTEXTEND
  0
MTEXT
  5
382
330
A
100
AcDbEntity
  8
0
  6
Continuous
 62
     7
100
AcDbMText
 10
-126.0
 20
-181.0
 30
0.0
 40
4.5
 41
0.0
 71
     4
 72
     5
  1
\A1;25
 73
     1
 44
1.0
1001
ACAD
1000
MTEXTBEGIN
1070
    73
1070
     1
1070
    44
1040
1.0
1070
    74
1070
     0
1000
MTEXTEND
  0
MTEXT
  5
383
330
A
100
AcDbEntity
  8
0
  6
Continuous
 62
     7
100
AcDbMText
 10
-147.75
 20
-181.0
 30
0.0
 40
4.5
 41
0.0
 71
     4
 72
     5
  1
\W1.333;\A1;10
 73
     1
 44
1.0
1001
ACAD
1000
MTEXTBEGIN
1070
    73
1070
     1
1070
    44
1040
1.0
1070
    74
1070
     0
1000
MTEXTEND
  0
MTEXT
  5
384
330
A
100
AcDbEntity
  8
0
  6
Continuous
 62
     7
100
AcDbMText
 10
-167.75
 20
-181.0
 30
0.0
 40
4.5
 41
0.0
 71
     4
 72
     5
  1
\A1;5
 73
     1
 44
1.0
1001
ACAD
1000
MTEXTBEGIN
1070
    73
1070
     1
1070
    44
1040
1.0
1070
    74
1070
     0
1000
MTEXTEND
  0
MTEXT
  5
385
330
A
100
AcDbEntity
  8
0
  6
Continuous
 62
     7
100
AcDbMText
 10
-147.8500000107288
 20
-173.0
 30
0.0
 40
4.5
 41
0.0
 71
     4
 72
     5
  1
{\W1.2;20}
 73
     1
 44
1.0
1001
ACAD
1000
ACAD_MTEXT_DEFINED_HEIGHT_BEGIN
1070
    46
1040
0.0
1000
ACAD_MTEXT_DEFINED_HEIGHT_END
1000
MTEXTBEGIN
1070
    73
1070
     1
1070
    44
1040
1.0
1070
    74
1070
     0
1000
MTEXTEND
  0
MTEXT
  5
386
330
A
100
AcDbEntity
  8
0
  6
Continuous
 62
     7
100
AcDbMText
 10
-169.75
 20
-173.0
 30
0.0
 40
4.5
 41
0.0
 71
     4
 72
     5
  1
{\W1.333;15}
 73
     1
 44
1.0
1001
ACAD
1000
ACAD_MTEXT_DEFINED_HEIGHT_BEGIN
1070
    46
1040
0.0
1000
ACAD_MTEXT_DEFINED_HEIGHT_END
1000
MTEXTBEGIN
1070
    73
1070
     1
1070
    44
1040
1.0
1070
    74
1070
     0
1000
MTEXTEND
  0
MTEXT
  5
387
330
A
100
AcDbEntity
  8
0
  6
Continuous
 62
     7
100
AcDbMText
 10
-189.75
 20
-173.0
 30
0.0
 40
4.5
 41
0.0
 71
     4
 72
     5
  1
10
 73
     1
 44
1.0
1001
ACAD
1000
ACAD_MTEXT_DEFINED_HEIGHT_BEGIN
1070
    46
1040
0.0
1000
ACAD_MTEXT_DEFINED_HEIGHT_END
1000
MTEXTBEGIN
1070
    73
1070
     1
1070
    44
1040
1.0
1070
    74
1070
     0
1000
MTEXTEND
  0
MTEXT
  5
388
330
A
100
AcDbEntity
  8
0
  6
Continuous
 62
     7
100
AcDbMText
 10
-189.5999999785423
 20
-181.0
 30
0.0
 40
4.5
 41
0.0
 71
     4
 72
     5
  1
\W1.200;\A1;0
 73
     1
 44
1.0
1001
ACAD
1000
MTEXTBEGIN
1070
    73
1070
     1
1070
    44
1040
1.0
1070
    74
1070
     0
1000
MTEXTEND
  0
MTEXT
  5
389
330
A
100
AcDbEntity
  8
0
  6
Continuous
 62
     7
100
AcDbMText
 10
-82.0
 20
-165.0
 30
0.0
 40
4.5
 41
0.0
 71
     4
 72
     5
  1
\A1;25
 73
     1
 44
1.0
1001
ACAD
1000
MTEXTBEGIN
1070
    73
1070
     1
1070
    44
1040
1.0
1070
    74
1070
     0
1000
MTEXTEND
  0
MTEXT
  5
38A
330
A
100
AcDbEntity
  8
0
  6
Continuous
 62
     7
100
AcDbMText
 10
-103.9318181729514
 20
-165.0
 30
0.0
 40
4.5
 41
0.0
 71
     4
 72
     5
  1
\W1.091;\A1;20
 73
     1
 44
1.0
1001
ACAD
1000
MTEXTBEGIN
1070
    73
1070
     1
1070
    44
1040
1.0
1070
    74
1070
     0
1000
MTEXTEND
  0
MTEXT
  5
38B
330
A
100
AcDbEntity
  8
0
  6
Continuous
 62
     7
100
AcDbMText
 10
-82.0
 20
-157.0
 30
0.0
 40
4.5
 41
0.0
 71
     4
 72
     5
  1
\A1;35
 73
     1
 44
1.0
1001
ACAD
1000
MTEXTBEGIN
1070
    73
1070
     1
1070
    44
1040
1.0
1070
    74
1070
     0
1000
MTEXTEND
  0
MTEXT
  5
38C
330
A
100
AcDbEntity
  8
0
  6
Continuous
 62
     7
100
AcDbMText
 10
-103.9318181729514
 20
-157.0
 30
0.0
 40
4.5
 41
0.0
 71
     4
 72
     5
  1
\W1.091;\A1;30
 73
     1
 44
1.0
1001
ACAD
1000
MTEXTBEGIN
1070
    73
1070
     1
1070
    44
1040
1.0
1070
    74
1070
     0
1000
MTEXTEND
  0
MTEXT
  5
38D
330
A
100
AcDbEntity
  8
0
  6
Continuous
 62
     7
100
AcDbMText
 10
-125.8500000107288
 20
-165.0
 30
0.0
 40
4.5
 41
0.0
 71
     4
 72
     5
  1
\W1.200;\A1;15
 73
     1
 44
1.0
1001
ACAD
1000
MTEXTBEGIN
1070
    73
1070
     1
1070
    44
1040
1.0
1070
    74
1070
     0
1000
MTEXTEND
  0
MTEXT
  5
38E
330
A
100
AcDbEntity
  8
0
  6
Continuous
 62
     7
100
AcDbMText
 10
-126.0
 20
-157.0
 30
0.0
 40
4.5
 41
0.0
 71
     4
 72
     5
  1
\A1;25
 73
     1
 44
1.0
1001
ACAD
1000
MTEXTBEGIN
1070
    73
1070
     1
1070
    44
1040
1.0
1070
    74
1070
     0
1000
MTEXTEND
  0
MTEXT
  5
38F
330
A
100
AcDbEntity
  8
0
  6
Continuous
 62
     7
100
AcDbMText
 10
-147.75
 20
-165.0
 30
0.0
 40
4.5
 41
0.0
 71
     4
 72
     5
  1
\W1.333;\A1;10
 73
     1
 44
1.0
1001
ACAD
1000
MTEXTBEGIN
1070
    73
1070
     1
1070
    44
1040
1.0
1070
    74
1070
     0
1000
MTEXTEND
  0
MTEXT
  5
390
330
A
100
AcDbEntity
  8
0
  6
Continuous
 62
     7
100
AcDbMText
 10
-147.75
 20
-157.0
 30
0.0
 40
4.5
 41
0.0
 71
     4
 72
     5
  1
\W1.333;\A1;10
 73
     1
 44
1.0
1001
ACAD
1000
MTEXTBEGIN
1070
    73
1070
     1
1070
    44
1040
1.0
1070
    74
1070
     0
1000
MTEXTEND
  0
MTEXT
  5
391
330
A
100
AcDbEntity
  8
0
  6
Continuous
 62
     7
100
AcDbMText
 10
-167.75
 20
-165.0
 30
0.0
 40
4.5
 41
0.0
 71
     4
 72
     5
  1
\A1;5
 73
     1
 44
1.0
1001
ACAD
1000
MTEXTBEGIN
1070
    73
1070
     1
1070
    44
1040
1.0
1070
    74
1070
     0
1000
MTEXTEND
  0
MTEXT
  5
392
330
A
100
AcDbEntity
  8
0
  6
Continuous
 62
     7
100
AcDbMText
 10
-167.75
 20
-157.0
 30
0.0
 40
4.5
 41
0.0
 71
     4
 72
     5
  1
\A1;5
 73
     1
 44
1.0
1001
ACAD
1000
MTEXTBEGIN
1070
    73
1070
     1
1070
    44
1040
1.0
1070
    74
1070
     0
1000
MTEXTEND
  0
MTEXT
  5
393
330
A
100
AcDbEntity
  8
0
  6
Continuous
 62
     7
100
AcDbMText
 10
-189.5999999785423
 20
-165.0
 30
0.0
 40
4.5
 41
0.0
 71
     4
 72
     5
  1
\W1.200;\A1;0
 73
     1
 44
1.0
1001
ACAD
1000
MTEXTBEGIN
1070
    73
1070
     1
1070
    44
1040
1.0
1070
    74
1070
     0
1000
MTEXTEND
  0
MTEXT
  5
394
330
A
100
AcDbEntity
  8
0
  6
Continuous
 62
     7
100
AcDbMText
 10
-189.5999999785423
 20
-157.0
 30
0.0
 40
4.5
 41
0.0
 71
     4
 72
     5
  1
\W1.200;\A1;0
 73
     1
 44
1.0
1001
ACAD
1000
MTEXTBEGIN
1070
    73
1070
     1
1070
    44
1040
1.0
1070
    74
1070
     0
1000
MTEXTEND
  0
MTEXT
  5
395
330
A
100
AcDbEntity
  8
0
  6
Continuous
 62
     7
100
AcDbMText
 10
-86.62500002483525
 20
-125.0
 30
0.0
 40
4.5
 41
0.0
 71
     4
 72
     5
  1
\W0.833;\A1;（ｍｍ）
 73
     1
 44
1.0
1001
ACAD
1000
MTEXTBEGIN
1070
    73
1070
     1
1070
    44
1040
1.0
1070
    74
1070
     0
1000
MTEXTEND
  0
MTEXT
  5
396
330
A
100
AcDbEntity
  8
0
  6
Continuous
 62
     7
100
AcDbMText
 10
-211.75
 20
-181.0
 30
0.0
 40
4.5
 41
0.0
 71
     4
 72
     5
  1
\A1;B
 73
     1
 44
1.0
1001
ACAD
1000
MTEXTBEGIN
1070
    73
1070
     1
1070
    44
1040
1.0
1070
    74
1070
     0
1000
MTEXTEND
  0
MTEXT
  5
397
330
A
100
AcDbEntity
  8
0
  6
Continuous
 62
     7
100
AcDbMText
 10
-211.75
 20
-173.0
 30
0.0
 40
4.5
 41
0.0
 71
     4
 72
     5
  1
\A1;A
 73
     1
 44
1.0
1001
ACAD
1000
MTEXTBEGIN
1070
    73
1070
     1
1070
    44
1040
1.0
1070
    74
1070
     0
1000
MTEXTEND
  0
MTEXT
  5
398
330
A
100
AcDbEntity
  8
0
  6
Continuous
 62
     7
100
AcDbMText
 10
-211.75
 20
-165.0
 30
0.0
 40
4.5
 41
0.0
 71
     4
 72
     5
  1
\A1;B
 73
     1
 44
1.0
1001
ACAD
1000
MTEXTBEGIN
1070
    73
1070
     1
1070
    44
1040
1.0
1070
    74
1070
     0
1000
MTEXTEND
  0
MTEXT
  5
399
330
A
100
AcDbEntity
  8
0
  6
Continuous
 62
     7
100
AcDbMText
 10
-211.75
 20
-157.0
 30
0.0
 40
4.5
 41
0.0
 71
     4
 72
     5
  1
\A1;A
 73
     1
 44
1.0
1001
ACAD
1000
MTEXTBEGIN
1070
    73
1070
     1
1070
    44
1040
1.0
1070
    74
1070
     0
1000
MTEXTEND
  0
MTEXT
  5
39A
330
A
100
AcDbEntity
  8
0
  6
Continuous
 62
     7
100
AcDbMText
 10
-238.5239999140364
 20
-145.0
 30
0.0
 40
4.050000096559527
 41
0.0
 71
     4
 72
     5
  1
\T0.984;\W1.129;\A1;STRETCH\P   PLACE
 73
     1
 44
1.0
1001
ACAD
1000
MTEXTBEGIN
1070
    73
1070
     1
1070
    44
1040
1.0
1070
    74
1070
     0
1000
MTEXTEND
  0
MTEXT
  5
39B
330
A
100
AcDbEntity
  8
0
  6
Continuous
 62
     7
100
AcDbMText
 10
-195.4511834333613
 20
-124.0
 30
0.0
 40
4.5
 41
0.0
 71
     4
 72
     5
  1
\W1.065;\A1;STRETCH LIST
 73
     1
 44
1.0
1001
ACAD
1000
MTEXTBEGIN
1070
    73
1070
     1
1070
    44
1040
1.0
1070
    74
1070
     0
1000
MTEXTEND
  0
MTEXT
  5
39C
330
A
100
AcDbEntity
  8
0
  6
Continuous
 62
     7
100
AcDbMText
 10
-240.6188049316406
 20
-133.0
 30
0.0
 40
4.5
 41
0.0
 71
     4
 72
     5
  1
\A1;STROKE
 73
     1
 44
1.0
1001
ACAD
1000
MTEXTBEGIN
1070
    73
1070
     1
1070
    44
1040
1.0
1070
    74
1070
     0
1000
MTEXTEND
  0
MTEXT
  5
39D
330
A
100
AcDbEntity
  8
0
  6
Continuous
 62
     7
100
AcDbMText
 10
-266.999755859375
 20
-145.0
 30
0.0
 40
4.5
 41
0.0
 71
     4
 72
     5
  1
\A1;TYPE
 73
     1
 44
1.0
1001
ACAD
1000
MTEXTBEGIN
1070
    73
1070
     1
1070
    44
1040
1.0
1070
    74
1070
     0
1000
MTEXTEND
  0
MTEXT
  5
39E
330
A
100
AcDbEntity
  8
0
  6
Continuous
 62
     7
100
AcDbMText
 10
-259.0
 20
-161.0
 30
0.0
 40
4.5
 41
0.0
 71
     4
 72
     5
  1
\A1;CTA25
 73
     1
 44
1.0
1001
ACAD
1000
MTEXTBEGIN
1070
    73
1070
     1
1070
    44
1040
1.0
1070
    74
1070
     0
1000
MTEXTEND
  0
MTEXT
  5
39F
330
A
100
AcDbEntity
  8
0
  6
Continuous
 62
     7
100
AcDbMText
 10
-259.0
 20
-177.0
 30
0.0
 40
4.5
 41
0.0
 71
     4
 72
     5
  1
\A1;CTAS25
 73
     1
 44
1.0
1001
ACAD
1000
MTEXTBEGIN
1070
    73
1070
     1
1070
    44
1040
1.0
1070
    74
1070
     0
1000
MTEXTEND
  0
MTEXT
  5
3A0
330
A
100
AcDbEntity
  8
0
  6
Continuous
 62
     7
100
AcDbMText
 10
-81.93181817295139
 20
-141.0
 30
0.0
 40
4.5
 41
0.0
 71
     4
 72
     5
  1
\W1.091;\A1;30
 73
     1
 44
1.0
1001
ACAD
1000
MTEXTBEGIN
1070
    73
1070
     1
1070
    44
1040
1.0
1070
    74
1070
     0
1000
MTEXTEND
  0
MTEXT
  5
3A1
330
A
100
AcDbEntity
  8
0
  6
Continuous
 62
     7
100
AcDbMText
 10
-104.0
 20
-141.0
 30
0.0
 40
4.5
 41
0.0
 71
     4
 72
     5
  1
\A1;25
 73
     1
 44
1.0
1001
ACAD
1000
MTEXTBEGIN
1070
    73
1070
     1
1070
    44
1040
1.0
1070
    74
1070
     0
1000
MTEXTEND
  0
MTEXT
  5
3A2
330
A
100
AcDbEntity
  8
0
  6
Continuous
 62
     7
100
AcDbMText
 10
-125.9318181729514
 20
-141.0
 30
0.0
 40
4.5
 41
0.0
 71
     4
 72
     5
  1
\W1.091;\A1;20
 73
     1
 44
1.0
1001
ACAD
1000
MTEXTBEGIN
1070
    73
1070
     1
1070
    44
1040
1.0
1070
    74
1070
     0
1000
MTEXTEND
  0
MTEXT
  5
3A3
330
A
100
AcDbEntity
  8
0
  6
Continuous
 62
     7
100
AcDbMText
 10
-147.8500000107288
 20
-141.0
 30
0.0
 40
4.5
 41
0.0
 71
     4
 72
     5
  1
\W1.200;\A1;15
 73
     1
 44
1.0
1001
ACAD
1000
MTEXTBEGIN
1070
    73
1070
     1
1070
    44
1040
1.0
1070
    74
1070
     0
1000
MTEXTEND
  0
MTEXT
  5
3A4
330
A
100
AcDbEntity
  8
0
  6
Continuous
 62
     7
100
AcDbMText
 10
-169.75
 20
-141.0
 30
0.0
 40
4.5
 41
0.0
 71
     4
 72
     5
  1
\W1.333;\A1;10
 73
     1
 44
1.0
1001
ACAD
1000
MTEXTBEGIN
1070
    73
1070
     1
1070
    44
1040
1.0
1070
    74
1070
     0
1000
MTEXTEND
  0
MTEXT
  5
3A5
330
A
100
AcDbEntity
  8
0
  6
Continuous
 62
     7
100
AcDbMText
 10
-189.75
 20
-141.0
 30
0.0
 40
4.5
 41
0.0
 71
     4
 72
     5
  1
\A1;5
 73
     1
 44
1.0
1001
ACAD
1000
MTEXTBEGIN
1070
    73
1070
     1
1070
    44
1040
1.0
1070
    74
1070
     0
1000
MTEXTEND
  0
MTEXT
  5
3A6
330
A
100
AcDbEntity
  8
0
  6
Continuous
 62
     3
100
AcDbMText
 10
-78.27577206437219
 20
167.3827362060547
 30
0.0
 40
6.300000190734863
 41
0.0
 71
     4
 72
     5
  1
\W1.088;\A1;STRETCH LINE A
 73
     1
 44
1.0
1001
ACAD
1000
MTEXTBEGIN
1070
    73
1070
     1
1070
    44
1040
1.0
1070
    74
1070
     0
1000
MTEXTEND
  0
MTEXT
  5
3A7
330
A
100
AcDbEntity
  8
0
  6
Continuous
 62
     7
100
AcDbMText
 10
-230.5499970118205
 20
150.5
 30
0.0
 40
6.300000190734863
 41
0.0
 71
     4
 72
     5
  1
\A1;CTAS25*ST
 73
     1
 44
1.0
1001
ACAD
1000
MTEXTBEGIN
1070
    73
1070
     1
1070
    44
1040
1.0
1070
    74
1070
     0
1000
MTEXTEND
  0
MTEXT
  5
3A8
330
A
100
AcDbEntity
  8
0
  6
Continuous
 62
     7
100
AcDbMText
 10
-268.2606383623575
 20
160.5
 30
0.0
 40
6.300000190734863
 41
0.0
 71
     4
 72
     5
  1
\W1.085;\A1;MODEL:CTA25*ST(5)
 73
     1
 44
1.0
1001
ACAD
1000
MTEXTBEGIN
1070
    73
1070
     1
1070
    44
1040
1.0
1070
    74
1070
     0
1000
MTEXTEND
  0
MTEXT
  5
3A9
330
A
100
AcDbEntity
  8
0
  6
Continuous
 62
     3
100
AcDbMText
 10
-98.56775185410606
 20
152.3827819824218
 30
0.0
 40
6.300000190734863
 41
0.0
 71
     4
 72
     5
  1
\W1.088;\A1;STRETCH LINE B
 73
     1
 44
1.0
1001
ACAD
1000
MTEXTBEGIN
1070
    73
1070
     1
1070
    44
1040
1.0
1070
    74
1070
     0
1000
MTEXTEND
  0
MTEXT
  5
3AA
330
A
100
AcDbEntity
  8
0
  6
Continuous
 62
     7
100
AcDbMText
 10
-257.8975620893169
 20
185.5
 30
0.0
 40
6.300000190734863
 41
0.0
 71
     4
 72
     5
  1
\W1.098;\A1;JIG CYLINDER
 73
     1
 44
1.0
1001
ACAD
1000
MTEXTBEGIN
1070
    73
1070
     1
1070
    44
1040
1.0
1070
    74
1070
     0
1000
MTEXTEND
  0
MTEXT
  5
3AB
330
A
100
AcDbEntity
  8
0
  6
Continuous
 62
     7
100
AcDbMText
 10
170.2810100643772
 20
-185.0
 30
0.0
 40
9.0
 41
0.0
 71
     4
 72
     5
  1
\W1.121;\A1;KOGANEI CORP.
 73
     1
 44
1.0
1001
ACAD
1000
MTEXTBEGIN
1070
    73
1070
     1
1070
    44
1040
1.0
1070
    74
1070
     0
1000
MTEXTEND
  0
MTEXT
  5
3AC
330
A
100
AcDbEntity
  8
0
  6
Continuous
 62
     7
100
AcDbMText
 10
198.205674336329
 20
185.5
 30
0.0
 40
6.300000190734863
 41
0.0
 71
     4
 72
     5
  1
{\W1.244;Ver. 3.0}
 73
     1
 44
1.0
1001
ACAD
1000
ACAD_MTEXT_DEFINED_HEIGHT_BEGIN
1070
    46
1040
0.0
1000
ACAD_MTEXT_DEFINED_HEIGHT_END
1000
MTEXTBEGIN
1070
    73
1070
     1
1070
    44
1040
1.0
1070
    74
1070
     0
1000
MTEXTEND
  0
LINE
  5
3AD
330
A
100
AcDbEntity
  8
0
  6
Continuous
 62
     7
100
AcDbLine
 10
-199.25
 20
-153.0
 30
0.0
 11
-208.48
 21
-137.0
 31
0.0
  0
LINE
  5
3AE
330
A
100
AcDbEntity
  8
0
  6
Continuous
 62
     7
100
AcDbLine
 10
-247.25
 20
-137.0
 30
0.0
 11
-208.48
 21
-137.0
 31
0.0
  0
LINE
  5
3AF
330
A
100
AcDbEntity
  8
0
  6
Continuous
 62
     7
100
AcDbLine
 10
-271.25
 20
-129.0
 30
0.0
 11
-247.25
 21
-137.0
 31
0.0
  0
LINE
  5
3B0
330
A
100
AcDbEntity
  8
0
  6
Continuous
 62
     7
100
AcDbLine
 10
-221.25
 20
-177.0
 30
0.0
 11
-67.25
 21
-177.0
 31
0.0
  0
LINE
  5
3B1
330
A
100
AcDbEntity
  8
0
  6
Continuous
 62
     7
100
AcDbLine
 10
-271.25
 20
-169.0
 30
0.0
 11
-67.25
 21
-169.0
 31
0.0
  0
LINE
  5
3B2
330
A
100
AcDbEntity
  8
0
  6
Continuous
 62
     7
100
AcDbLine
 10
-67.25
 20
-129.0
 30
0.0
 11
-67.25
 21
-185.0
 31
0.0
  0
LINE
  5
3B3
330
A
100
AcDbEntity
  8
0
  6
Continuous
 62
     7
100
AcDbLine
 10
-89.25
 20
-129.0
 30
0.0
 11
-89.25
 21
-185.0
 31
0.0
  0
LINE
  5
3B4
330
A
100
AcDbEntity
  8
0
  6
Continuous
 62
     7
100
AcDbLine
 10
-111.25
 20
-129.0
 30
0.0
 11
-111.25
 21
-185.0
 31
0.0
  0
LINE
  5
3B5
330
A
100
AcDbEntity
  8
0
  6
Continuous
 62
     7
100
AcDbLine
 10
-133.25
 20
-129.0
 30
0.0
 11
-133.25
 21
-185.0
 31
0.0
  0
LINE
  5
3B6
330
A
100
AcDbEntity
  8
0
  6
Continuous
 62
     7
100
AcDbLine
 10
-155.25
 20
-129.0
 30
0.0
 11
-155.25
 21
-185.0
 31
0.0
  0
LINE
  5
3B7
330
A
100
AcDbEntity
  8
0
  6
Continuous
 62
     7
100
AcDbLine
 10
-177.25
 20
-129.0
 30
0.0
 11
-177.25
 21
-185.0
 31
0.0
  0
LINE
  5
3B8
330
A
100
AcDbEntity
  8
0
  6
Continuous
 62
     7
100
AcDbLine
 10
-199.25
 20
-129.0
 30
0.0
 11
-199.25
 21
-185.0
 31
0.0
  0
LINE
  5
3B9
330
A
100
AcDbEntity
  8
0
  6
Continuous
 62
     7
100
AcDbLine
 10
-221.25
 20
-153.0
 30
0.0
 11
-271.25
 21
-129.0
 31
0.0
  0
LINE
  5
3BA
330
A
100
AcDbEntity
  8
0
  6
Continuous
 62
     7
100
AcDbLine
 10
-221.25
 20
-153.0
 30
0.0
 11
-221.25
 21
-185.0
 31
0.0
  0
LINE
  5
3BB
330
A
100
AcDbEntity
  8
0
  6
Continuous
 62
     7
100
AcDbLine
 10
-271.25
 20
-129.0
 30
0.0
 11
-67.25
 21
-129.0
 31
0.0
  0
LINE
  5
3BC
330
A
100
AcDbEntity
  8
0
  6
Continuous
 62
     7
100
AcDbLine
 10
-271.25
 20
-153.0
 30
0.0
 11
-67.25
 21
-153.0
 31
0.0
  0
LINE
  5
3BD
330
A
100
AcDbEntity
  8
0
  6
Continuous
 62
     7
100
AcDbLine
 10
-221.25
 20
-161.0
 30
0.0
 11
-67.25
 21
-161.0
 31
0.0
  0
LINE
  5
3BE
330
A
100
AcDbEntity
  8
0
  6
Continuous
 62
     7
100
AcDbLine
 10
-271.25
 20
-185.0
 30
0.0
 11
-67.25
 21
-185.0
 31
0.0
  0
LINE
  5
3BF
330
A
100
AcDbEntity
  8
0
  6
Continuous
 62
     7
100
AcDbLine
 10
-271.25
 20
-129.0
 30
0.0
 11
-271.25
 21
-185.0
 31
0.0
  0
LINE
  5
3C0
330
A
100
AcDbEntity
  8
0
  6
Continuous
 62
     7
100
AcDbLine
 10
209.67
 20
116.53
 30
0.0
 11
209.67
 21
86.53
 31
0.0
  0
LINE
  5
3C1
330
A
100
AcDbEntity
  8
0
  6
Continuous
 62
     7
100
AcDbLine
 10
128.94
 20
116.53
 30
0.0
 11
128.94
 21
86.53
 31
0.0
  0
LINE
  5
3C2
330
A
100
AcDbEntity
  8
0
  6
CENTER
 62
     2
100
AcDbLine
 10
95.16
 20
101.53
 30
0.0
 11
135.94
 21
101.53
 31
0.0
  0
LINE
  5
3C3
330
A
100
AcDbEntity
  8
0
  6
CENTER
 62
     2
100
AcDbLine
 10
193.82
 20
101.53
 30
0.0
 11
216.67
 21
101.53
 31
0.0
  0
LINE
  5
3C4
330
A
100
AcDbEntity
  8
0
  6
Continuous
 62
     7
100
AcDbLine
 10
-161.25
 20
195.5
 30
0.0
 11
-161.25
 21
175.5
 31
0.0
  0
LINE
  5
3C5
330
A
100
AcDbEntity
  8
0
  6
Continuous
 62
     7
100
AcDbLine
 10
162.1
 20
195.5
 30
0.0
 11
162.1
 21
175.5
 31
0.0
  0
LINE
  5
3C6
330
A
100
AcDbEntity
  8
0
  6
Continuous
 62
     7
100
AcDbLine
 10
-281.25
 20
175.5
 30
0.0
 11
-161.25
 21
175.5
 31
0.0
  0
LINE
  5
3C7
330
A
100
AcDbEntity
  8
0
  6
Continuous
 62
     7
100
AcDbLine
 10
162.1
 20
175.5
 30
0.0
 11
282.1
 21
175.5
 31
0.0
  0
LINE
  5
3C8
330
A
100
AcDbEntity
  8
0
  6
Continuous
 62
     7
100
AcDbLine
 10
162.1
 20
-175.0
 30
0.0
 11
282.1
 21
-175.0
 31
0.0
  0
LINE
  5
3C9
330
A
100
AcDbEntity
  8
0
  6
Continuous
 62
     7
100
AcDbLine
 10
162.1
 20
-175.0
 30
0.0
 11
162.1
 21
-195.0
 31
0.0
  0
LINE
  5
3CA
330
A
100
AcDbEntity
  8
0
  6
Continuous
 62
     7
100
AcDbLine
 10
-281.25
 20
-195.0
 30
0.0
 11
282.1
 21
-195.0
 31
0.0
  0
LINE
  5
3CB
330
A
100
AcDbEntity
  8
0
  6
Continuous
 62
     7
100
AcDbLine
 10
282.1
 20
195.5
 30
0.0
 11
282.1
 21
-195.0
 31
0.0
  0
LINE
  5
3CC
330
A
100
AcDbEntity
  8
0
  6
Continuous
 62
     7
100
AcDbLine
 10
-281.25
 20
195.5
 30
0.0
 11
-281.25
 21
-195.0
 31
0.0
  0
LINE
  5
3CD
330
A
100
AcDbEntity
  8
0
  6
Continuous
 62
     7
100
AcDbLine
 10
-281.25
 20
195.5
 30
0.0
 11
282.1
 21
195.5
 31
0.0
  0
ENDSEC
  0
SECTION
  2
OBJECTS
  0
DICTIONARY
  5
19
330
0
100
AcDbDictionary
281
     1
  3
ACAD_COLOR
350
3D6
  3
ACAD_GROUP
350
1A
  3
ACAD_LAYOUT
350
3D9
  3
ACAD_MATERIAL
350
3D5
  3
ACAD_MLINESTYLE
350
1B
  3
ACAD_PLOTSETTINGS
350
3DA
  3
ACAD_PLOTSTYLENAME
350
3D3
  3
ACAD_TABLESTYLE
350
3D7
  3
ACDBHEADERROUNDTRIPXREC
350
3E6
  3
AcDbVariableDictionary
350
3E1
  0
DICTIONARY
  5
3D6
102
{ACAD_REACTORS
330
19
102
}
330
19
100
AcDbDictionary
281
     1
  0
DICTIONARY
  5
1A
102
{ACAD_REACTORS
330
19
102
}
330
19
100
AcDbDictionary
281
     1
  0
DICTIONARY
  5
3D9
102
{ACAD_REACTORS
330
19
102
}
330
19
100
AcDbDictionary
281
     1
  3
Model
350
3DB
  3
レイアウト1
350
3DC
  0
DICTIONARY
  5
3D5
102
{ACAD_REACTORS
330
19
102
}
330
19
100
AcDbDictionary
281
     1
  0
DICTIONARY
  5
1B
102
{ACAD_REACTORS
330
19
102
}
330
19
100
AcDbDictionary
281
     1
  3
STANDARD
350
1C
  0
DICTIONARY
  5
3DA
102
{ACAD_REACTORS
330
19
102
}
330
19
100
AcDbDictionary
281
     1
  0
ACDBDICTIONARYWDFLT
  5
3D3
102
{ACAD_REACTORS
330
19
102
}
330
19
100
AcDbDictionary
281
     1
  3
Normal
350
3D4
100
AcDbDictionaryWithDefault
340
3D4
  0
DICTIONARY
  5
3D7
102
{ACAD_REACTORS
330
19
102
}
330
19
100
AcDbDictionary
281
     1
  3
Standard
350
3D8
  0
DICTIONARY
  5
3E6
102
{ACAD_REACTORS
330
19
102
}
330
19
100
AcDbDictionary
281
     1
  0
DICTIONARY
  5
3E1
102
{ACAD_REACTORS
330
19
102
}
330
19
100
AcDbDictionary
281
     1
  3
CTABLESTYLE
350
3E2
  3
DIMASSOC
350
3E3
  3
PROJECTNAME
350
3E4
  0
LAYOUT
  5
3DB
102
{ACAD_XDICTIONARY
360
3E7
102
}
102
{ACAD_REACTORS
330
3D9
102
}
330
3D9
100
AcDbPlotSettings
  1

  2
DocuCentre Color f450
  4

  6

 40
0.0
 41
0.0
 42
0.0
 43
0.0
 44
0.0
 45
0.0
 46
0.0
 47
0.0
 48
0.0
 49
0.0
140
0.0
141
0.0
142
1.0
143
1.0
 70
  1712
 72
     0
 73
     0
 74
     0
  7

 75
     0
147
1.0
148
0.0
149
0.0
100
AcDbLayout
  1
Model
 70
     1
 71
     0
 10
0.0
 20
0.0
 11
12.0
 21
9.0
 12
0.0
 22
0.0
 32
0.0
 14
0.0
 24
0.0
 34
0.0
 15
0.0
 25
0.0
 35
0.0
146
0.0
 13
0.0
 23
0.0
 33
0.0
 16
1.0
 26
0.0
 36
0.0
 17
0.0
 27
1.0
 37
0.0
 76
     0
330
A
  0
LAYOUT
  5
3DC
102
{ACAD_XDICTIONARY
360
3E9
102
}
102
{ACAD_REACTORS
330
3D9
102
}
330
3D9
100
AcDbPlotSettings
  1

  2
DocuCentre Color f450
  4

  6

 40
0.0
 41
0.0
 42
0.0
 43
0.0
 44
0.0
 45
0.0
 46
0.0
 47
0.0
 48
0.0
 49
0.0
140
0.0
141
0.0
142
1.0
143
1.0
 70
   688
 72
     0
 73
     0
 74
     5
  7

 75
    16
147
1.0
148
0.0
149
0.0
100
AcDbLayout
  1
レイアウト1
 70
     0
 71
     1
 10
0.0
 20
0.0
 11
12.0
 21
9.0
 12
0.0
 22
0.0
 32
0.0
 14
1.000000000000000E+20
 24
1.000000000000000E+20
 34
1.000000000000000E+20
 15
-1.000000000000000E+20
 25
-1.000000000000000E+20
 35
-1.000000000000000E+20
146
0.0
 13
0.0
 23
0.0
 33
0.0
 16
1.0
 26
0.0
 36
0.0
 17
0.0
 27
1.0
 37
0.0
 76
     0
330
B
  0
MLINESTYLE
  5
1C
102
{ACAD_REACTORS
330
1B
102
}
330
1B
100
AcDbMlineStyle
  2
STANDARD
 70
     0
  3

 62
     0
 51
90.0
 52
90.0
 71
     2
 49
0.5
 62
   256
  6
BYLAYER
 49
-0.5
 62
   256
  6
BYLAYER
  0
ACDBPLACEHOLDER
  5
3D4
102
{ACAD_REACTORS
330
3D3
102
}
330
3D3
  0
TABLESTYLE
  5
3D8
102
{ACAD_REACTORS
330
3D7
102
}
330
3D7
100
AcDbTableStyle
  3
Standard
 70
     0
 71
     0
 40
0.06
 41
0.06
280
     0
281
     0
  7
MX_NOTE_STANDARD
140
0.18
170
     2
 62
     0
 63
     7
283
     0
274
    -2
284
     1
 64
     0
275
    -2
285
     1
 65
     0
276
    -2
286
     1
 66
     0
277
    -2
287
     1
 67
     0
278
    -2
288
     1
 68
     0
279
    -2
289
     1
 69
     0
  7
MX_NOTE_STANDARD
140
0.25
170
     5
 62
     0
 63
     7
283
     0
274
    -2
284
     1
 64
     0
275
    -2
285
     1
 65
     0
276
    -2
286
     1
 66
     0
277
    -2
287
     1
 67
     0
278
    -2
288
     1
 68
     0
279
    -2
289
     1
 69
     0
  7
MX_NOTE_STANDARD
140
0.18
170
     5
 62
     0
 63
     7
283
     0
274
    -2
284
     1
 64
     0
275
    -2
285
     1
 65
     0
276
    -2
286
     1
 66
     0
277
    -2
287
     1
 67
     0
278
    -2
288
     1
 68
     0
279
    -2
289
     1
 69
     0
  0
DICTIONARYVAR
  5
3E2
102
{ACAD_REACTORS
330
3E1
102
}
330
3E1
100
DictionaryVariables
280
     0
  1
STANDARD
  0
DICTIONARYVAR
  5
3E3
102
{ACAD_REACTORS
330
3E1
102
}
330
3E1
100
DictionaryVariables
280
     0
  1
1
  0
DICTIONARYVAR
  5
3E4
102
{ACAD_REACTORS
330
3E1
102
}
330
3E1
100
DictionaryVariables
280
     0
  1

  0
DICTIONARY
  5
3E7
330
3DB
100
AcDbDictionary
280
     1
281
     1
  3
ACAD_XREC_ROUNDTRIP
360
3E8
  0
DICTIONARY
  5
3E9
330
3DC
100
AcDbDictionary
280
     1
281
     1
  3
ACAD_XREC_ROUNDTRIP
360
3EA
  0
XRECORD
  5
3E8
102
{ACAD_REACTORS
330
3E7
102
}
330
3E7
100
AcDbXrecord
280
     1
102
SHADEPLOT
 70
     0
102
SHADEPLOTRESLEVEL
 70
     2
102
SHADEPLOTCUSTOMDPI
 70
   300
  0
XRECORD
  5
3EA
102
{ACAD_REACTORS
330
3E9
102
}
330
3E9
100
AcDbXrecord
280
     1
102
SHADEPLOT
 70
     0
102
SHADEPLOTRESLEVEL
 70
     2
102
SHADEPLOTCUSTOMDPI
 70
   300
  0
ENDSEC
  0
EOF
