  0
SECTION
  2
HEADER
  0
ENDSEC
  0
SECTION
  2
TABLES
  0
TABLE
  2
LTYPE
 70
     4
  0
LTYPE
  2
CONTINUOUS
 70
    64
  3
Solid line
 72
    65
 73
     0
 40
0.000000
  0
LTYPE
  2
DASHED
 70
    64
  3
__ __ __ __ __ __ __ __ __ __ __ __ __ __ __
 72
    65
 73
     2
 40
3.500000
 49
2.000000
 49
-1.500000
  0
LTYPE
  2
CENTER
 70
    64
  3
____ _ ____ _ ____ _ ____ _ ____ _ ____ _ ____
 72
    65
 73
     4
 40
17.500000
 49
13.000000
 49
-1.500000
 49
1.500000
 49
-1.500000
  0
LTYPE
  2
PHANTOM
 70
    64
  3
_____ _ _ _____ _ _ _____ _ _ _____ _ _ ____  
 72
    65
 73
     6
 40
15.500000
 49
8.000000
 49
-1.500000
 49
1.500000
 49
-1.500000
 49
1.500000
 49
-1.500000
  0
LTYPE
  2
DASHED1
 70
    64
  3
__ __ __ __ __ __ __ __ __ __ __ __ __ __ __
 72
    65
 73
     2
 40
1.500000
 49
1.000000
 49
-0.500000
  0
LTYPE
  2
DASHED2
 70
    64
  3
__ __ __ __ __ __ __ __ __ __ __ __ __ __ __
 72
    65
 73
     2
 40
3.500000
 49
2.500000
 49
-1.000000
  0
LTYPE
  2
DASHED3
 70
    64
  3
__ __ __ __ __ __ __ __ __ __ __ __ __ __ __
 72
    65
 73
     2
 40
6.000000
 49
4.000000
 49
-2.000000
  0
LTYPE
  2
DASHED4
 70
    64
  3
__ __ __ __ __ __ __ __ __ __ __ __ __ __ __
 72
    65
 73
     2
 40
12.000000
 49
10.000000
 49
-2.000000
  0
LTYPE
  2
DASHED5
 70
    64
  3
__ __ __ __ __ __ __ __ __ __ __ __ __ __ __
 72
    65
 73
     2
 40
17.000000
 49
15.000000
 49
-2.000000
  0
LTYPE
  2
DASHED6
 70
    64
  3
__ __ __ __ __ __ __ __ __ __ __ __ __ __ __
 72
    65
 73
     2
 40
29.000000
 49
27.000000
 49
-2.000000
  0
LTYPE
  2
PHANTOM1
 70
    64
  3
_____ _ _ _____ _ _ _____ _ _ _____ _ _ ____  
 72
    65
 73
     6
 40
31.000000
 49
25.000000
 49
-1.500000
 49
1.000000
 49
-1.000000
 49
1.000000
 49
-1.500000
  0
LTYPE
  2
PHANTOM2
 70
    64
  3
_____ _ _ _____ _ _ _____ _ _ _____ _ _ ____  
 72
    65
 73
     6
 40
36.000000
 49
27.000000
 49
-1.500000
 49
2.500000
 49
-1.000000
 49
2.500000
 49
-1.500000
  0
LTYPE
  2
PHANTOM3
 70
    64
  3
_____ _ _ _____ _ _ _____ _ _ _____ _ _ ____  
 72
    65
 73
     6
 40
78.000000
 49
64.000000
 49
-2.000000
 49
4.000000
 49
-2.000000
 49
4.000000
 49
-2.000000
  0
LTYPE
  2
CENTER1
 70
    64
  3
____ _ ____ _ ____ _ ____ _ ____ _ ____ _ ____
 72
    65
 73
     4
 40
19.000000
 49
14.000000
 49
-1.000000
 49
3.000000
 49
-1.000000
  0
LTYPE
  2
CENTER2
 70
    64
  3
____ _ ____ _ ____ _ ____ _ ____ _ ____ _ ____
 72
    65
 73
     4
 40
28.500000
 49
25.000000
 49
-1.000000
 49
1.500000
 49
-1.000000
  0
LTYPE
  2
CENTER3
 70
    64
  3
____ _ ____ _ ____ _ ____ _ ____ _ ____ _ ____
 72
    65
 73
     4
 40
31.500000
 49
27.000000
 49
-1.000000
 49
2.500000
 49
-1.000000
  0
LTYPE
  2
CENTER4
 70
    64
  3
____ _ ____ _ ____ _ ____ _ ____ _ ____ _ ____
 72
    65
 73
     4
 40
50.000000
 49
45.000000
 49
-1.000000
 49
3.000000
 49
-1.000000
  0
LTYPE
  2
CENTER5
 70
    64
  3
____ _ ____ _ ____ _ ____ _ ____ _ ____ _ ____
 72
    65
 73
     4
 40
100.000000
 49
92.000000
 49
-2.000000
 49
4.000000
 49
-2.000000
  0
LTYPE
  2
SBK1
 70
    64
  3
______ _ _ _ ______ _ _ _ ______ _ _ _ _____  
 72
    65
 73
     8
 40
60.500000
 49
45.000000
 49
-2.000000
 49
2.500000
 49
-2.000000
 49
2.500000
 49
-2.000000
 49
2.500000
 49
-2.000000
  0
LTYPE
  2
SBK2
 70
    64
  3
______ _ _ _ ______ _ _ _ ______ _ _ _ _____  
 72
    65
 73
     8
 40
84.000000
 49
64.000000
 49
-2.000000
 49
4.000000
 49
-2.000000
 49
4.000000
 49
-2.000000
 49
4.000000
 49
-2.000000
  0
LTYPE
  2
STCH
 70
    64
  3
__ __ __ __ __ __ __ __ __ __ __ __ __ __ __
 72
    65
 73
     2
 40
3.000000
 49
1.000000
 49
-2.000000
  0
LTYPE
  2
MTCH
 70
    64
  3
_____ _ _ _____ _ _ _____ _ _ _____ _ _ ____  
 72
    65
 73
     6
 40
80.000000
 49
66.000000
 49
-2.000000
 49
4.000000
 49
-2.000000
 49
4.000000
 49
-2.000000
  0
ENDTAB
  0
TABLE
  2
LAYER
 70
     1
  0
LAYER
  2
0
 70
     0
 62
     7
  6
CONTINUOUS
  0
ENDTAB
  0
TABLE
  2
STYLE
 70
     1
  0
STYLE
  2
STANDARD
 70
     0
 40
0.000000
 41
1.000000
 50
0.000000
 71
     0
 42
0.200000
  3
txt
  4
BIGFONT
  0
ENDTAB
  0
TABLE
  2
VIEW
 70
     0
  0
ENDTAB
  0
ENDSEC
  0
SECTION
  2
BLOCKS
  0
ENDSEC
  0
SECTION
  2
ENTITIES
  0
LINE
  8
0
  6
CENTER
 62
     1
 10
87.811424
 20
-45.075775
 11
112.711426
 21
-45.075775
  0
LINE
  8
0
 62
     4
 10
89.131424
 20
-46.575775
 11
105.691422
 21
-46.575775
  0
LINE
  8
0
 62
     4
 10
89.131424
 20
-43.575775
 11
105.691422
 21
-43.575775
  0
LINE
  8
0
 62
     4
 10
89.131424
 20
-47.125774
 11
106.041428
 21
-47.125774
  0
LINE
  8
0
 62
     4
 10
89.131424
 20
-43.025776
 11
106.041428
 21
-43.025776
  0
LINE
  8
0
 62
     4
 10
89.131424
 20
-43.025776
 11
89.131424
 21
-47.125774
  0
LINE
  8
0
  6
CENTER
 62
     1
 10
91.131424
 20
-42.245773
 11
91.131424
 21
-47.825775
  0
LINE
  8
0
 62
     4
 10
106.211426
 20
-42.825775
 11
111.131424
 21
-42.825775
  0
LINE
  8
0
 62
     4
 10
106.211426
 20
-47.325775
 11
111.131424
 21
-47.325775
  0
LINE
  8
0
 62
     4
 10
111.131424
 20
-42.825775
 11
111.131424
 21
-47.325775
  0
LINE
  8
0
 62
     4
 10
90.481422
 20
-46.145775
 11
92.201424
 21
-44.435776
  0
LINE
  8
0
 62
     4
 10
90.061424
 20
-45.715775
 11
91.771423
 21
-44.005775
  0
LINE
  8
0
 62
     4
 10
43.838699
 20
-87.275795
 11
48.338699
 21
-87.275795
  0
LINE
  8
0
 62
     4
 10
43.838699
 20
-85.775795
 11
43.838699
 21
-91.525795
  0
LINE
  8
0
 62
     4
 10
44.588696
 20
-92.275787
 11
43.838703
 21
-91.525795
  0
LINE
  8
0
 62
     4
 10
44.588699
 20
-93.125793
 11
44.588699
 21
-92.275795
  0
LINE
  8
0
 62
     4
 10
44.038696
 20
-93.675797
 11
44.588696
 21
-93.125793
  0
LINE
  8
0
 62
     4
 10
44.038700
 20
-93.675797
 11
44.038700
 21
-95.225800
  0
LINE
  8
0
 62
     4
 10
48.138699
 20
-93.675797
 11
48.138699
 21
-95.225800
  0
LINE
  8
0
 62
     4
 10
48.138699
 20
-93.675789
 11
47.588699
 21
-93.125786
  0
LINE
  8
0
 62
     4
 10
47.588699
 20
-93.125793
 11
47.588699
 21
-92.275795
  0
LINE
  8
0
 62
     4
 10
47.588699
 20
-92.275795
 11
48.338699
 21
-91.525795
  0
LINE
  8
0
 62
     4
 10
48.338699
 20
-85.775795
 11
48.338699
 21
-91.525795
  0
LINE
  8
0
  6
CENTER
 62
     1
 10
46.088699
 20
-80.115799
 11
46.088699
 21
-98.735794
  0
LINE
  8
0
 62
     4
 10
44.588699
 20
-92.675797
 11
47.588699
 21
-92.675797
  0
LINE
  8
0
 62
     4
 10
44.038700
 20
-94.475800
 11
48.138699
 21
-94.475800
  0
LINE
  8
0
 62
     4
 10
44.038700
 20
-95.275795
 11
48.138699
 21
-95.275795
  0
LINE
  8
0
 62
     4
 10
43.838699
 20
-85.775795
 11
48.338699
 21
-85.775795
  0
LINE
  8
0
 62
     1
 10
43.928699
 20
-84.025787
 11
48.248699
 21
-81.525787
  0
LINE
  8
0
 62
     4
 10
45.068699
 20
-96.675797
 11
47.108700
 21
-96.675797
  0
LINE
  8
0
 62
     4
 10
47.108704
 20
-96.675797
 11
47.338699
 21
-96.445793
  0
LINE
  8
0
 62
     4
 10
45.068699
 20
-96.675804
 11
44.838699
 21
-96.445801
  0
LINE
  8
0
 62
     4
 10
44.838699
 20
-95.275795
 11
44.838699
 21
-96.445793
  0
LINE
  8
0
 62
     1
 10
45.068699
 20
-95.275795
 11
45.068699
 21
-96.675797
  0
LINE
  8
0
 62
     1
 10
47.108700
 20
-95.275795
 11
47.108700
 21
-96.675797
  0
LINE
  8
0
 62
     4
 10
47.338699
 20
-95.275795
 11
47.338699
 21
-96.445793
  0
LINE
  8
0
 62
     4
 10
44.838699
 20
-96.445793
 11
47.338699
 21
-96.445793
  0
LINE
  8
0
 62
     4
 10
44.838699
 20
-92.175797
 11
44.838699
 21
-92.675797
  0
LINE
  8
0
 62
     1
 10
45.068699
 20
-92.175797
 11
45.068699
 21
-92.675797
  0
LINE
  8
0
 62
     1
 10
47.108700
 20
-92.175797
 11
47.108700
 21
-92.675797
  0
LINE
  8
0
 62
     4
 10
47.338699
 20
-92.175797
 11
47.338699
 21
-92.675797
  0
LINE
  8
0
 62
     4
 10
44.838699
 20
-92.175797
 11
47.338699
 21
-92.175797
  0
LINE
  8
0
 62
     4
 10
44.788700
 20
-83.525795
 11
44.788700
 21
-85.775795
  0
LINE
  8
0
 62
     4
 10
47.388699
 20
-82.025795
 11
47.388699
 21
-85.775795
  0
LINE
  8
0
 62
     4
 10
89.131424
 20
-92.675797
 11
105.231422
 21
-92.675797
  0
LINE
  8
0
 62
     4
 10
93.831421
 20
-97.275795
 11
111.131424
 21
-97.275795
  0
LINE
  8
0
 62
     4
 10
111.131424
 20
-85.775795
 11
111.131424
 21
-97.275795
  0
LINE
  8
0
 62
     4
 10
89.131424
 20
-95.275795
 11
89.131424
 21
-92.675797
  0
LINE
  8
0
 62
     4
 10
93.831421
 20
-95.655800
 11
93.831421
 21
-97.275795
  0
LINE
  8
0
  6
CENTER
 62
     1
 10
91.131424
 20
-91.945793
 11
91.131424
 21
-97.845795
  0
LINE
  8
0
 62
     4
 10
105.231422
 20
-85.775795
 11
105.231422
 21
-92.675797
  0
LINE
  8
0
 62
     4
 10
89.131424
 20
-94.475800
 11
93.401421
 21
-94.475800
  0
LINE
  8
0
 62
     4
 10
89.131424
 20
-95.275795
 11
93.131424
 21
-95.275795
  0
LINE
  8
0
 62
     4
 10
93.131424
 20
-94.475800
 11
93.131424
 21
-95.275795
  0
LINE
  8
0
 62
     4
 10
105.231422
 20
-85.775795
 11
111.131424
 21
-85.775795
  0
LINE
  8
0
 62
     4
 10
93.331421
 20
-96.475800
 11
93.831421
 21
-96.475800
  0
LINE
  8
0
 62
     4
 10
93.331421
 20
-94.475800
 11
93.331421
 21
-96.475800
  0
LINE
  8
0
 62
     4
 10
93.401421
 20
-95.655800
 11
93.831421
 21
-95.655800
  0
LINE
  8
0
 62
     4
 10
93.401421
 20
-94.475800
 11
93.401421
 21
-95.655800
  0
LINE
  8
0
 62
     4
 10
89.131424
 20
-93.675797
 11
111.131424
 21
-93.675797
  0
LINE
  8
0
 62
     4
 10
89.131424
 20
-93.125793
 11
111.131424
 21
-93.125793
  0
LINE
  8
0
 62
     4
 10
105.231422
 20
-91.525795
 11
111.131424
 21
-91.525795
  0
LINE
  8
0
 62
     4
 10
105.231422
 20
-92.275795
 11
111.131424
 21
-92.275795
  0
LINE
  8
0
 62
     4
 10
105.231422
 20
-87.275795
 11
111.131424
 21
-87.275795
  0
LINE
  8
0
 62
     4
 10
107.231422
 20
-77.275795
 11
109.831421
 21
-77.275795
  0
LINE
  8
0
  6
CENTER
 62
     1
 10
108.081421
 20
-79.005798
 11
108.081421
 21
-67.075798
  0
LINE
  8
0
  6
CENTER
 62
     1
 10
108.981422
 20
-78.955795
 11
108.981422
 21
-67.025795
  0
LINE
  8
0
 62
     4
 10
107.831421
 20
-67.275795
 11
108.331421
 21
-67.275795
  0
LINE
  8
0
 62
     4
 10
108.731422
 20
-67.275795
 11
109.231422
 21
-67.275795
  0
LINE
  8
0
 62
     4
 10
107.631424
 20
-70.275795
 11
109.431427
 21
-70.275795
  0
LINE
  8
0
 62
     4
 10
109.431427
 20
-77.275795
 11
109.431427
 21
-73.275795
  0
LINE
  8
0
 62
     4
 10
108.531425
 20
-77.275795
 11
108.531425
 21
-73.795799
  0
LINE
  8
0
 62
     4
 10
108.531425
 20
-72.295799
 11
108.531425
 21
-70.275795
  0
LINE
  8
0
 62
     4
 10
109.431427
 20
-71.775795
 11
109.431427
 21
-70.275795
  0
LINE
  8
0
 62
     4
 10
107.631424
 20
-77.275795
 11
107.631424
 21
-74.315796
  0
LINE
  8
0
 62
     4
 10
107.631424
 20
-72.815796
 11
107.631424
 21
-70.275795
  0
LINE
  8
0
 62
     4
 10
107.831421
 20
-70.275795
 11
107.831421
 21
-67.275795
  0
LINE
  8
0
 62
     4
 10
108.331421
 20
-70.275795
 11
108.331421
 21
-67.275795
  0
LINE
  8
0
 62
     4
 10
108.731422
 20
-70.275795
 11
108.731422
 21
-67.275795
  0
LINE
  8
0
 62
     4
 10
109.231422
 20
-70.275795
 11
109.231422
 21
-67.275795
  0
LINE
  8
0
 62
     1
 10
106.371422
 20
-73.545799
 11
110.701424
 21
-71.045799
  0
LINE
  8
0
  6
CENTER
 62
     1
 10
108.531425
 20
-87.095795
 11
108.531425
 21
-77.275795
  0
LINE
  8
0
 62
     1
 10
106.371422
 20
-75.045799
 11
110.701424
 21
-72.545799
  0
LINE
  8
0
 62
     1
 10
106.371422
 20
-82.525795
 11
110.701424
 21
-80.025795
  0
LINE
  8
0
 62
     1
 10
106.371422
 20
-84.025795
 11
110.701424
 21
-81.525795
  0
LINE
  8
0
 62
     4
 10
90.101425
 20
-96.675797
 11
92.151421
 21
-96.675797
  0
LINE
  8
0
 62
     4
 10
92.151421
 20
-96.675797
 11
92.381424
 21
-96.445793
  0
LINE
  8
0
 62
     4
 10
90.101433
 20
-96.675804
 11
89.881424
 21
-96.445793
  0
LINE
  8
0
 62
     4
 10
89.881424
 20
-95.275795
 11
89.881424
 21
-96.445793
  0
LINE
  8
0
 62
     1
 10
90.101425
 20
-95.275795
 11
90.101425
 21
-96.675797
  0
LINE
  8
0
 62
     1
 10
92.151421
 20
-95.275795
 11
92.151421
 21
-96.675797
  0
LINE
  8
0
 62
     4
 10
92.381424
 20
-95.275795
 11
92.381424
 21
-96.445793
  0
LINE
  8
0
 62
     4
 10
89.881424
 20
-96.445793
 11
92.381424
 21
-96.445793
  0
LINE
  8
0
 62
     4
 10
89.881424
 20
-92.175797
 11
89.881424
 21
-92.675797
  0
LINE
  8
0
 62
     1
 10
90.101425
 20
-92.175797
 11
90.101425
 21
-92.675797
  0
LINE
  8
0
 62
     1
 10
92.151421
 20
-92.175797
 11
92.151421
 21
-92.675797
  0
LINE
  8
0
 62
     4
 10
92.381424
 20
-92.175797
 11
92.381424
 21
-92.675797
  0
LINE
  8
0
 62
     4
 10
89.881424
 20
-92.175797
 11
92.381424
 21
-92.175797
  0
LINE
  8
0
 62
     4
 10
109.831421
 20
-85.775795
 11
109.831421
 21
-82.025795
  0
LINE
  8
0
 62
     4
 10
107.231422
 20
-85.775795
 11
107.231422
 21
-83.525795
  0
LINE
  8
0
 62
     4
 10
107.231422
 20
-82.025795
 11
107.231422
 21
-77.275795
  0
LINE
  8
0
 62
     4
 10
109.831421
 20
-80.525795
 11
109.831421
 21
-77.275795
  0
LINE
  8
0
  6
CENTER
 62
     1
 10
-71.479523
 20
-50.125793
 11
-41.279518
 21
-50.125793
  0
LINE
  8
0
 62
     4
 10
-68.679520
 20
-51.625793
 11
-46.679520
 21
-51.625793
  0
LINE
  8
0
 62
     4
 10
-68.679520
 20
-48.625793
 11
-46.679520
 21
-48.625793
  0
LINE
  8
0
 62
     4
 10
-68.679520
 20
-52.175793
 11
-46.679520
 21
-52.175793
  0
LINE
  8
0
 62
     4
 10
-68.679520
 20
-48.075794
 11
-46.679520
 21
-48.075794
  0
LINE
  8
0
 62
     4
 10
-68.679520
 20
-48.075794
 11
-68.679520
 21
-52.175793
  0
LINE
  8
0
 62
     4
 10
-46.679520
 20
-48.075794
 11
-46.679520
 21
-52.175793
  0
LINE
  8
0
  6
CENTER
 62
     1
 10
-66.679520
 20
-47.295792
 11
-66.679520
 21
-52.875793
  0
LINE
  8
0
 62
     4
 10
-67.729515
 20
-50.835789
 11
-65.999519
 21
-49.105793
  0
LINE
  8
0
 62
     4
 10
-67.379517
 20
-51.185799
 11
-65.739517
 21
-49.565796
  0
LINE
  8
0
 62
     1
 10
-45.599518
 20
-47.965794
 11
-43.099518
 21
-52.285793
  0
LINE
  8
0
 62
     4
 10
-46.679520
 20
-48.825794
 11
-45.099518
 21
-48.825794
  0
LINE
  8
0
 62
     4
 10
-46.679520
 20
-51.425793
 11
-43.589520
 21
-51.425793
  0
LINE
  8
0
 62
     4
 10
-115.272247
 20
-93.675797
 11
-115.272247
 21
-95.225800
  0
LINE
  8
0
 62
     4
 10
-115.272247
 20
-93.675797
 11
-114.722244
 21
-93.125793
  0
LINE
  8
0
 62
     4
 10
-114.722244
 20
-92.675797
 11
-114.722244
 21
-93.125793
  0
LINE
  8
0
 62
     4
 10
-114.722244
 20
-92.675797
 11
-111.722244
 21
-92.675797
  0
LINE
  8
0
 62
     4
 10
-111.722244
 20
-92.675797
 11
-111.722244
 21
-93.125793
  0
LINE
  8
0
 62
     4
 10
-111.172241
 20
-93.675797
 11
-111.722244
 21
-93.125793
  0
LINE
  8
0
 62
     4
 10
-111.172241
 20
-93.675797
 11
-111.172241
 21
-95.225800
  0
LINE
  8
0
 62
     4
 10
-115.272247
 20
-94.475800
 11
-111.172241
 21
-94.475800
  0
LINE
  8
0
 62
     4
 10
-115.272247
 20
-95.265793
 11
-111.172241
 21
-95.265793
  0
LINE
  8
0
 62
     4
 10
-114.242241
 20
-96.675797
 11
-112.202248
 21
-96.675797
  0
LINE
  8
0
 62
     4
 10
-112.202248
 20
-96.675797
 11
-111.972244
 21
-96.445793
  0
LINE
  8
0
 62
     4
 10
-114.242233
 20
-96.675789
 11
-114.472237
 21
-96.445786
  0
LINE
  8
0
 62
     4
 10
-114.472244
 20
-95.265793
 11
-114.472244
 21
-96.445793
  0
LINE
  8
0
 62
     1
 10
-114.242241
 20
-95.265793
 11
-114.242241
 21
-96.675797
  0
LINE
  8
0
 62
     1
 10
-112.202248
 20
-95.265793
 11
-112.202248
 21
-96.675797
  0
LINE
  8
0
 62
     4
 10
-111.972244
 20
-95.265793
 11
-111.972244
 21
-96.445793
  0
LINE
  8
0
 62
     4
 10
-114.472244
 20
-96.445793
 11
-111.972244
 21
-96.445793
  0
LINE
  8
0
 62
     4
 10
-114.472244
 20
-92.175797
 11
-114.472244
 21
-92.675797
  0
LINE
  8
0
 62
     1
 10
-114.242241
 20
-92.175797
 11
-114.242241
 21
-92.675797
  0
LINE
  8
0
 62
     1
 10
-112.202248
 20
-92.175797
 11
-112.202248
 21
-92.675797
  0
LINE
  8
0
 62
     4
 10
-111.972244
 20
-92.175797
 11
-111.972244
 21
-92.675797
  0
LINE
  8
0
 62
     4
 10
-114.472244
 20
-92.175797
 11
-111.972244
 21
-92.175797
  0
LINE
  8
0
  6
CENTER
 62
     1
 10
-113.222244
 20
-90.625793
 11
-113.222244
 21
-99.335800
  0
LINE
  8
0
 62
     4
 10
-68.679535
 20
-92.675903
 11
-46.679535
 21
-92.675903
  0
LINE
  8
0
 62
     4
 10
-63.979534
 20
-97.275902
 11
-46.679535
 21
-97.275902
  0
LINE
  8
0
 62
     4
 10
-46.679535
 20
-92.675903
 11
-46.679535
 21
-97.275902
  0
LINE
  8
0
 62
     4
 10
-68.679535
 20
-94.475906
 11
-68.679535
 21
-92.675903
  0
LINE
  8
0
 62
     4
 10
-63.979534
 20
-95.715904
 11
-63.979534
 21
-97.275902
  0
LINE
  8
0
 62
     4
 10
-68.679535
 20
-94.475906
 11
-64.429535
 21
-94.475906
  0
LINE
  8
0
  6
CENTER
 62
     1
 10
-66.679535
 20
-91.875900
 11
-66.679535
 21
-98.105904
  0
LINE
  8
0
 62
     4
 10
-64.429535
 20
-94.475906
 11
-64.429535
 21
-95.715904
  0
LINE
  8
0
 62
     4
 10
-64.679535
 20
-94.475906
 11
-64.679535
 21
-95.275902
  0
LINE
  8
0
 62
     4
 10
-68.679535
 20
-94.475906
 11
-68.679535
 21
-95.275902
  0
LINE
  8
0
 62
     4
 10
-68.679535
 20
-95.275902
 11
-64.679535
 21
-95.275902
  0
LINE
  8
0
 62
     4
 10
-64.479538
 20
-94.475906
 11
-64.479538
 21
-96.475906
  0
LINE
  8
0
 62
     4
 10
-64.479538
 20
-96.475906
 11
-63.979534
 21
-96.475906
  0
LINE
  8
0
 62
     4
 10
-64.429535
 20
-95.715904
 11
-63.979534
 21
-95.715904
  0
LINE
  8
0
 62
     4
 10
-38.179535
 20
-93.675903
 11
-38.179535
 21
-96.275902
  0
LINE
  8
0
  6
CENTER
 62
     1
 10
-39.909534
 20
-94.525902
 11
-27.979534
 21
-94.525902
  0
LINE
  8
0
  6
CENTER
 62
     1
 10
-39.859535
 20
-95.425903
 11
-27.929535
 21
-95.425903
  0
LINE
  8
0
 62
     4
 10
-28.179535
 20
-94.275902
 11
-28.179535
 21
-94.775902
  0
LINE
  8
0
 62
     4
 10
-28.179535
 20
-95.175903
 11
-28.179535
 21
-95.675903
  0
LINE
  8
0
 62
     4
 10
-31.179535
 20
-94.075905
 11
-31.179535
 21
-95.875900
  0
LINE
  8
0
 62
     4
 10
-38.179535
 20
-95.875900
 11
-34.179535
 21
-95.875900
  0
LINE
  8
0
 62
     4
 10
-38.179535
 20
-94.975906
 11
-34.699535
 21
-94.975906
  0
LINE
  8
0
 62
     4
 10
-33.199535
 20
-94.975906
 11
-31.179535
 21
-94.975906
  0
LINE
  8
0
 62
     4
 10
-32.679535
 20
-95.875900
 11
-31.179535
 21
-95.875900
  0
LINE
  8
0
 62
     4
 10
-38.179535
 20
-94.075905
 11
-35.219536
 21
-94.075905
  0
LINE
  8
0
 62
     4
 10
-33.719536
 20
-94.075905
 11
-31.179535
 21
-94.075905
  0
LINE
  8
0
 62
     4
 10
-31.179535
 20
-94.275902
 11
-28.179535
 21
-94.275902
  0
LINE
  8
0
 62
     4
 10
-31.179535
 20
-94.775902
 11
-28.179535
 21
-94.775902
  0
LINE
  8
0
 62
     4
 10
-31.179535
 20
-95.175903
 11
-28.179535
 21
-95.175903
  0
LINE
  8
0
 62
     4
 10
-31.179535
 20
-95.675903
 11
-28.179535
 21
-95.675903
  0
LINE
  8
0
 62
     1
 10
-34.449535
 20
-92.805901
 11
-31.949532
 21
-97.135902
  0
LINE
  8
0
  6
CENTER
 62
     1
 10
-47.999535
 20
-94.975906
 11
-38.179535
 21
-94.975906
  0
LINE
  8
0
 62
     1
 10
-35.949532
 20
-92.805901
 11
-33.449532
 21
-97.135902
  0
LINE
  8
0
 62
     1
 10
-43.429531
 20
-92.805901
 11
-40.929531
 21
-97.135902
  0
LINE
  8
0
 62
     1
 10
-44.929535
 20
-92.805901
 11
-42.429535
 21
-97.135902
  0
LINE
  8
0
 62
     4
 10
-67.709534
 20
-96.675903
 11
-65.659538
 21
-96.675903
  0
LINE
  8
0
 62
     4
 10
-65.659538
 20
-96.675903
 11
-65.429535
 21
-96.445900
  0
LINE
  8
0
 62
     4
 10
-67.709534
 20
-96.675903
 11
-67.929535
 21
-96.445900
  0
LINE
  8
0
 62
     4
 10
-67.929535
 20
-95.265900
 11
-67.929535
 21
-96.445900
  0
LINE
  8
0
 62
     1
 10
-67.709534
 20
-95.265900
 11
-67.709534
 21
-96.675903
  0
LINE
  8
0
 62
     1
 10
-65.659538
 20
-95.265900
 11
-65.659538
 21
-96.675903
  0
LINE
  8
0
 62
     4
 10
-65.429535
 20
-95.265900
 11
-65.429535
 21
-96.445900
  0
LINE
  8
0
 62
     4
 10
-67.929535
 20
-96.445900
 11
-65.429535
 21
-96.445900
  0
LINE
  8
0
 62
     4
 10
-67.929535
 20
-92.175903
 11
-67.929535
 21
-92.675903
  0
LINE
  8
0
 62
     1
 10
-67.709534
 20
-92.175903
 11
-67.709534
 21
-92.675903
  0
LINE
  8
0
 62
     1
 10
-65.659538
 20
-92.175903
 11
-65.659538
 21
-92.675903
  0
LINE
  8
0
 62
     4
 10
-65.429535
 20
-92.175903
 11
-65.429535
 21
-92.675903
  0
LINE
  8
0
 62
     4
 10
-67.929535
 20
-92.175903
 11
-65.429535
 21
-92.175903
  0
LINE
  8
0
 62
     4
 10
-68.679535
 20
-93.675903
 11
-46.679535
 21
-93.675903
  0
LINE
  8
0
 62
     4
 10
-68.679535
 20
-93.125900
 11
-46.679535
 21
-93.125900
  0
LINE
  8
0
 62
     4
 10
-46.679535
 20
-93.675903
 11
-44.429535
 21
-93.675903
  0
LINE
  8
0
 62
     4
 10
-46.679535
 20
-96.275902
 11
-42.929535
 21
-96.275902
  0
LINE
  8
0
 62
     4
 10
-42.929535
 20
-93.675903
 11
-38.179535
 21
-93.675903
  0
LINE
  8
0
 62
     4
 10
-41.429535
 20
-96.275902
 11
-38.179535
 21
-96.275902
  0
LINE
  8
0
 10
-28.374794
 20
28.265013
 11
-22.974794
 21
28.265013
  0
LINE
  8
0
  6
DASHED
 10
-13.874794
 20
11.821827
 11
-8.874794
 21
11.821827
  0
LINE
  8
0
  6
DASHED
 10
-13.874794
 20
15.955826
 11
-8.874794
 21
15.955826
  0
LINE
  8
0
  6
DASHED
 10
-0.874794
 20
11.821827
 11
-5.874794
 21
11.821827
  0
LINE
  8
0
  6
DASHED
 10
-0.874794
 20
15.955826
 11
-5.874794
 21
15.955826
  0
LINE
  8
0
  6
DASHED
 62
     2
 10
-0.874794
 20
16.388826
 11
-5.874794
 21
16.388826
  0
LINE
  8
0
  6
DASHED
 10
3.625206
 20
10.638826
 11
-0.874794
 21
10.638826
  0
LINE
  8
0
  6
DASHED
 10
3.625206
 20
17.138826
 11
-0.874794
 21
17.138826
  0
LINE
  8
0
  6
DASHED
 62
     2
 10
-0.874794
 20
11.388826
 11
-5.874794
 21
11.388826
  0
LINE
  8
0
  6
DASHED
 10
-5.874794
 20
16.388826
 11
-5.874794
 21
11.388826
  0
LINE
  8
0
  6
DASHED
 10
-0.874794
 20
17.138826
 11
-0.874794
 21
10.638826
  0
LINE
  8
0
  6
DASHED
 10
-8.874794
 20
16.388826
 11
-8.874794
 21
11.388826
  0
LINE
  8
0
  6
DASHED
 10
-13.874794
 20
17.138826
 11
-13.874794
 21
10.638826
  0
LINE
  8
0
  6
DASHED
 62
     2
 10
-13.874794
 20
11.388826
 11
-8.874794
 21
11.388826
  0
LINE
  8
0
  6
DASHED
 62
     2
 10
-13.874794
 20
16.388826
 11
-8.874794
 21
16.388826
  0
LINE
  8
0
  6
DASHED
 10
-28.374794
 20
10.638826
 11
-13.874794
 21
10.638826
  0
LINE
  8
0
  6
DASHED
 10
-28.374794
 20
17.138826
 11
-13.874794
 21
17.138826
  0
LINE
  8
0
  6
DASHED
 10
-8.874794
 20
11.738826
 11
-5.874794
 21
11.738826
  0
LINE
  8
0
  6
DASHED
 10
-8.874794
 20
16.038826
 11
-5.874794
 21
16.038826
  0
LINE
  8
0
 10
-28.374794
 20
34.538826
 11
3.625206
 21
34.538826
  0
LINE
  8
0
 10
-28.374794
 20
9.538826
 11
3.625206
 21
9.538826
  0
LINE
  8
0
  6
DASHED
 62
     2
 10
-20.874794
 20
9.538826
 11
-20.874794
 21
13.538826
  0
LINE
  8
0
  6
DASHED
 10
-21.374794
 20
9.538826
 11
-21.374794
 21
14.538826
  0
LINE
  8
0
  6
CENTER
 62
     2
 10
-23.374794
 20
8.128826
 11
-23.374794
 21
16.538826
  0
LINE
  8
0
  6
DASHED
 10
-25.374794
 20
9.538826
 11
-25.374794
 21
14.538826
  0
LINE
  8
0
  6
DASHED
 62
     2
 10
-25.874794
 20
9.538826
 11
-25.874794
 21
13.538826
  0
LINE
  8
0
  6
CENTER
 62
     2
 10
-29.694794
 20
13.888826
 11
6.745205
 21
13.888826
  0
LINE
  8
0
  6
CENTER
 62
     2
 10
-30.304794
 20
30.188826
 11
-17.114794
 21
30.188826
  0
LINE
  8
0
 10
-27.674793
 20
34.438828
 11
-27.974794
 21
34.138824
  0
LINE
  8
0
 10
-27.674793
 20
34.438828
 11
-22.974794
 21
34.438828
  0
LINE
  8
0
 10
-27.674793
 20
34.438828
 11
-27.674793
 21
28.265013
  0
LINE
  8
0
 10
-27.974794
 20
34.138824
 11
-27.974794
 21
28.265013
  0
LINE
  8
0
 10
-22.974794
 20
34.538826
 11
-22.974794
 21
28.265013
  0
LINE
  8
0
 10
-18.374794
 20
34.538826
 11
-18.374794
 21
9.538826
  0
LINE
  8
0
  6
CENTER
 62
     2
 10
-10.374794
 20
25.450531
 11
-10.374794
 21
18.278826
  0
LINE
  8
0
  6
CENTER
 62
     2
 10
-1.374794
 20
25.450531
 11
-1.374794
 21
18.378826
  0
LINE
  8
0
 10
-22.974794
 20
32.028824
 11
3.625206
 21
32.028824
  0
LINE
  8
0
 10
3.625206
 20
34.538826
 11
3.625206
 21
9.538826
  0
LINE
  8
0
 10
-28.374794
 20
34.538826
 11
-28.374794
 21
9.538826
  0
LINE
  8
0
 62
     1
 10
-33.374794
 20
23.698826
 11
-30.374794
 21
20.388826
  0
LINE
  8
0
 62
     1
 10
-30.374794
 20
23.698828
 11
-33.374794
 21
20.388828
  0
LINE
  8
0
 62
     4
 10
-32.514793
 20
20.388826
 11
-32.514793
 21
19.038826
  0
LINE
  8
0
 62
     4
 10
-30.374794
 20
23.698826
 11
-30.374794
 21
20.388826
  0
LINE
  8
0
 62
     4
 10
-33.374794
 20
20.388826
 11
-30.374794
 21
20.388826
  0
LINE
  8
0
 62
     4
 10
-33.374794
 20
23.698826
 11
-30.374794
 21
23.698826
  0
LINE
  8
0
 62
     4
 10
-32.514793
 20
25.038826
 11
-32.514793
 21
23.698826
  0
LINE
  8
0
 62
     4
 10
-33.374794
 20
19.538828
 11
-32.514793
 21
19.038828
  0
LINE
  8
0
 62
     4
 10
-33.374794
 20
24.538826
 11
-32.514793
 21
25.038826
  0
LINE
  8
0
 62
     4
 10
-32.514793
 20
25.038826
 11
-28.374794
 21
25.038826
  0
LINE
  8
0
 62
     4
 10
-32.514793
 20
19.038826
 11
-28.374794
 21
19.038826
  0
LINE
  8
0
 62
     4
 10
-33.374794
 20
24.538826
 11
-33.374794
 21
19.538826
  0
LINE
  8
0
  6
CENTER
 62
     2
 10
-35.694794
 20
22.038826
 11
6.745205
 21
22.038826
  0
LINE
  8
0
 10
-28.374794
 20
12.051333
 11
3.625206
 21
12.051333
  0
LINE
  8
0
  6
PHANTOM
 62
     3
 10
-6.600340
 20
2.197460
 11
-6.600340
 21
69.709412
  0
LINE
  8
0
 62
     4
 10
132.123337
 20
110.565842
 11
132.983337
 21
110.065842
  0
LINE
  8
0
 62
     4
 10
132.983337
 20
111.415848
 11
132.983337
 21
110.065849
  0
LINE
  8
0
 62
     4
 10
132.983337
 20
114.725853
 11
132.983337
 21
116.065849
  0
LINE
  8
0
 62
     4
 10
132.123337
 20
115.565857
 11
132.983337
 21
116.065849
  0
LINE
  8
0
 62
     4
 10
123.473335
 20
108.455849
 11
126.763336
 21
108.455849
  0
LINE
  8
0
 62
     4
 10
127.123337
 20
110.565849
 11
132.123337
 21
110.565849
  0
LINE
  8
0
 62
     4
 10
123.473335
 20
110.765846
 11
126.763336
 21
110.765846
  0
LINE
  8
0
 62
     4
 10
126.763336
 20
108.455841
 11
127.123337
 21
109.065849
  0
LINE
  8
0
 62
     4
 10
123.123344
 20
109.065857
 11
123.473343
 21
108.455856
  0
LINE
  8
0
 62
     4
 10
127.123337
 20
115.565849
 11
132.123337
 21
115.565849
  0
LINE
  8
0
 62
     4
 10
123.123337
 20
117.065849
 11
123.483337
 21
117.685844
  0
LINE
  8
0
 62
     4
 10
126.763329
 20
117.685852
 11
127.123329
 21
117.065849
  0
LINE
  8
0
 62
     4
 10
127.123337
 20
117.065849
 11
127.123337
 21
109.065849
  0
LINE
  8
0
 62
     4
 10
123.123337
 20
117.065849
 11
123.123337
 21
109.065849
  0
LINE
  8
0
 62
     4
 10
123.473335
 20
115.375847
 11
126.763336
 21
115.375847
  0
LINE
  8
0
 62
     4
 10
123.473335
 20
117.685852
 11
126.763336
 21
117.685852
  0
LINE
  8
0
 62
     4
 10
130.123337
 20
115.565849
 11
130.123337
 21
110.565849
  0
LINE
  8
0
 62
     4
 10
120.556335
 20
110.565849
 11
123.123337
 21
110.565849
  0
LINE
  8
0
 62
     4
 10
120.556335
 20
115.565849
 11
123.123337
 21
115.565849
  0
LINE
  8
0
 62
     4
 10
120.123337
 20
115.132851
 11
120.123337
 21
110.998848
  0
LINE
  8
0
 62
     1
 10
132.123337
 20
114.725838
 11
135.123337
 21
111.415840
  0
LINE
  8
0
 62
     1
 10
135.123337
 20
114.725853
 11
132.123337
 21
111.415848
  0
LINE
  8
0
 62
     4
 10
135.123337
 20
114.725853
 11
135.123337
 21
111.415848
  0
LINE
  8
0
 62
     4
 10
132.123337
 20
111.415848
 11
135.123337
 21
111.415848
  0
LINE
  8
0
 62
     4
 10
132.123337
 20
114.725853
 11
135.123337
 21
114.725853
  0
LINE
  8
0
 62
     4
 10
132.123337
 20
115.565849
 11
132.123337
 21
110.565849
  0
LINE
  8
0
 62
     4
 10
132.983337
 20
116.065849
 11
137.123337
 21
116.065849
  0
LINE
  8
0
 62
     4
 10
132.983337
 20
110.065849
 11
137.123337
 21
110.065849
  0
LINE
  8
0
 62
     1
 10
120.123337
 20
115.132851
 11
123.123337
 21
115.132851
  0
LINE
  8
0
 62
     1
 10
120.123337
 20
110.998848
 11
123.123337
 21
110.998848
  0
LINE
  8
0
 62
     1
 10
130.123337
 20
115.132858
 11
130.868103
 21
115.565849
  0
LINE
  8
0
 62
     1
 10
130.094223
 20
111.015770
 11
130.954224
 21
110.515770
  0
LINE
  8
0
 62
     1
 10
127.123337
 20
115.132851
 11
130.123337
 21
115.132851
  0
LINE
  8
0
 62
     1
 10
127.123337
 20
110.998848
 11
130.123337
 21
110.998848
  0
LINE
  8
0
 62
     4
 10
120.123329
 20
115.132843
 11
120.556328
 21
115.565842
  0
LINE
  8
0
 62
     4
 10
120.123337
 20
110.998848
 11
120.556335
 21
110.565849
  0
LINE
  8
0
 62
     4
 10
120.556335
 20
115.565849
 11
120.556335
 21
110.565849
  0
LINE
  8
0
 10
-28.374794
 20
115.772926
 11
-22.974794
 21
115.772926
  0
LINE
  8
0
 62
     4
 10
-29.877748
 20
119.038826
 11
-30.374798
 21
119.538826
  0
LINE
  8
0
 62
     4
 10
-30.374796
 20
124.538834
 11
-29.877748
 21
125.038834
  0
LINE
  8
0
 62
     4
 10
-33.374794
 20
119.538826
 11
-30.374794
 21
119.538826
  0
LINE
  8
0
 62
     4
 10
-33.374794
 20
124.538826
 11
-30.374794
 21
124.538826
  0
LINE
  8
0
 10
-28.374794
 20
132.026321
 11
3.625206
 21
132.026321
  0
LINE
  8
0
 10
-18.374794
 20
120.438828
 11
3.625206
 21
120.438828
  0
LINE
  8
0
 10
-18.374794
 20
123.638824
 11
3.625206
 21
123.638824
  0
LINE
  8
0
 62
     4
 10
-33.374794
 20
124.538826
 11
-33.374794
 21
119.538826
  0
LINE
  8
0
 62
     4
 10
-29.877748
 20
119.038826
 11
-28.374794
 21
119.038826
  0
LINE
  8
0
 62
     4
 10
-29.877748
 20
125.038826
 11
-28.374794
 21
125.038826
  0
LINE
  8
0
 62
     4
 10
-32.514793
 20
124.538826
 11
-32.514793
 21
119.538826
  0
LINE
  8
0
 10
-28.374794
 20
134.538818
 11
-28.374794
 21
109.538826
  0
LINE
  8
0
 10
3.625206
 20
134.538818
 11
3.625206
 21
109.538826
  0
LINE
  8
0
 10
-22.974794
 20
112.048828
 11
3.625206
 21
112.048828
  0
LINE
  8
0
 10
-18.374794
 20
134.538818
 11
-18.374794
 21
109.538826
  0
LINE
  8
0
 10
-22.974794
 20
109.538826
 11
-22.974794
 21
115.772926
  0
LINE
  8
0
 10
-27.974794
 20
109.938828
 11
-27.974794
 21
115.772926
  0
LINE
  8
0
 10
-27.674793
 20
109.638824
 11
-27.674793
 21
115.772926
  0
LINE
  8
0
 10
-27.674793
 20
109.638824
 11
-22.974794
 21
109.638824
  0
LINE
  8
0
 10
-27.674791
 20
109.638824
 11
-27.974794
 21
109.938828
  0
LINE
  8
0
  6
CENTER
 62
     2
 10
-30.304794
 20
113.888824
 11
-17.114794
 21
113.888824
  0
LINE
  8
0
 10
-28.374794
 20
109.538826
 11
3.625206
 21
109.538826
  0
LINE
  8
0
 10
-28.374794
 20
134.538818
 11
3.625206
 21
134.538818
  0
LINE
  8
0
  6
CENTER
 62
     2
 10
-35.694794
 20
122.038826
 11
6.745205
 21
122.038826
  0
LINE
  8
0
  6
PHANTOM
 62
     3
 10
-6.600340
 20
69.709412
 11
-6.600340
 21
150.204422
  0
LINE
  8
0
 10
89.400017
 20
10.538826
 11
89.400017
 21
12.138826
  0
LINE
  8
0
 10
93.600014
 20
10.538826
 11
93.600014
 21
12.138826
  0
LINE
  8
0
 10
89.900017
 20
9.538826
 11
89.900017
 21
10.038826
  0
LINE
  8
0
 10
93.100014
 20
9.538826
 11
93.100014
 21
10.038826
  0
LINE
  8
0
 10
93.600014
 20
10.538830
 11
93.100014
 21
10.038829
  0
LINE
  8
0
 10
89.400017
 20
10.538827
 11
89.900017
 21
10.038826
  0
LINE
  8
0
 10
93.600014
 20
33.538826
 11
93.100014
 21
34.038826
  0
LINE
  8
0
 10
89.400017
 20
33.538826
 11
89.900017
 21
34.038822
  0
LINE
  8
0
 10
89.400017
 20
33.538826
 11
89.400017
 21
31.938826
  0
LINE
  8
0
 10
93.600014
 20
33.538826
 11
93.600014
 21
31.938826
  0
LINE
  8
0
 10
89.900017
 20
34.538826
 11
89.900017
 21
34.038826
  0
LINE
  8
0
 10
93.100014
 20
34.538826
 11
93.100014
 21
34.038826
  0
LINE
  8
0
 10
103.000015
 20
19.938822
 11
103.500015
 21
20.438824
  0
LINE
  8
0
 10
103.000015
 20
24.138823
 11
103.500008
 21
23.638824
  0
LINE
  8
0
 10
103.000015
 20
24.138826
 11
101.400017
 21
24.138826
  0
LINE
  8
0
 10
103.000015
 20
19.938826
 11
101.400017
 21
19.938826
  0
LINE
  8
0
 10
104.000015
 20
23.638826
 11
103.500015
 21
23.638826
  0
LINE
  8
0
 10
104.000015
 20
20.438826
 11
103.500015
 21
20.438826
  0
LINE
  8
0
  6
CENTER
 62
     2
 10
106.020020
 20
22.038826
 11
77.370018
 21
22.038826
  0
LINE
  8
0
  6
CENTER
 62
     2
 10
83.350014
 20
9.628826
 11
83.350014
 21
18.028826
  0
LINE
  8
0
  6
CENTER
 62
     2
 10
79.500015
 20
13.888826
 11
87.460014
 21
13.888826
  0
LINE
  8
0
  6
CENTER
 62
     2
 10
83.350014
 20
24.838825
 11
83.350014
 21
36.318825
  0
LINE
  8
0
  6
CENTER
 62
     2
 10
77.340012
 20
30.188826
 11
88.710014
 21
30.188826
  0
LINE
  8
0
  6
CENTER
 62
     2
 10
99.650017
 20
25.928825
 11
99.650017
 21
35.348827
  0
LINE
  8
0
  6
CENTER
 62
     2
 10
95.350014
 20
30.188826
 11
103.760017
 21
30.188826
  0
LINE
  8
0
  6
CENTER
 62
     2
 10
99.650017
 20
9.008826
 11
99.650017
 21
19.098825
  0
LINE
  8
0
  6
CENTER
 62
     2
 10
94.180016
 20
13.888826
 11
104.540016
 21
13.888826
  0
LINE
  8
0
 10
104.000015
 20
12.051333
 11
104.000015
 21
32.026318
  0
LINE
  8
0
 10
101.487511
 20
9.538826
 11
81.512520
 21
9.538826
  0
LINE
  8
0
 10
101.487511
 20
34.538826
 11
81.512520
 21
34.538826
  0
LINE
  8
0
 10
79.000015
 20
12.051333
 11
79.000015
 21
32.026318
  0
LINE
  8
0
  6
CENTER
 62
     2
 10
91.500015
 20
8.098826
 11
91.500015
 21
36.238827
  0
LINE
  8
0
  6
CENTER
 62
     2
 10
-114.999954
 20
8.128826
 11
-114.999954
 21
35.788826
  0
LINE
  8
0
 10
-123.149956
 20
16.198824
 11
-121.149956
 21
15.048825
  0
LINE
  8
0
 10
-121.149956
 20
15.048826
 11
-121.149956
 21
12.738826
  0
LINE
  8
0
 10
-121.149956
 20
12.738824
 11
-123.149963
 21
11.578823
  0
LINE
  8
0
 10
-123.149956
 20
11.578825
 11
-125.149956
 21
12.738826
  0
LINE
  8
0
 10
-125.149956
 20
15.048826
 11
-125.149956
 21
12.738826
  0
LINE
  8
0
 10
-123.149956
 20
16.198828
 11
-125.149956
 21
15.048828
  0
LINE
  8
0
 10
-106.849953
 20
32.498825
 11
-104.849953
 21
31.348827
  0
LINE
  8
0
 10
-104.849953
 20
31.348827
 11
-104.849953
 21
29.038826
  0
LINE
  8
0
 10
-104.849953
 20
29.038826
 11
-106.849960
 21
27.878824
  0
LINE
  8
0
 10
-106.849953
 20
27.878826
 11
-108.849960
 21
29.038826
  0
LINE
  8
0
 10
-108.849953
 20
31.348827
 11
-108.849953
 21
29.038826
  0
LINE
  8
0
 10
-106.849953
 20
32.498825
 11
-108.849953
 21
31.348825
  0
LINE
  8
0
  6
CENTER
 62
     2
 10
-127.409958
 20
30.188826
 11
-119.009956
 21
30.188826
  0
LINE
  8
0
  6
CENTER
 62
     2
 10
-123.149956
 20
34.998825
 11
-123.149956
 21
26.088825
  0
LINE
  8
0
  6
CENTER
 62
     2
 10
-112.159958
 20
30.188826
 11
-100.719955
 21
30.188826
  0
LINE
  8
0
  6
CENTER
 62
     2
 10
-106.849953
 20
34.798828
 11
-106.849953
 21
24.568827
  0
LINE
  8
0
  6
CENTER
 62
     2
 10
-111.109955
 20
13.888826
 11
-102.618034
 21
13.888826
  0
LINE
  8
0
  6
CENTER
 62
     2
 10
-106.849953
 20
18.188826
 11
-106.849953
 21
9.788826
  0
LINE
  8
0
  6
CENTER
 62
     2
 10
-127.409958
 20
13.888826
 11
-117.429955
 21
13.888826
  0
LINE
  8
0
  6
CENTER
 62
     2
 10
-123.149956
 20
19.688826
 11
-123.149956
 21
8.888826
  0
LINE
  8
0
 62
     4
 10
-117.499954
 20
20.380514
 11
-117.499954
 21
23.697138
  0
LINE
  8
0
 62
     4
 10
-112.499954
 20
20.380514
 11
-112.499954
 21
23.697138
  0
LINE
  8
0
 10
-124.987450
 20
9.538826
 11
-105.012459
 21
9.538826
  0
LINE
  8
0
 10
-127.499954
 20
12.051333
 11
-127.499954
 21
32.026318
  0
LINE
  8
0
 10
-102.499954
 20
12.051333
 11
-102.499954
 21
32.026318
  0
LINE
  8
0
 10
-124.987450
 20
34.538826
 11
-105.012459
 21
34.538826
  0
LINE
  8
0
  6
CENTER
 62
     2
 10
-128.929962
 20
22.038826
 11
-101.269958
 21
22.038826
  0
LINE
  8
0
 10
137.123337
 20
105.565849
 11
137.123337
 21
120.565849
  0
LINE
  8
0
 10
-271.250000
 20
-177.000000
 11
-79.250000
 21
-177.000000
  0
LINE
  8
0
 10
-271.250000
 20
-161.000000
 11
-79.250000
 21
-161.000000
  0
LINE
  8
0
 10
-271.250000
 20
-169.000000
 11
-79.250000
 21
-169.000000
  0
LINE
  8
0
 10
-271.250000
 20
-153.000000
 11
-79.250000
 21
-153.000000
  0
LINE
  8
0
  6
CENTER
 62
     2
 10
117.143333
 20
113.065849
 11
140.913330
 21
113.065849
  0
LINE
  8
0
 10
-79.250000
 20
-137.000000
 11
-79.250000
 21
-185.000000
  0
LINE
  8
0
 10
-101.250000
 20
-137.000000
 11
-101.250000
 21
-185.000000
  0
LINE
  8
0
 10
-123.250000
 20
-137.000000
 11
-123.250000
 21
-185.000000
  0
LINE
  8
0
 10
-145.250000
 20
-137.000000
 11
-145.250000
 21
-185.000000
  0
LINE
  8
0
 10
-167.250000
 20
-137.000000
 11
-167.250000
 21
-185.000000
  0
LINE
  8
0
 10
-189.250000
 20
-137.000000
 11
-189.250000
 21
-185.000000
  0
LINE
  8
0
 10
-211.250000
 20
-153.000000
 11
-271.250000
 21
-137.000000
  0
LINE
  8
0
 10
-211.250000
 20
-137.000000
 11
-211.250000
 21
-185.000000
  0
LINE
  8
0
 10
-271.250000
 20
-137.000000
 11
-79.250000
 21
-137.000000
  0
LINE
  8
0
 10
-271.250000
 20
-185.000000
 11
-79.250000
 21
-185.000000
  0
LINE
  8
0
 10
-271.250000
 20
-137.000000
 11
-271.250000
 21
-185.000000
  0
LINE
  8
0
 10
282.099854
 20
195.500000
 11
282.099854
 21
-195.000000
  0
LINE
  8
0
 10
-281.250000
 20
195.500000
 11
282.099854
 21
195.500000
  0
LINE
  8
0
 10
-281.250000
 20
195.500000
 11
-281.250000
 21
-195.000000
  0
LINE
  8
0
 10
-281.250000
 20
-195.000000
 11
282.099854
 21
-195.000000
  0
LINE
  8
0
 10
162.099976
 20
-175.000000
 11
162.099976
 21
-195.000000
  0
LINE
  8
0
 10
162.099976
 20
-175.000000
 11
282.099854
 21
-175.000000
  0
LINE
  8
0
 10
162.099976
 20
175.500000
 11
282.099854
 21
175.500000
  0
LINE
  8
0
 10
-281.250000
 20
175.500000
 11
-161.250000
 21
175.500000
  0
LINE
  8
0
 10
162.099976
 20
195.500000
 11
162.099976
 21
175.500000
  0
LINE
  8
0
 10
-161.250000
 20
195.500000
 11
-161.250000
 21
175.500000
  0
ARC
  8
0
 62
     4
 10
108.631424
 20
-45.075775
 40
3.304374
 50
137.084778
 51
222.915222
  0
CIRCLE
  8
0
 62
     4
 10
91.131424
 20
-45.075775
 40
1.250000
  0
CIRCLE
  8
0
 62
     4
 10
91.131424
 20
-45.075775
 40
1.400000
  0
CIRCLE
  8
0
 62
     4
 10
108.538773
 20
-45.075775
 40
1.299999
  0
CIRCLE
  8
0
 62
     4
 10
108.860580
 20
-45.416779
 40
0.450000
  0
CIRCLE
  8
0
 62
     4
 10
108.248703
 20
-44.757622
 40
0.450000
  0
CIRCLE
  8
0
 62
     4
 10
108.860580
 20
-45.416779
 40
0.250000
  0
CIRCLE
  8
0
 62
     4
 10
108.248703
 20
-44.757622
 40
0.250000
  0
ARC
  8
0
 62
     4
 10
46.088703
 20
-95.225792
 40
2.050003
 50
180.000000
 51
269.999908
  0
ARC
  8
0
 62
     4
 10
46.093506
 20
-95.220901
 40
2.045202
 50
270.985901
 51
359.862793
  0
CIRCLE
  8
0
 62
     4
 10
-66.679504
 20
-50.125793
 40
1.250000
  0
CIRCLE
  8
0
 62
     4
 10
-66.679504
 20
-50.125793
 40
1.400000
  0
ARC
  8
0
 62
     4
 10
-113.222244
 20
-95.225792
 40
2.050003
 50
180.000000
 51
270.000000
  0
ARC
  8
0
 62
     4
 10
-113.222244
 20
-95.225792
 40
2.050003
 50
270.000000
 51
0.000000
  0
CIRCLE
  8
0
 10
-10.374794
 20
22.038826
 40
2.066999
  0
CIRCLE
  8
0
 62
     2
 10
-10.374794
 20
22.038826
 40
2.500000
  0
CIRCLE
  8
0
 10
-1.374794
 20
22.038826
 40
2.066999
  0
CIRCLE
  8
0
 62
     2
 10
-1.374794
 20
22.038826
 40
2.500000
  0
ARC
  8
0
 62
     4
 10
-32.881580
 20
22.043825
 40
3.003832
 50
326.566895
 51
33.433117
  0
ARC
  8
0
 10
91.500015
 20
22.038826
 40
16.000000
 50
38.624832
 51
51.375156
  0
ARC
  8
0
 10
91.500015
 20
22.038826
 40
16.000002
 50
308.624847
 51
321.375153
  0
ARC
  8
0
 10
91.500015
 20
22.038826
 40
16.000000
 50
218.624832
 51
231.375153
  0
ARC
  8
0
 10
91.500015
 20
22.038826
 40
16.000002
 50
128.624847
 51
141.375153
  0
CIRCLE
  8
0
 10
91.500015
 20
22.038826
 40
6.500000
  0
ARC
  8
0
 10
91.500015
 20
12.147128
 40
2.100015
 50
359.773499
 51
180.226501
  0
CIRCLE
  8
0
 10
99.650017
 20
13.888826
 40
2.150000
  0
CIRCLE
  8
0
 62
     2
 10
99.650017
 20
13.888826
 40
2.500000
  0
CIRCLE
  8
0
 10
99.650017
 20
13.888826
 40
3.250000
  0
CIRCLE
  8
0
 10
83.350014
 20
30.188826
 40
2.150000
  0
CIRCLE
  8
0
 62
     2
 10
83.350014
 20
30.188826
 40
2.500000
  0
CIRCLE
  8
0
 10
83.350014
 20
30.188826
 40
3.250000
  0
ARC
  8
0
 10
91.500015
 20
31.947117
 40
2.100015
 50
180.226166
 51
359.773834
  0
ARC
  8
0
 10
101.400017
 20
22.038826
 40
2.100002
 50
90.000000
 51
270.000000
  0
CIRCLE
  8
0
 10
83.350014
 20
13.888826
 40
3.250000
  0
CIRCLE
  8
0
 62
     2
 10
83.350014
 20
13.888826
 40
2.500000
  0
CIRCLE
  8
0
 10
99.650017
 20
30.188826
 40
3.250000
  0
CIRCLE
  8
0
 62
     2
 10
99.650017
 20
30.188826
 40
2.500000
  0
CIRCLE
  8
0
 10
99.650017
 20
30.188826
 40
2.150000
  0
CIRCLE
  8
0
 10
83.350014
 20
13.888826
 40
2.150000
  0
CIRCLE
  8
0
 62
     4
 10
-114.999954
 20
22.038826
 40
3.000000
  0
CIRCLE
  8
0
 62
     4
 10
-114.999954
 20
22.038826
 40
2.500000
  0
CIRCLE
  8
0
 62
     4
 10
-114.999954
 20
22.038826
 40
1.229500
  0
CIRCLE
  8
0
 62
     1
 10
-114.999954
 20
22.038826
 40
1.500000
  0
ARC
  8
0
 10
-114.999954
 20
22.038826
 40
16.000002
 50
308.624847
 51
321.375153
  0
ARC
  8
0
 10
-114.999954
 20
22.038826
 40
16.000000
 50
38.624832
 51
51.375156
  0
ARC
  8
0
 10
-114.999954
 20
22.038826
 40
16.000000
 50
218.624832
 51
231.375153
  0
ARC
  8
0
 10
-114.999954
 20
22.038826
 40
16.000002
 50
128.624847
 51
141.375153
  0
CIRCLE
  8
0
 10
-106.849953
 20
30.188826
 40
3.950000
  0
CIRCLE
  8
0
 10
-123.149956
 20
13.888826
 40
3.950000
  0
CIRCLE
  8
0
 10
-123.149956
 20
13.888826
 40
4.250000
  0
CIRCLE
  8
0
 10
-106.849953
 20
30.188826
 40
4.250000
  0
ARC
  8
0
 10
-123.149956
 20
13.888826
 40
4.751247
 50
293.716156
 51
156.283875
  0
ARC
  8
0
 10
-106.843910
 20
30.182789
 40
4.748455
 50
113.457024
 51
336.179443
  0
CIRCLE
  8
0
 10
-123.149956
 20
30.188826
 40
3.250000
  0
CIRCLE
  8
0
 62
     2
 10
-123.149956
 20
30.188826
 40
2.500000
  0
CIRCLE
  8
0
 10
-106.849953
 20
13.888826
 40
3.250000
  0
CIRCLE
  8
0
 62
     2
 10
-106.849953
 20
13.888826
 40
2.500000
  0
CIRCLE
  8
0
 10
-106.849953
 20
13.888826
 40
2.150000
  0
CIRCLE
  8
0
 10
-123.149956
 20
30.188826
 40
2.150000
  0
POLYLINE
  8
0
 62
     4
 66
     1
  0
VERTEX
  8
0
 10
126.763336
 20
117.685852
  0
VERTEX
  8
0
 10
127.022842
 20
117.134041
  0
VERTEX
  8
0
 10
127.123337
 20
116.535851
  0
VERTEX
  8
0
 10
127.022842
 20
115.932060
  0
VERTEX
  8
0
 10
126.763336
 20
115.375847
  0
SEQEND
  0
POLYLINE
  8
0
 62
     4
 66
     1
  0
VERTEX
  8
0
 10
123.473335
 20
117.685852
  0
VERTEX
  8
0
 10
123.218834
 20
117.134033
  0
VERTEX
  8
0
 10
123.123337
 20
116.535851
  0
VERTEX
  8
0
 10
123.218834
 20
115.932060
  0
VERTEX
  8
0
 10
123.473335
 20
115.375847
  0
SEQEND
  0
POLYLINE
  8
0
 62
     4
 66
     1
  0
VERTEX
  8
0
 10
135.123337
 20
114.725853
  0
VERTEX
  8
0
 10
135.485138
 20
113.929283
  0
VERTEX
  8
0
 10
135.623337
 20
113.065849
  0
VERTEX
  8
0
 10
135.485138
 20
112.208023
  0
VERTEX
  8
0
 10
135.123337
 20
111.415848
  0
SEQEND
  0
POLYLINE
  8
0
 62
     4
 66
     1
  0
VERTEX
  8
0
 10
123.473335
 20
115.375847
  0
VERTEX
  8
0
 10
123.280266
 20
114.620514
  0
VERTEX
  8
0
 10
123.162910
 20
113.847939
  0
VERTEX
  8
0
 10
123.123337
 20
113.065849
  0
VERTEX
  8
0
 10
123.162910
 20
112.287086
  0
VERTEX
  8
0
 10
123.280266
 20
111.518959
  0
VERTEX
  8
0
 10
123.473335
 20
110.765846
  0
SEQEND
  0
POLYLINE
  8
0
 62
     4
 66
     1
  0
VERTEX
  8
0
 10
126.763336
 20
115.375847
  0
VERTEX
  8
0
 10
126.959000
 20
114.620506
  0
VERTEX
  8
0
 10
127.081169
 20
113.847939
  0
VERTEX
  8
0
 10
127.123337
 20
113.065849
  0
VERTEX
  8
0
 10
127.081169
 20
112.287086
  0
VERTEX
  8
0
 10
126.959000
 20
111.518959
  0
VERTEX
  8
0
 10
126.763336
 20
110.765846
  0
SEQEND
  0
POLYLINE
  8
0
 62
     4
 66
     1
  0
VERTEX
  8
0
 10
123.473335
 20
108.455849
  0
VERTEX
  8
0
 10
123.218834
 20
109.007668
  0
VERTEX
  8
0
 10
123.123337
 20
109.605850
  0
VERTEX
  8
0
 10
123.218834
 20
110.209633
  0
VERTEX
  8
0
 10
123.473335
 20
110.765846
  0
SEQEND
  0
POLYLINE
  8
0
 62
     4
 66
     1
  0
VERTEX
  8
0
 10
126.763336
 20
108.455849
  0
VERTEX
  8
0
 10
127.022842
 20
109.007660
  0
VERTEX
  8
0
 10
127.123337
 20
109.605850
  0
VERTEX
  8
0
 10
127.022842
 20
110.209633
  0
VERTEX
  8
0
 10
126.763336
 20
110.765846
  0
SEQEND
  0
TEXT
  8
0
 62
     3
 10
-44.839401
 20
150.698212
 40
6.300000
  1
STRETCH LINE
 50
0.000000
 41
1.052632
 51
0.000000
  7
STANDARD
  0
TEXT
  8
0
 10
-95.142654
 20
-184.050003
 40
4.500000
  1
35
 50
0.000000
 41
1.052632
 51
0.000000
  7
STANDARD
  0
TEXT
  8
0
 10
-202.892654
 20
-176.050003
 40
4.500000
  1
5
 50
0.000000
 41
1.052632
 51
0.000000
  7
STANDARD
  0
TEXT
  8
0
 10
-183.142654
 20
-176.050003
 40
4.500000
  1
10
 50
0.000000
 41
1.052632
 51
0.000000
  7
STANDARD
  0
TEXT
  8
0
 10
-161.142654
 20
-176.050003
 40
4.500000
  1
15
 50
0.000000
 41
1.052632
 51
0.000000
  7
STANDARD
  0
TEXT
  8
0
 10
-139.142654
 20
-176.050003
 40
4.500000
  1
20
 50
0.000000
 41
1.052632
 51
0.000000
  7
STANDARD
  0
TEXT
  8
0
 10
-117.142654
 20
-176.050003
 40
4.500000
  1
25
 50
0.000000
 41
1.052632
 51
0.000000
  7
STANDARD
  0
TEXT
  8
0
 10
-95.142654
 20
-176.050003
 40
4.500000
  1
30
 50
0.000000
 41
1.052632
 51
0.000000
  7
STANDARD
  0
TEXT
  8
0
 10
-95.142654
 20
-160.050003
 40
4.500000
  1
25
 50
0.000000
 41
1.052632
 51
0.000000
  7
STANDARD
  0
TEXT
  8
0
 10
121.994667
 20
136.868622
 40
6.300000
  1
-B
 50
0.000000
 41
1.052632
 51
0.000000
  7
STANDARD
  0
TEXT
  8
0
 10
-202.892654
 20
-168.050003
 40
4.500000
  1
5
 50
0.000000
 41
1.052632
 51
0.000000
  7
STANDARD
  0
TEXT
  8
0
 10
-99.642654
 20
-136.050003
 40
4.500000
  1
üiéìéìüj
 50
0.000000
 41
0.833333
 51
0.000000
  7
STANDARD
  0
TEXT
  8
0
 10
-232.249710
 20
135.830002
 40
6.300000
  1
CS-CDA12*ST-R
 50
0.000000
 41
1.052632
 51
0.000000
  7
STANDARD
  0
TEXT
  8
0
 10
-232.249710
 20
145.830002
 40
6.300000
  1
CS-CDAS12*ST
 50
0.000000
 41
1.052632
 51
0.000000
  7
STANDARD
  0
TEXT
  8
0
 10
-270.049713
 20
155.830002
 40
6.300000
  1
MODEL:CS-CDA12*ST(5)
 50
0.000000
 41
1.052632
 51
0.000000
  7
STANDARD
  0
TEXT
  8
0
 10
-202.642654
 20
-135.050003
 40
4.500000
  1
STRETCH LIST
 50
0.000000
 41
1.052632
 51
0.000000
  7
STANDARD
  0
TEXT
  8
0
 10
-117.142654
 20
-160.050003
 40
4.500000
  1
20
 50
0.000000
 41
1.052632
 51
0.000000
  7
STANDARD
  0
TEXT
  8
0
 10
-139.142654
 20
-160.050003
 40
4.500000
  1
15
 50
0.000000
 41
1.052632
 51
0.000000
  7
STANDARD
  0
TEXT
  8
0
 10
-161.142654
 20
-160.050003
 40
4.500000
  1
10
 50
0.000000
 41
1.052632
 51
0.000000
  7
STANDARD
  0
TEXT
  8
0
 10
-180.892654
 20
-160.050003
 40
4.500000
  1
5
 50
0.000000
 41
1.052632
 51
0.000000
  7
STANDARD
  0
TEXT
  8
0
 10
-202.892654
 20
-160.050003
 40
4.500000
  1
0
 50
0.000000
 41
1.052632
 51
0.000000
  7
STANDARD
  0
TEXT
  8
0
 10
-183.142654
 20
-168.050003
 40
4.500000
  1
10
 50
0.000000
 41
1.052632
 51
0.000000
  7
STANDARD
  0
TEXT
  8
0
 10
-161.142654
 20
-168.050003
 40
4.500000
  1
15
 50
0.000000
 41
1.052632
 51
0.000000
  7
STANDARD
  0
TEXT
  8
0
 10
-139.142654
 20
-168.050003
 40
4.500000
  1
20
 50
0.000000
 41
1.052632
 51
0.000000
  7
STANDARD
  0
TEXT
  8
0
 10
-117.142654
 20
-168.050003
 40
4.500000
  1
25
 50
0.000000
 41
1.052632
 51
0.000000
  7
STANDARD
  0
TEXT
  8
0
 10
-95.142654
 20
-168.050003
 40
4.500000
  1
30
 50
0.000000
 41
1.052632
 51
0.000000
  7
STANDARD
  0
TEXT
  8
0
 10
-117.142654
 20
-184.050003
 40
4.500000
  1
30
 50
0.000000
 41
1.052632
 51
0.000000
  7
STANDARD
  0
TEXT
  8
0
 10
-139.142654
 20
-184.050003
 40
4.500000
  1
25
 50
0.000000
 41
1.052632
 51
0.000000
  7
STANDARD
  0
TEXT
  8
0
 10
-161.142654
 20
-184.050003
 40
4.500000
  1
20
 50
0.000000
 41
1.052632
 51
0.000000
  7
STANDARD
  0
TEXT
  8
0
 10
-183.142654
 20
-184.050003
 40
4.500000
  1
15
 50
0.000000
 41
1.052632
 51
0.000000
  7
STANDARD
  0
TEXT
  8
0
 10
-205.142654
 20
-184.050003
 40
4.500000
  1
10
 50
0.000000
 41
1.052632
 51
0.000000
  7
STANDARD
  0
TEXT
  8
0
 10
-95.142654
 20
-148.050003
 40
4.500000
  1
30
 50
0.000000
 41
1.052632
 51
0.000000
  7
STANDARD
  0
TEXT
  8
0
 10
-117.142654
 20
-148.050003
 40
4.500000
  1
25
 50
0.000000
 41
1.052632
 51
0.000000
  7
STANDARD
  0
TEXT
  8
0
 10
-139.142654
 20
-148.050003
 40
4.500000
  1
20
 50
0.000000
 41
1.052632
 51
0.000000
  7
STANDARD
  0
TEXT
  8
0
 10
-161.142654
 20
-148.050003
 40
4.500000
  1
15
 50
0.000000
 41
1.052632
 51
0.000000
  7
STANDARD
  0
TEXT
  8
0
 10
-183.142654
 20
-148.050003
 40
4.500000
  1
10
 50
0.000000
 41
1.052632
 51
0.000000
  7
STANDARD
  0
TEXT
  8
0
 10
-202.892654
 20
-148.050003
 40
4.500000
  1
5
 50
0.000000
 41
1.052632
 51
0.000000
  7
STANDARD
  0
TEXT
  8
0
 10
-240.142654
 20
-144.050003
 40
4.500000
  1
STROKE
 50
0.000000
 41
1.052632
 51
0.000000
  7
STANDARD
  0
TEXT
  8
0
 10
-265.642670
 20
-152.050003
 40
4.500000
  1
TYPE
 50
0.000000
 41
1.052632
 51
0.000000
  7
STANDARD
  0
TEXT
  8
0
 10
-264.000000
 20
-184.050003
 40
4.500000
  1
CS-CDAS12-R
 50
0.000000
 41
1.052632
 51
0.000000
  7
STANDARD
  0
TEXT
  8
0
 10
-264.000000
 20
-158.699997
 40
4.500000
  1
CS-CDA12
 50
0.000000
 41
1.052632
 51
0.000000
  7
STANDARD
  0
TEXT
  8
0
 10
-264.000000
 20
-166.699997
 40
4.500000
  1
CS-CDAS12
 50
0.000000
 41
1.052632
 51
0.000000
  7
STANDARD
  0
TEXT
  8
0
 10
-264.000000
 20
-174.699997
 40
4.500000
  1
CS-CDA12-R
 50
0.000000
 41
1.052632
 51
0.000000
  7
STANDARD
  0
TEXT
  8
0
 10
-232.249710
 20
125.830002
 40
6.300000
  1
CS-CDAS12*ST-R
 50
0.000000
 41
1.052632
 51
0.000000
  7
STANDARD
  0
TEXT
  8
0
 10
-269.149719
 20
180.830002
 40
6.300000
  1
CS JIG CYLINDER
 50
0.000000
 41
1.052632
 51
0.000000
  7
STANDARD
  0
TEXT
  8
0
 10
196.250259
 20
180.830002
 40
6.300000
  1
éuüvÕú‗.ü@éPüDéO
 50
0.000000
 41
0.833333
 51
0.000000
  7
STANDARD
  0
TEXT
  8
0
 10
167.564667
 20
-192.100006
 40
9.000000
  1
KOGANEI CORP.
 50
0.000000
 41
1.052632
 51
0.000000
  7
STANDARD
  0
ENDSEC
  0
EOF
