  0
SECTION
  2
HEADER
  0
ENDSEC
  0
SECTION
  2
TABLES
  0
TABLE
  2
LTYPE
 70
     4
  0
LTYPE
  2
CONTINUOUS
 70
    64
  3
Solid line
 72
    65
 73
     0
 40
0.000000
  0
LTYPE
  2
DASHED
 70
    64
  3
__ __ __ __ __ __ __ __ __ __ __ __ __ __ __
 72
    65
 73
     2
 40
3.500000
 49
2.000000
 49
-1.500000
  0
LTYPE
  2
CENTER
 70
    64
  3
____ _ ____ _ ____ _ ____ _ ____ _ ____ _ ____
 72
    65
 73
     4
 40
17.500000
 49
13.000000
 49
-1.500000
 49
1.500000
 49
-1.500000
  0
LTYPE
  2
PHANTOM
 70
    64
  3
_____ _ _ _____ _ _ _____ _ _ _____ _ _ ____  
 72
    65
 73
     6
 40
15.500000
 49
8.000000
 49
-1.500000
 49
1.500000
 49
-1.500000
 49
1.500000
 49
-1.500000
  0
LTYPE
  2
DASHED1
 70
    64
  3
__ __ __ __ __ __ __ __ __ __ __ __ __ __ __
 72
    65
 73
     2
 40
1.500000
 49
1.000000
 49
-0.500000
  0
LTYPE
  2
DASHED2
 70
    64
  3
__ __ __ __ __ __ __ __ __ __ __ __ __ __ __
 72
    65
 73
     2
 40
3.500000
 49
2.500000
 49
-1.000000
  0
LTYPE
  2
DASHED3
 70
    64
  3
__ __ __ __ __ __ __ __ __ __ __ __ __ __ __
 72
    65
 73
     2
 40
6.000000
 49
4.000000
 49
-2.000000
  0
LTYPE
  2
DASHED4
 70
    64
  3
__ __ __ __ __ __ __ __ __ __ __ __ __ __ __
 72
    65
 73
     2
 40
12.000000
 49
10.000000
 49
-2.000000
  0
LTYPE
  2
DASHED5
 70
    64
  3
__ __ __ __ __ __ __ __ __ __ __ __ __ __ __
 72
    65
 73
     2
 40
17.000000
 49
15.000000
 49
-2.000000
  0
LTYPE
  2
DASHED6
 70
    64
  3
__ __ __ __ __ __ __ __ __ __ __ __ __ __ __
 72
    65
 73
     2
 40
29.000000
 49
27.000000
 49
-2.000000
  0
LTYPE
  2
PHANTOM1
 70
    64
  3
_____ _ _ _____ _ _ _____ _ _ _____ _ _ ____  
 72
    65
 73
     6
 40
31.000000
 49
25.000000
 49
-1.500000
 49
1.000000
 49
-1.000000
 49
1.000000
 49
-1.500000
  0
LTYPE
  2
PHANTOM2
 70
    64
  3
_____ _ _ _____ _ _ _____ _ _ _____ _ _ ____  
 72
    65
 73
     6
 40
36.000000
 49
27.000000
 49
-1.500000
 49
2.500000
 49
-1.000000
 49
2.500000
 49
-1.500000
  0
LTYPE
  2
PHANTOM3
 70
    64
  3
_____ _ _ _____ _ _ _____ _ _ _____ _ _ ____  
 72
    65
 73
     6
 40
78.000000
 49
64.000000
 49
-2.000000
 49
4.000000
 49
-2.000000
 49
4.000000
 49
-2.000000
  0
LTYPE
  2
CENTER1
 70
    64
  3
____ _ ____ _ ____ _ ____ _ ____ _ ____ _ ____
 72
    65
 73
     4
 40
19.000000
 49
14.000000
 49
-1.000000
 49
3.000000
 49
-1.000000
  0
LTYPE
  2
CENTER2
 70
    64
  3
____ _ ____ _ ____ _ ____ _ ____ _ ____ _ ____
 72
    65
 73
     4
 40
28.500000
 49
25.000000
 49
-1.000000
 49
1.500000
 49
-1.000000
  0
LTYPE
  2
CENTER3
 70
    64
  3
____ _ ____ _ ____ _ ____ _ ____ _ ____ _ ____
 72
    65
 73
     4
 40
31.500000
 49
27.000000
 49
-1.000000
 49
2.500000
 49
-1.000000
  0
LTYPE
  2
CENTER4
 70
    64
  3
____ _ ____ _ ____ _ ____ _ ____ _ ____ _ ____
 72
    65
 73
     4
 40
50.000000
 49
45.000000
 49
-1.000000
 49
3.000000
 49
-1.000000
  0
LTYPE
  2
CENTER5
 70
    64
  3
____ _ ____ _ ____ _ ____ _ ____ _ ____ _ ____
 72
    65
 73
     4
 40
100.000000
 49
92.000000
 49
-2.000000
 49
4.000000
 49
-2.000000
  0
LTYPE
  2
SBK1
 70
    64
  3
______ _ _ _ ______ _ _ _ ______ _ _ _ _____  
 72
    65
 73
     8
 40
60.500000
 49
45.000000
 49
-2.000000
 49
2.500000
 49
-2.000000
 49
2.500000
 49
-2.000000
 49
2.500000
 49
-2.000000
  0
LTYPE
  2
SBK2
 70
    64
  3
______ _ _ _ ______ _ _ _ ______ _ _ _ _____  
 72
    65
 73
     8
 40
84.000000
 49
64.000000
 49
-2.000000
 49
4.000000
 49
-2.000000
 49
4.000000
 49
-2.000000
 49
4.000000
 49
-2.000000
  0
LTYPE
  2
STCH
 70
    64
  3
__ __ __ __ __ __ __ __ __ __ __ __ __ __ __
 72
    65
 73
     2
 40
3.000000
 49
1.000000
 49
-2.000000
  0
LTYPE
  2
MTCH
 70
    64
  3
_____ _ _ _____ _ _ _____ _ _ _____ _ _ ____  
 72
    65
 73
     6
 40
80.000000
 49
66.000000
 49
-2.000000
 49
4.000000
 49
-2.000000
 49
4.000000
 49
-2.000000
  0
ENDTAB
  0
TABLE
  2
LAYER
 70
     1
  0
LAYER
  2
0
 70
     0
 62
     7
  6
CONTINUOUS
  0
ENDTAB
  0
TABLE
  2
STYLE
 70
     1
  0
STYLE
  2
STANDARD
 70
     0
 40
0.000000
 41
1.000000
 50
0.000000
 71
     0
 42
0.200000
  3
txt
  4
BIGFONT
  0
ENDTAB
  0
TABLE
  2
VIEW
 70
     0
  0
ENDTAB
  0
ENDSEC
  0
SECTION
  2
BLOCKS
  0
ENDSEC
  0
SECTION
  2
ENTITIES
  0
LINE
  8
0
  6
DASHED
 62
     2
 10
109.282440
 20
-44.323250
 11
109.282440
 21
-49.794678
  0
LINE
  8
0
  6
DASHED
 62
     2
 10
114.282440
 20
-44.323250
 11
114.282440
 21
-49.794678
  0
LINE
  8
0
  6
DASHED
 62
     2
 10
109.782440
 20
-44.323250
 11
109.782440
 21
-49.794678
  0
LINE
  8
0
  6
DASHED
 62
     2
 10
113.782440
 20
-44.323250
 11
113.782440
 21
-49.794678
  0
LINE
  8
0
 10
155.782440
 20
-25.637533
 11
155.782440
 21
-31.937532
  0
LINE
  8
0
 10
155.782440
 20
28.205324
 11
155.782440
 21
-3.794676
  0
LINE
  8
0
 10
103.782440
 20
28.205324
 11
103.782440
 21
-3.794676
  0
LINE
  8
0
 10
103.782440
 20
55.848183
 11
103.782440
 21
50.548180
  0
LINE
  8
0
 10
155.782440
 20
56.348183
 11
155.782440
 21
50.048180
  0
LINE
  8
0
  6
CENTER
 62
     2
 10
111.782440
 20
-45.023964
 11
111.782440
 21
-52.294678
  0
LINE
  8
0
  6
CENTER
 62
     2
 10
145.039581
 20
-28.794676
 11
153.782440
 21
-28.794676
  0
LINE
  8
0
  6
CENTER
 62
     2
 10
145.253876
 20
53.205322
 11
153.782440
 21
53.205322
  0
LINE
  8
0
  6
CENTER
 62
     2
 10
105.782440
 20
53.205322
 11
112.782440
 21
53.205322
  0
LINE
  8
0
  6
CENTER
 62
     2
 10
108.782440
 20
-27.794676
 11
114.768158
 21
-27.794676
  0
LINE
  8
0
  6
CENTER
 62
     2
 10
111.782440
 20
-24.708963
 11
111.782440
 21
-30.751818
  0
LINE
  8
0
  6
CENTER
 62
     2
 10
154.782440
 20
-40.794678
 11
144.782440
 21
-40.794678
  0
LINE
  8
0
  6
CENTER
 62
     2
 10
149.782440
 20
-45.794678
 11
149.782440
 21
-35.794678
  0
LINE
  8
0
  6
CENTER
 62
     2
 10
104.782440
 20
-40.794678
 11
114.782440
 21
-40.794678
  0
LINE
  8
0
  6
CENTER
 62
     2
 10
109.782440
 20
-45.794678
 11
109.782440
 21
-35.794678
  0
LINE
  8
0
  6
CENTER
 62
     2
 10
154.782440
 20
65.205322
 11
144.782440
 21
65.205322
  0
LINE
  8
0
  6
CENTER
 62
     2
 10
149.782440
 20
70.205322
 11
149.782440
 21
60.205322
  0
LINE
  8
0
  6
CENTER
 62
     2
 10
129.782440
 20
77.005325
 11
129.782440
 21
-52.966110
  0
LINE
  8
0
  6
CENTER
 62
     2
 10
101.482437
 20
12.205324
 11
158.411011
 21
12.205324
  0
LINE
  8
0
  6
DASHED
 62
     2
 10
106.568153
 20
-45.637531
 11
106.211014
 21
-49.794678
  0
LINE
  8
0
  6
DASHED
 62
     2
 10
107.682442
 20
-45.637535
 11
107.682442
 21
-49.794678
  0
LINE
  8
0
  6
DASHED
 62
     2
 10
115.882439
 20
-45.637535
 11
115.882439
 21
-49.794678
  0
LINE
  8
0
  6
DASHED
 62
     2
 10
116.982437
 20
-45.637535
 11
117.339577
 21
-49.794678
  0
LINE
  8
0
 10
156.782440
 20
50.048180
 11
156.782440
 21
29.205324
  0
LINE
  8
0
 10
153.782440
 20
50.048180
 11
156.782440
 21
50.048180
  0
LINE
  8
0
 10
153.782440
 20
48.048180
 11
153.782440
 21
50.048180
  0
LINE
  8
0
 10
148.282440
 20
48.048180
 11
153.782440
 21
48.048180
  0
LINE
  8
0
 10
148.282440
 20
48.048180
 11
148.282440
 21
58.348183
  0
LINE
  8
0
 10
148.282440
 20
58.348183
 11
153.782440
 21
58.348183
  0
LINE
  8
0
 10
153.782440
 20
56.348183
 11
153.782440
 21
58.348183
  0
LINE
  8
0
 10
153.782440
 20
56.348183
 11
156.782440
 21
56.348183
  0
LINE
  8
0
 10
156.782440
 20
72.205322
 11
156.782440
 21
56.348183
  0
LINE
  8
0
 10
102.782440
 20
50.548180
 11
102.782440
 21
29.205324
  0
LINE
  8
0
 10
102.782440
 20
50.548180
 11
105.782440
 21
50.548180
  0
LINE
  8
0
 10
105.782440
 20
50.548180
 11
105.782440
 21
49.205322
  0
LINE
  8
0
 10
105.782440
 20
49.205322
 11
110.282440
 21
49.205322
  0
LINE
  8
0
 10
110.282440
 20
57.205322
 11
110.282440
 21
49.205322
  0
LINE
  8
0
 10
102.782440
 20
72.205322
 11
102.782440
 21
55.848183
  0
LINE
  8
0
 10
102.782440
 20
55.848183
 11
105.782440
 21
55.848183
  0
LINE
  8
0
 10
105.782440
 20
57.205322
 11
105.782440
 21
55.848183
  0
LINE
  8
0
 10
105.782440
 20
57.205322
 11
110.282440
 21
57.205322
  0
LINE
  8
0
 10
128.282440
 20
-49.794678
 11
128.282440
 21
-44.194679
  0
LINE
  8
0
 10
131.282440
 20
-49.794678
 11
131.282440
 21
-44.194679
  0
LINE
  8
0
 10
131.282440
 20
74.205322
 11
131.282440
 21
68.605324
  0
LINE
  8
0
 10
128.282440
 20
74.205322
 11
128.282440
 21
68.605324
  0
LINE
  8
0
  6
CENTER
 62
     2
 10
104.782440
 20
65.205322
 11
114.782440
 21
65.205322
  0
LINE
  8
0
  6
CENTER
 62
     2
 10
109.782440
 20
70.205322
 11
109.782440
 21
60.205322
  0
LINE
  8
0
 10
102.782440
 20
29.205324
 11
103.782440
 21
28.205326
  0
LINE
  8
0
 10
153.782440
 20
-31.937532
 11
153.782440
 21
-33.937531
  0
LINE
  8
0
 10
156.782440
 20
-31.937532
 11
156.782440
 21
-47.794678
  0
LINE
  8
0
 10
153.782440
 20
-23.637533
 11
153.782440
 21
-25.637533
  0
LINE
  8
0
 10
148.282440
 20
-23.637533
 11
148.282440
 21
-33.937531
  0
LINE
  8
0
 10
148.282440
 20
-33.937531
 11
153.782440
 21
-33.937531
  0
LINE
  8
0
 10
148.282440
 20
-23.637533
 11
153.782440
 21
-23.637533
  0
LINE
  8
0
 10
153.782440
 20
-31.937532
 11
156.782440
 21
-31.937532
  0
LINE
  8
0
 10
153.782440
 20
-25.637533
 11
156.782440
 21
-25.637533
  0
LINE
  8
0
 10
154.782440
 20
74.205315
 11
156.782440
 21
72.205315
  0
LINE
  8
0
 10
102.782440
 20
72.205322
 11
104.782440
 21
74.205322
  0
LINE
  8
0
 10
154.782440
 20
-49.794678
 11
156.782440
 21
-47.794678
  0
LINE
  8
0
 10
102.782440
 20
-47.794674
 11
104.782440
 21
-49.794678
  0
LINE
  8
0
 10
156.782440
 20
-4.794676
 11
156.782440
 21
-25.637533
  0
LINE
  8
0
 10
102.782440
 20
-4.794676
 11
102.782440
 21
-47.794678
  0
LINE
  8
0
 10
156.782440
 20
-4.794675
 11
155.782440
 21
-3.794673
  0
LINE
  8
0
 10
155.782440
 20
1.505324
 11
155.282440
 21
1.505324
  0
LINE
  8
0
 10
155.282455
 20
1.505323
 11
154.782455
 21
1.005322
  0
LINE
  8
0
 10
154.782440
 20
1.005324
 11
153.182434
 21
1.005324
  0
LINE
  8
0
 10
154.782440
 20
5.205324
 11
153.182434
 21
5.205324
  0
LINE
  8
0
 10
155.282440
 20
4.705329
 11
154.782440
 21
5.205330
  0
LINE
  8
0
 10
155.782440
 20
4.705324
 11
155.282440
 21
4.705324
  0
LINE
  8
0
 10
156.782440
 20
29.205324
 11
155.782440
 21
28.205324
  0
LINE
  8
0
 10
155.782440
 20
22.905323
 11
155.282440
 21
22.905323
  0
LINE
  8
0
 10
155.282440
 20
22.905319
 11
154.782440
 21
23.405319
  0
LINE
  8
0
 10
154.782440
 20
23.405323
 11
153.182434
 21
23.405323
  0
LINE
  8
0
 10
154.782440
 20
19.205324
 11
153.182434
 21
19.205324
  0
LINE
  8
0
 10
155.282440
 20
19.705320
 11
154.782440
 21
19.205324
  0
LINE
  8
0
 10
155.782440
 20
19.705324
 11
155.282440
 21
19.705324
  0
LINE
  8
0
 10
102.782440
 20
-4.794678
 11
103.782440
 21
-3.794676
  0
LINE
  8
0
 10
103.782440
 20
1.505324
 11
104.282440
 21
1.505324
  0
LINE
  8
0
 10
104.282448
 20
1.505323
 11
104.782440
 21
1.005328
  0
LINE
  8
0
 10
104.782440
 20
1.005324
 11
106.382439
 21
1.005324
  0
LINE
  8
0
 10
104.782440
 20
5.205324
 11
106.382439
 21
5.205324
  0
LINE
  8
0
 10
104.282440
 20
4.705325
 11
104.782448
 21
5.205326
  0
LINE
  8
0
 10
103.782440
 20
4.705324
 11
104.282440
 21
4.705324
  0
LINE
  8
0
  6
CENTER
 62
     2
 10
114.925293
 20
-32.794678
 11
144.225296
 21
-32.794678
  0
LINE
  8
0
  6
CENTER
 62
     2
 10
114.896729
 20
57.205322
 11
144.453873
 21
57.205322
  0
LINE
  8
0
 10
104.782440
 20
74.205322
 11
154.782440
 21
74.205322
  0
LINE
  8
0
 10
104.782440
 20
-49.794678
 11
154.782440
 21
-49.794678
  0
LINE
  8
0
 10
103.782440
 20
22.905323
 11
104.282440
 21
22.905323
  0
LINE
  8
0
 10
104.282440
 20
22.905325
 11
104.782440
 21
23.405319
  0
LINE
  8
0
 10
104.782440
 20
23.405323
 11
106.382439
 21
23.405323
  0
LINE
  8
0
 10
104.782440
 20
19.205324
 11
106.382439
 21
19.205324
  0
LINE
  8
0
 10
104.282440
 20
19.705324
 11
104.782440
 21
19.205328
  0
LINE
  8
0
 10
103.782440
 20
19.705324
 11
104.282440
 21
19.705324
  0
LINE
  8
0
 10
-150.217575
 20
-48.294670
 11
-149.717575
 21
-48.794674
  0
LINE
  8
0
 10
-98.217567
 20
-48.294674
 11
-98.717567
 21
-48.794674
  0
LINE
  8
0
 10
-98.717567
 20
73.205322
 11
-98.217567
 21
72.705322
  0
LINE
  8
0
 10
-150.217575
 20
72.705322
 11
-149.717575
 21
73.205322
  0
LINE
  8
0
 10
-98.717567
 20
73.205322
 11
-149.717560
 21
73.205322
  0
LINE
  8
0
 10
-98.717567
 20
-48.794678
 11
-149.717560
 21
-48.794678
  0
LINE
  8
0
 10
-150.217560
 20
72.705322
 11
-150.217560
 21
-48.294678
  0
LINE
  8
0
 10
-98.217567
 20
72.705322
 11
-98.217567
 21
-48.294678
  0
LINE
  8
0
  6
CENTER
 62
     2
 10
-107.217567
 20
70.362465
 11
-107.217567
 21
59.633896
  0
LINE
  8
0
  6
CENTER
 62
     2
 10
-141.217560
 20
70.362465
 11
-141.217560
 21
59.819611
  0
LINE
  8
0
  6
CENTER
 62
     2
 10
-133.803284
 20
-32.794678
 11
-114.803284
 21
-32.794678
  0
LINE
  8
0
  6
CENTER
 62
     2
 10
-133.803284
 20
57.205322
 11
-114.803284
 21
57.205322
  0
LINE
  8
0
  6
CENTER
 62
     2
 10
-135.789001
 20
65.205322
 11
-146.588989
 21
65.205322
  0
LINE
  8
0
  6
CENTER
 62
     2
 10
-135.789001
 20
-40.794678
 11
-146.588989
 21
-40.794678
  0
LINE
  8
0
 10
-124.217567
 20
15.091037
 11
-121.717575
 21
13.648181
  0
LINE
  8
0
 10
-121.717567
 20
13.648181
 11
-121.717567
 21
10.762467
  0
LINE
  8
0
 10
-121.717560
 20
10.762465
 11
-124.217560
 21
9.305325
  0
LINE
  8
0
 10
-124.217560
 20
9.305325
 11
-126.717567
 21
10.762468
  0
LINE
  8
0
 10
-126.717567
 20
13.648181
 11
-126.717567
 21
10.762467
  0
LINE
  8
0
 10
-124.217567
 20
15.091039
 11
-126.717567
 21
13.648182
  0
LINE
  8
0
 10
-124.217560
 20
60.091038
 11
-121.717560
 21
58.648182
  0
LINE
  8
0
 10
-121.717567
 20
58.648186
 11
-121.717567
 21
55.762466
  0
LINE
  8
0
 10
-121.717567
 20
55.762474
 11
-124.217567
 21
54.305332
  0
LINE
  8
0
 10
-124.217567
 20
54.305321
 11
-126.717567
 21
55.762466
  0
LINE
  8
0
 10
-126.717567
 20
58.648186
 11
-126.717567
 21
55.762466
  0
LINE
  8
0
 10
-124.217567
 20
60.091034
 11
-126.717567
 21
58.648178
  0
LINE
  8
0
 10
-124.217567
 20
-29.894676
 11
-121.717567
 21
-31.351818
  0
LINE
  8
0
 10
-121.717567
 20
-31.351820
 11
-121.717567
 21
-34.237534
  0
LINE
  8
0
 10
-121.717567
 20
-34.237537
 11
-124.217567
 21
-35.680393
  0
LINE
  8
0
 10
-124.217567
 20
-35.680386
 11
-126.717567
 21
-34.237534
  0
LINE
  8
0
 10
-126.717567
 20
-31.351820
 11
-126.717567
 21
-34.237534
  0
LINE
  8
0
 10
-124.217567
 20
-29.894674
 11
-126.717567
 21
-31.351816
  0
LINE
  8
0
  6
CENTER
 62
     2
 10
-124.217567
 20
79.562469
 11
-124.217567
 21
-55.080391
  0
LINE
  8
0
 10
-149.217560
 20
72.205322
 11
-149.217560
 21
-47.794678
  0
LINE
  8
0
 10
-99.217567
 20
72.205322
 11
-99.217567
 21
-47.794678
  0
LINE
  8
0
  6
CENTER
 62
     2
 10
-101.788994
 20
-40.794678
 11
-112.588997
 21
-40.794678
  0
LINE
  8
0
  6
CENTER
 62
     2
 10
-141.217560
 20
-46.366104
 11
-141.217560
 21
-34.894676
  0
LINE
  8
0
 62
     2
 10
-101.788994
 20
65.205322
 11
-112.588997
 21
65.205322
  0
LINE
  8
0
  6
CENTER
 62
     2
 10
-107.217567
 20
-46.366104
 11
-107.217567
 21
-34.894676
  0
LINE
  8
0
 10
-99.217567
 20
-47.794674
 11
-100.217567
 21
-48.794674
  0
LINE
  8
0
 10
-149.217560
 20
-47.794678
 11
-148.217575
 21
-48.794678
  0
LINE
  8
0
 10
-100.217567
 20
73.205322
 11
-99.217567
 21
72.205322
  0
LINE
  8
0
 10
-148.217575
 20
73.205322
 11
-149.217560
 21
72.205322
  0
LINE
  8
0
 10
-97.217567
 20
50.548180
 11
-97.217567
 21
29.205324
  0
LINE
  8
0
 10
-97.217567
 20
29.205324
 11
-98.217567
 21
28.205326
  0
LINE
  8
0
 10
-151.217560
 20
50.048180
 11
-151.217560
 21
29.205324
  0
LINE
  8
0
 10
-150.217560
 20
56.348183
 11
-151.217560
 21
56.348183
  0
LINE
  8
0
 10
-150.217560
 20
50.048180
 11
-151.217560
 21
50.048180
  0
LINE
  8
0
 10
-151.217560
 20
-31.937532
 11
-151.217560
 21
-47.794678
  0
LINE
  8
0
 10
-150.217560
 20
-31.937532
 11
-151.217560
 21
-31.937532
  0
LINE
  8
0
 10
-150.217560
 20
-25.637533
 11
-151.217560
 21
-25.637533
  0
LINE
  8
0
 10
-97.217567
 20
55.848183
 11
-98.217567
 21
55.848183
  0
LINE
  8
0
 10
-97.217567
 20
50.548180
 11
-98.217567
 21
50.548180
  0
LINE
  8
0
 10
-149.217575
 20
74.205315
 11
-151.217575
 21
72.205322
  0
LINE
  8
0
 10
-97.217567
 20
72.205322
 11
-99.217567
 21
74.205322
  0
LINE
  8
0
 10
-149.217575
 20
-49.794678
 11
-151.217575
 21
-47.794678
  0
LINE
  8
0
 10
-97.217567
 20
-47.794674
 11
-99.217567
 21
-49.794678
  0
LINE
  8
0
 10
-151.217560
 20
-4.794676
 11
-151.217560
 21
-25.637533
  0
LINE
  8
0
 10
-97.217567
 20
-4.794676
 11
-97.217567
 21
-47.794678
  0
LINE
  8
0
 10
-151.217575
 20
-4.794672
 11
-150.217560
 21
-3.794673
  0
LINE
  8
0
 10
-151.217575
 20
29.205320
 11
-150.217560
 21
28.205322
  0
LINE
  8
0
 10
-97.217567
 20
-4.794682
 11
-98.217567
 21
-3.794680
  0
LINE
  8
0
 10
-97.217567
 20
72.205322
 11
-97.217567
 21
55.848183
  0
LINE
  8
0
 10
-151.217560
 20
72.205322
 11
-151.217560
 21
56.348183
  0
LINE
  8
0
 10
-99.217567
 20
74.205322
 11
-149.217560
 21
74.205322
  0
LINE
  8
0
 10
-99.217567
 20
-49.794678
 11
-149.217560
 21
-49.794678
  0
LINE
  8
0
  6
CENTER
 62
     2
 10
-93.874710
 20
12.205324
 11
-154.231857
 21
12.205324
  0
LINE
  8
0
  6
DASHED
 62
     2
 10
-21.217564
 20
-42.883629
 11
-21.217564
 21
-47.794678
  0
LINE
  8
0
  6
DASHED
 62
     2
 10
-17.217564
 20
-43.012627
 11
-17.217564
 21
-47.794678
  0
LINE
  8
0
  6
DASHED
 62
     2
 10
-21.717564
 20
-42.948128
 11
-21.717564
 21
-47.794678
  0
LINE
  8
0
  6
DASHED
 62
     2
 10
-16.717564
 20
-42.948128
 11
-16.717564
 21
-47.794678
  0
LINE
  8
0
  6
CENTER
 62
     2
 10
-8.182789
 20
-27.794676
 11
5.798454
 21
-27.794676
  0
LINE
  8
0
  6
CENTER
 62
     2
 10
-19.217564
 20
-24.372236
 11
-19.217564
 21
-31.478682
  0
LINE
  8
0
 10
-25.217562
 20
-47.294678
 11
-24.717566
 21
-47.794674
  0
LINE
  8
0
 10
-24.717560
 20
72.205322
 11
-25.217558
 21
71.705330
  0
LINE
  8
0
 10
-25.217564
 20
71.705322
 11
-25.217564
 21
-47.294678
  0
LINE
  8
0
 10
-29.217564
 20
-40.794678
 11
-25.217564
 21
-40.794678
  0
LINE
  8
0
 10
-29.217564
 20
-24.794676
 11
-25.217564
 21
-24.794676
  0
LINE
  8
0
 10
-29.217564
 20
49.205322
 11
-25.217564
 21
49.205322
  0
LINE
  8
0
 10
-29.217564
 20
65.205322
 11
-25.217564
 21
65.205322
  0
LINE
  8
0
 10
38.782436
 20
73.705322
 11
38.782436
 21
-49.294678
  0
LINE
  8
0
  6
CENTER
 62
     2
 10
13.782436
 20
-44.237534
 11
13.782436
 21
-51.623245
  0
LINE
  8
0
  6
DASHED
 62
     2
 10
3.996722
 20
-45.637531
 11
4.353865
 21
-49.794670
  0
LINE
  8
0
  6
DASHED
 62
     2
 10
2.882439
 20
-45.637535
 11
2.882439
 21
-49.794678
  0
LINE
  8
0
  6
CENTER
 62
     2
 10
-22.889067
 20
-27.794676
 11
-15.729609
 21
-27.794676
  0
LINE
  8
0
  6
DASHED
 62
     2
 10
-5.317562
 20
-45.637535
 11
-5.317562
 21
-49.794678
  0
LINE
  8
0
  6
DASHED
 62
     2
 10
-6.417563
 20
-45.637535
 11
-6.774706
 21
-49.794678
  0
LINE
  8
0
 10
-15.217563
 20
-49.294678
 11
-14.717562
 21
-49.794678
  0
LINE
  8
0
 10
38.782440
 20
-49.294678
 11
38.282440
 21
-49.794678
  0
LINE
  8
0
  6
CENTER
 62
     2
 10
18.614597
 20
-27.794676
 11
33.372578
 21
-27.794676
  0
LINE
  8
0
  6
DASHED
 62
     2
 10
18.982437
 20
-45.637531
 11
19.339581
 21
-49.794674
  0
LINE
  8
0
  6
DASHED
 62
     2
 10
17.882439
 20
-45.637535
 11
17.882439
 21
-49.794678
  0
LINE
  8
0
  6
DASHED
 62
     2
 10
9.682438
 20
-45.637535
 11
9.682438
 21
-49.794678
  0
LINE
  8
0
  6
DASHED
 62
     2
 10
8.582438
 20
-45.637531
 11
8.225294
 21
-49.794678
  0
LINE
  8
0
  6
CENTER
 62
     2
 10
25.782436
 20
-21.608961
 11
25.782436
 21
-34.898018
  0
LINE
  8
0
  6
CENTER
 62
     2
 10
-1.217564
 20
-21.208963
 11
-1.217564
 21
-34.898018
  0
LINE
  8
0
  6
CENTER
 62
     2
 10
-15.717564
 20
-13.794676
 11
-0.717564
 21
-13.794676
  0
LINE
  8
0
  6
CENTER
 62
     2
 10
-8.217564
 20
-6.294676
 11
-8.217564
 21
-21.294676
  0
LINE
  8
0
  6
CENTER
 62
     2
 10
4.925293
 20
-13.794676
 11
19.282436
 21
-13.794676
  0
LINE
  8
0
  6
CENTER
 62
     2
 10
11.782436
 20
-6.294676
 11
11.782436
 21
-21.294676
  0
LINE
  8
0
 10
38.782436
 20
-47.794678
 11
-24.717564
 21
-47.794678
  0
LINE
  8
0
 10
38.782436
 20
-4.794676
 11
-15.217564
 21
-4.794676
  0
LINE
  8
0
 10
38.782436
 20
-3.794676
 11
-15.217564
 21
-3.794676
  0
LINE
  8
0
 10
38.782436
 20
1.505324
 11
-15.217564
 21
1.505324
  0
LINE
  8
0
 10
38.782436
 20
4.705324
 11
-15.217564
 21
4.705324
  0
LINE
  8
0
 10
-14.717564
 20
-49.794678
 11
38.282436
 21
-49.794678
  0
LINE
  8
0
 10
-15.217564
 20
73.705322
 11
-15.217564
 21
-49.294678
  0
LINE
  8
0
  6
CENTER
 62
     2
 10
41.682438
 20
12.205324
 11
-46.660419
 21
12.205324
  0
LINE
  8
0
  6
CENTER
 62
     2
 10
4.282436
 20
38.205322
 11
19.282436
 21
38.205322
  0
LINE
  8
0
  6
CENTER
 62
     2
 10
11.782436
 20
45.705322
 11
11.782436
 21
30.705324
  0
LINE
  8
0
  6
CENTER
 62
     2
 10
-15.717564
 20
38.205322
 11
-0.717564
 21
38.205322
  0
LINE
  8
0
  6
CENTER
 62
     2
 10
-8.217564
 20
45.705322
 11
-8.217564
 21
30.705324
  0
LINE
  8
0
  6
DASHED
 62
     2
 10
60.282436
 20
65.205322
 11
60.282436
 21
49.205322
  0
LINE
  8
0
  6
DASHED
 62
     2
 10
60.782440
 20
49.705322
 11
60.282440
 21
49.205322
  0
LINE
  8
0
  6
DASHED
 62
     2
 10
60.282440
 20
65.205330
 11
60.782440
 21
64.705330
  0
LINE
  8
0
  6
DASHED
 62
     2
 10
38.782436
 20
49.205322
 11
60.282436
 21
49.205322
  0
LINE
  8
0
  6
DASHED
 62
     2
 10
38.782436
 20
65.205322
 11
60.282436
 21
65.205322
  0
LINE
  8
0
  6
DASHED
 62
     2
 10
60.782436
 20
64.705322
 11
60.782436
 21
49.705322
  0
LINE
  8
0
  6
DASHED
 62
     2
 10
60.282436
 20
-24.794676
 11
60.282436
 21
-40.794678
  0
LINE
  8
0
  6
DASHED
 62
     2
 10
60.782436
 20
-40.294674
 11
60.282436
 21
-40.794674
  0
LINE
  8
0
  6
DASHED
 62
     2
 10
60.282440
 20
-24.794676
 11
60.782440
 21
-25.294674
  0
LINE
  8
0
  6
DASHED
 62
     2
 10
38.782436
 20
-40.794678
 11
60.282436
 21
-40.794678
  0
LINE
  8
0
  6
DASHED
 62
     2
 10
38.782436
 20
-24.794676
 11
60.282436
 21
-24.794676
  0
LINE
  8
0
  6
DASHED
 62
     2
 10
60.782436
 20
-25.294676
 11
60.782436
 21
-40.294678
  0
LINE
  8
0
 10
-29.217564
 20
16.076754
 11
-27.717564
 21
16.076754
  0
LINE
  8
0
 10
-29.217564
 20
20.205324
 11
-25.217564
 21
20.205324
  0
LINE
  8
0
 10
38.282436
 20
74.205330
 11
38.782436
 21
73.705330
  0
LINE
  8
0
 10
-14.717562
 20
74.205322
 11
-15.217563
 21
73.705322
  0
LINE
  8
0
 10
38.782436
 20
19.705324
 11
-15.217564
 21
19.705324
  0
LINE
  8
0
 10
38.782436
 20
22.905323
 11
-15.217564
 21
22.905323
  0
LINE
  8
0
 10
38.782436
 20
28.205324
 11
-15.217564
 21
28.205324
  0
LINE
  8
0
 10
38.782436
 20
29.205324
 11
-15.217564
 21
29.205324
  0
LINE
  8
0
 10
38.782436
 20
50.548180
 11
-15.217564
 21
50.548180
  0
LINE
  8
0
 10
38.782436
 20
55.848183
 11
-15.217564
 21
55.848183
  0
LINE
  8
0
 10
38.782436
 20
72.205322
 11
-24.717564
 21
72.205322
  0
LINE
  8
0
 10
-14.717564
 20
74.205322
 11
38.282436
 21
74.205322
  0
LINE
  8
0
 10
-30.217567
 20
73.205322
 11
-29.217566
 21
72.205322
  0
LINE
  8
0
 10
-43.217560
 20
73.205322
 11
-44.217560
 21
72.205322
  0
LINE
  8
0
 10
-30.217566
 20
-48.794682
 11
-29.217562
 21
-47.794674
  0
LINE
  8
0
 10
-44.217564
 20
-47.794674
 11
-43.217564
 21
-48.794678
  0
LINE
  8
0
 62
     2
 10
-27.717564
 20
16.076754
 11
-29.217564
 21
10.262467
  0
LINE
  8
0
 62
     2
 10
-27.717564
 20
8.319609
 11
-29.217564
 21
14.133896
  0
LINE
  8
0
 10
-27.717564
 20
16.076754
 11
-27.717564
 21
8.319610
  0
LINE
  8
0
 10
-29.217564
 20
8.319610
 11
-27.717564
 21
8.319610
  0
LINE
  8
0
 10
-44.217564
 20
72.205322
 11
-44.217564
 21
-47.794678
  0
LINE
  8
0
 10
-29.217564
 20
-47.794678
 11
-29.217564
 21
72.205322
  0
LINE
  8
0
 10
-43.217564
 20
-48.794678
 11
-30.217564
 21
-48.794678
  0
LINE
  8
0
 10
-43.217564
 20
73.205322
 11
-30.217564
 21
73.205322
  0
LINE
  8
0
  6
CENTER
 62
     2
 10
-46.674706
 20
57.205322
 11
-22.212769
 21
57.205322
  0
LINE
  8
0
  6
CENTER
 62
     2
 10
-46.931850
 20
-32.794678
 11
-22.588284
 21
-32.794678
  0
LINE
  8
0
 10
-29.217564
 20
4.205324
 11
-25.217564
 21
4.205324
  0
LINE
  8
0
  6
PHANTOM
 62
     3
 10
19.487034
 20
-22.272913
 11
19.487034
 21
82.959480
  0
LINE
  8
0
  6
PHANTOM
 62
     3
 10
1.680832
 20
-22.272913
 11
5.427162
 21
-22.272913
  0
LINE
  8
0
  6
PHANTOM
 62
     3
 10
7.062031
 20
-22.272913
 11
19.487034
 21
-22.272913
  0
LINE
  8
0
  6
CENTER
 62
     2
 10
-1.217564
 20
-44.237534
 11
-1.217564
 21
-51.623245
  0
LINE
  8
0
  6
CENTER
 62
     2
 10
-19.217564
 20
-44.237534
 11
-19.217564
 21
-51.623245
  0
LINE
  8
0
  6
PHANTOM
 62
     3
 10
7.062031
 20
-57.600006
 11
7.062031
 21
-22.272913
  0
LINE
  8
0
  6
PHANTOM
 62
     3
 10
5.427162
 20
-57.600006
 11
5.427162
 21
-22.272913
  0
LINE
  8
0
  6
PHANTOM
 62
     3
 10
1.680832
 20
-22.272913
 11
1.680832
 21
90.204582
  0
LINE
  8
0
 10
-111.250000
 20
-123.500000
 11
-111.250000
 21
-92.500000
  0
LINE
  8
0
 10
-184.250000
 20
-123.500000
 11
-27.250000
 21
-123.500000
  0
LINE
  8
0
 10
-184.250000
 20
-115.500000
 11
-27.250000
 21
-115.500000
  0
LINE
  8
0
 10
-184.250000
 20
-107.500000
 11
-27.250000
 21
-107.500000
  0
LINE
  8
0
 10
-159.250000
 20
-123.500000
 11
-159.250000
 21
-92.500000
  0
LINE
  8
0
 10
-135.250000
 20
-123.500000
 11
-135.250000
 21
-92.500000
  0
LINE
  8
0
 10
-147.250000
 20
-123.500000
 11
-147.250000
 21
-92.500000
  0
LINE
  8
0
 10
-123.250000
 20
-123.500000
 11
-123.250000
 21
-92.500000
  0
LINE
  8
0
 10
-99.250000
 20
-123.500000
 11
-99.250000
 21
-92.500000
  0
LINE
  8
0
 10
-87.250000
 20
-123.500000
 11
-87.250000
 21
-92.500000
  0
LINE
  8
0
 10
-159.250000
 20
-107.499992
 11
-161.930008
 21
-97.500000
  0
LINE
  8
0
 10
-184.250000
 20
-97.500000
 11
-161.929993
 21
-97.500000
  0
LINE
  8
0
 10
-184.250000
 20
-92.500000
 11
-27.250000
 21
-92.500000
  0
LINE
  8
0
 10
-75.250000
 20
-123.500000
 11
-75.250000
 21
-92.500000
  0
LINE
  8
0
 10
-63.250000
 20
-123.500000
 11
-63.250000
 21
-92.500000
  0
LINE
  8
0
 10
-51.250000
 20
-123.500000
 11
-51.250000
 21
-92.500000
  0
LINE
  8
0
 10
-39.250000
 20
-123.500000
 11
-39.250000
 21
-92.500000
  0
LINE
  8
0
 10
-27.250000
 20
-123.500000
 11
-27.250000
 21
-92.500000
  0
LINE
  8
0
 10
-184.250000
 20
-123.500000
 11
-184.250000
 21
-92.500000
  0
LINE
  8
0
 10
-74.250000
 20
132.600006
 11
-74.250000
 21
117.599998
  0
LINE
  8
0
 10
-194.250000
 20
117.599998
 11
-74.250000
 21
117.599998
  0
LINE
  8
0
 10
109.800003
 20
117.599998
 11
194.800003
 21
117.599998
  0
LINE
  8
0
 10
109.800003
 20
132.600006
 11
109.800003
 21
117.599998
  0
LINE
  8
0
 10
109.800003
 20
-118.500000
 11
194.800003
 21
-118.500000
  0
LINE
  8
0
 10
109.800003
 20
-118.500000
 11
109.800003
 21
-133.500000
  0
LINE
  8
0
 10
-194.250000
 20
-133.500000
 11
194.800003
 21
-133.500000
  0
LINE
  8
0
 10
-194.250000
 20
132.600006
 11
-194.250000
 21
-133.500000
  0
LINE
  8
0
 10
194.800003
 20
132.600006
 11
194.800003
 21
-133.500000
  0
LINE
  8
0
 10
-194.250000
 20
132.600006
 11
194.800003
 21
132.600006
  0
CIRCLE
  8
0
 10
149.782440
 20
-40.794678
 40
3.323500
  0
CIRCLE
  8
0
 10
109.782440
 20
-40.794678
 40
3.323500
  0
CIRCLE
  8
0
 10
109.782440
 20
65.205322
 40
3.323500
  0
CIRCLE
  8
0
 10
149.782440
 20
65.205322
 40
3.323500
  0
CIRCLE
  8
0
 10
129.782440
 20
-32.794678
 40
8.000000
  0
CIRCLE
  8
0
 10
129.782440
 20
57.205322
 40
8.000000
  0
CIRCLE
  8
0
 10
111.782433
 20
-27.794676
 40
1.499999
  0
CIRCLE
  8
0
 62
     2
 10
149.782440
 20
-40.794662
 40
3.999999
  0
CIRCLE
  8
0
 62
     2
 10
109.782440
 20
-40.794662
 40
3.999999
  0
CIRCLE
  8
0
 62
     2
 10
149.782440
 20
65.205315
 40
3.999999
  0
CIRCLE
  8
0
 10
129.782440
 20
12.205324
 40
14.500000
  0
CIRCLE
  8
0
 10
129.782440
 20
-32.794678
 40
11.500002
  0
CIRCLE
  8
0
 10
129.782440
 20
57.205322
 40
11.500002
  0
CIRCLE
  8
0
 62
     2
 10
109.782440
 20
65.205315
 40
3.999999
  0
CIRCLE
  8
0
 10
129.782440
 20
12.205324
 40
21.000000
  0
ARC
  8
0
 10
153.182434
 20
3.105324
 40
2.100000
 50
90.000000
 51
270.000000
  0
ARC
  8
0
 10
153.182434
 20
21.305325
 40
2.100000
 50
90.000000
 51
270.000000
  0
ARC
  8
0
 10
106.382439
 20
3.105324
 40
2.100000
 50
270.000000
 51
90.000000
  0
ARC
  8
0
 10
106.382439
 20
21.305325
 40
2.100000
 50
270.000000
 51
90.000000
  0
CIRCLE
  8
0
 10
-141.217560
 20
-40.794678
 40
3.323500
  0
CIRCLE
  8
0
 10
-107.217567
 20
-40.794678
 40
3.323500
  0
CIRCLE
  8
0
 10
-141.217560
 20
65.205322
 40
3.323500
  0
CIRCLE
  8
0
 10
-107.217567
 20
65.205322
 40
3.323500
  0
CIRCLE
  8
0
 10
-124.217567
 20
12.205324
 40
4.599999
  0
CIRCLE
  8
0
 10
-124.217567
 20
12.205324
 40
7.000000
  0
CIRCLE
  8
0
 10
-124.217567
 20
57.205322
 40
4.599999
  0
CIRCLE
  8
0
 10
-124.217567
 20
57.205322
 40
7.000000
  0
CIRCLE
  8
0
 10
-124.217567
 20
-32.794678
 40
4.599999
  0
CIRCLE
  8
0
 10
-124.217567
 20
-32.794678
 40
7.000000
  0
CIRCLE
  8
0
 62
     2
 10
-141.217560
 20
-40.794662
 40
3.999999
  0
CIRCLE
  8
0
 62
     2
 10
-141.217560
 20
65.205315
 40
3.999999
  0
CIRCLE
  8
0
 62
     2
 10
-107.217552
 20
-40.794662
 40
3.999999
  0
CIRCLE
  8
0
 62
     2
 10
-107.217552
 20
65.205315
 40
3.999999
  0
CIRCLE
  8
0
 10
-124.217567
 20
57.205322
 40
7.500000
  0
CIRCLE
  8
0
 10
-124.217567
 20
-32.794678
 40
7.500000
  0
CIRCLE
  8
0
 10
-124.217567
 20
12.205324
 40
7.500000
  0
CIRCLE
  8
0
 10
25.782436
 20
-27.794676
 40
4.283000
  0
CIRCLE
  8
0
 10
-1.217564
 20
-27.794676
 40
4.283000
  0
CIRCLE
  8
0
 62
     2
 10
25.782436
 20
-27.794676
 40
4.864000
  0
CIRCLE
  8
0
 62
     2
 10
-1.217564
 20
-27.794676
 40
4.864000
  0
CIRCLE
  8
0
 10
-19.217564
 20
-27.794676
 40
2.067000
  0
CIRCLE
  8
0
 62
     2
 10
-19.217564
 20
-27.794676
 40
2.500000
  0
CIRCLE
  8
0
  6
DASHED
 62
     2
 10
11.782433
 20
-13.794693
 40
3.999999
  0
CIRCLE
  8
0
  6
DASHED
 62
     2
 10
-8.217567
 20
-13.794693
 40
3.999999
  0
CIRCLE
  8
0
 10
-8.217567
 20
-13.794693
 40
5.499999
  0
CIRCLE
  8
0
 10
11.782433
 20
-13.794693
 40
5.499999
  0
CIRCLE
  8
0
 10
11.782433
 20
-13.794693
 40
3.299999
  0
CIRCLE
  8
0
 10
-8.217567
 20
-13.794693
 40
3.299999
  0
CIRCLE
  8
0
  6
DASHED
 62
     2
 10
-8.217545
 20
38.205322
 40
3.999999
  0
CIRCLE
  8
0
  6
DASHED
 62
     2
 10
11.782459
 20
38.205322
 40
3.999999
  0
CIRCLE
  8
0
 10
11.782459
 20
38.205322
 40
5.499999
  0
CIRCLE
  8
0
 10
-8.217545
 20
38.205322
 40
5.499999
  0
CIRCLE
  8
0
 10
-8.217545
 20
38.205322
 40
3.299999
  0
CIRCLE
  8
0
 10
11.782459
 20
38.205322
 40
3.299999
  0
ARC
  8
0
 10
-34.717552
 20
12.198181
 40
8.002699
 50
331.009949
 51
28.990070
  0
TEXT
  8
0
 10
-119.056999
 20
-121.379997
 40
3.200000
  1
0
 50
0.000000
 41
1.052632
 51
0.000000
  7
STANDARD
  0
TEXT
  8
0
 10
-120.656998
 20
-113.379997
 40
3.200000
  1
30
 50
0.000000
 41
1.052632
 51
0.000000
  7
STANDARD
  0
TEXT
  8
0
 10
-120.657158
 20
-101.879997
 40
3.200000
  1
40
 50
0.000000
 41
1.052632
 51
0.000000
  7
STANDARD
  0
TEXT
  8
0
 10
-181.557144
 20
-96.879997
 40
3.200000
  1
STROKE
 50
0.000000
 41
1.052632
 51
0.000000
  7
STANDARD
  0
TEXT
  8
0
 10
-173.557144
 20
-113.379997
 40
3.200000
  1
A
 50
0.000000
 41
1.052632
 51
0.000000
  7
STANDARD
  0
TEXT
  8
0
 10
-184.496872
 20
-101.019997
 40
3.200000
  1
STRETCH
 50
0.000000
 41
1.052632
 51
0.000000
  7
STANDARD
  0
TEXT
  8
0
 10
-184.496872
 20
-105.820000
 40
3.200000
  1
  PLACE
 50
0.000000
 41
1.052632
 51
0.000000
  7
STANDARD
  0
TEXT
  8
0
 10
-156.657150
 20
-101.879997
 40
3.200000
  1
10
 50
0.000000
 41
1.052632
 51
0.000000
  7
STANDARD
  0
TEXT
  8
0
 10
-144.657150
 20
-101.879997
 40
3.200000
  1
20
 50
0.000000
 41
1.052632
 51
0.000000
  7
STANDARD
  0
TEXT
  8
0
 10
-132.657150
 20
-101.879997
 40
3.200000
  1
30
 50
0.000000
 41
1.052632
 51
0.000000
  7
STANDARD
  0
TEXT
  8
0
 10
-108.657158
 20
-101.879997
 40
3.200000
  1
50
 50
0.000000
 41
1.052632
 51
0.000000
  7
STANDARD
  0
TEXT
  8
0
 10
-96.657158
 20
-101.879997
 40
3.200000
  1
75
 50
0.000000
 41
1.052632
 51
0.000000
  7
STANDARD
  0
TEXT
  8
0
 10
-39.857143
 20
-91.379997
 40
3.200000
  1
（ｍｍ）
 50
0.000000
 41
0.833333
 51
0.000000
  7
STANDARD
  0
TEXT
  8
0
 10
-125.157143
 20
-91.379997
 40
3.200000
  1
STRETCH LIST
 50
0.000000
 41
1.052632
 51
0.000000
  7
STANDARD
  0
TEXT
  8
0
 10
-173.557007
 20
-121.379997
 40
3.200000
  1
B
 50
0.000000
 41
1.052632
 51
0.000000
  7
STANDARD
  0
TEXT
  8
0
 10
-86.257156
 20
-101.879997
 40
3.200000
  1
100
 50
0.000000
 41
1.052632
 51
0.000000
  7
STANDARD
  0
TEXT
  8
0
 10
-74.257156
 20
-101.879997
 40
3.200000
  1
125
 50
0.000000
 41
1.052632
 51
0.000000
  7
STANDARD
  0
TEXT
  8
0
 10
-62.257156
 20
-101.879997
 40
3.200000
  1
150
 50
0.000000
 41
1.052632
 51
0.000000
  7
STANDARD
  0
TEXT
  8
0
 10
-50.257156
 20
-101.879997
 40
3.200000
  1
175
 50
0.000000
 41
1.052632
 51
0.000000
  7
STANDARD
  0
TEXT
  8
0
 10
-38.257156
 20
-101.879997
 40
3.200000
  1
200
 50
0.000000
 41
1.052632
 51
0.000000
  7
STANDARD
  0
TEXT
  8
0
 10
-155.057007
 20
-113.379997
 40
3.200000
  1
0
 50
0.000000
 41
1.052632
 51
0.000000
  7
STANDARD
  0
TEXT
  8
0
 10
-144.656998
 20
-113.379997
 40
3.200000
  1
10
 50
0.000000
 41
1.052632
 51
0.000000
  7
STANDARD
  0
TEXT
  8
0
 10
-132.656998
 20
-113.379997
 40
3.200000
  1
20
 50
0.000000
 41
1.052632
 51
0.000000
  7
STANDARD
  0
TEXT
  8
0
 10
-108.656998
 20
-113.379997
 40
3.200000
  1
40
 50
0.000000
 41
1.052632
 51
0.000000
  7
STANDARD
  0
TEXT
  8
0
 10
-96.656998
 20
-113.379997
 40
3.200000
  1
40
 50
0.000000
 41
1.052632
 51
0.000000
  7
STANDARD
  0
TEXT
  8
0
 10
-84.656998
 20
-113.379997
 40
3.200000
  1
40
 50
0.000000
 41
1.052632
 51
0.000000
  7
STANDARD
  0
TEXT
  8
0
 10
-72.656998
 20
-113.379997
 40
3.200000
  1
90
 50
0.000000
 41
1.052632
 51
0.000000
  7
STANDARD
  0
TEXT
  8
0
 10
-60.657001
 20
-113.379997
 40
3.200000
  1
90
 50
0.000000
 41
1.052632
 51
0.000000
  7
STANDARD
  0
TEXT
  8
0
 10
-48.657001
 20
-113.379997
 40
3.200000
  1
90
 50
0.000000
 41
1.052632
 51
0.000000
  7
STANDARD
  0
TEXT
  8
0
 10
-36.657001
 20
-113.379997
 40
3.200000
  1
90
 50
0.000000
 41
1.052632
 51
0.000000
  7
STANDARD
  0
TEXT
  8
0
 10
-155.057007
 20
-121.379997
 40
3.200000
  1
0
 50
0.000000
 41
1.052632
 51
0.000000
  7
STANDARD
  0
TEXT
  8
0
 10
-143.057007
 20
-121.379997
 40
3.200000
  1
0
 50
0.000000
 41
1.052632
 51
0.000000
  7
STANDARD
  0
TEXT
  8
0
 10
-131.057007
 20
-121.379997
 40
3.200000
  1
0
 50
0.000000
 41
1.052632
 51
0.000000
  7
STANDARD
  0
TEXT
  8
0
 10
-107.056999
 20
-121.379997
 40
3.200000
  1
0
 50
0.000000
 41
1.052632
 51
0.000000
  7
STANDARD
  0
TEXT
  8
0
 10
-96.656998
 20
-121.379997
 40
3.200000
  1
25
 50
0.000000
 41
1.052632
 51
0.000000
  7
STANDARD
  0
TEXT
  8
0
 10
-84.656998
 20
-121.379997
 40
3.200000
  1
50
 50
0.000000
 41
1.052632
 51
0.000000
  7
STANDARD
  0
TEXT
  8
0
 10
-72.656998
 20
-121.379997
 40
3.200000
  1
25
 50
0.000000
 41
1.052632
 51
0.000000
  7
STANDARD
  0
TEXT
  8
0
 10
-60.657001
 20
-121.379997
 40
3.200000
  1
50
 50
0.000000
 41
1.052632
 51
0.000000
  7
STANDARD
  0
TEXT
  8
0
 10
-48.657001
 20
-121.379997
 40
3.200000
  1
75
 50
0.000000
 41
1.052632
 51
0.000000
  7
STANDARD
  0
TEXT
  8
0
 10
-38.257000
 20
-121.379997
 40
3.200000
  1
100
 50
0.000000
 41
1.052632
 51
0.000000
  7
STANDARD
  0
TEXT
  8
0
 62
     3
 10
-12.759748
 20
91.584885
 40
3.200000
  1
STRETCH LINE A
 50
0.000000
 41
1.052632
 51
0.000000
  7
STANDARD
  0
TEXT
  8
0
 10
-186.892654
 20
104.550003
 40
4.500000
  1
MODEL:CS-SGDAQ40*ST(10)
 50
0.000000
 41
1.052632
 51
0.000000
  7
STANDARD
  0
TEXT
  8
0
 62
     3
 10
8.511208
 20
85.064293
 40
3.200000
  1
STRETCH LINE B
 50
0.000000
 41
1.052632
 51
0.000000
  7
STANDARD
  0
TEXT
  8
0
 10
-192.142654
 20
122.050003
 40
4.500000
  1
CS JIG CYLINDER WITH GUIDE
 50
0.000000
 41
1.052632
 51
0.000000
  7
STANDARD
  0
TEXT
  8
0
 10
113.700287
 20
-130.669998
 40
6.300000
  1
KOGANEI CORP.
 50
0.000000
 41
1.052632
 51
0.000000
  7
STANDARD
  0
TEXT
  8
0
 10
133.907150
 20
122.050003
 40
4.500000
  1
Ｖｅｒ．　１．０
 50
0.000000
 41
0.833333
 51
0.000000
  7
STANDARD
  0
TEXT
  8
0
 62
     2
 10
43.135475
 20
-74.804581
 40
3.200000
  1
ST=75,100,125,150,175,200
 50
0.000000
 41
1.052632
 51
0.000000
  7
STANDARD
  0
LINE
  8
0
 62
     2
 10
60.782436
 20
-75.804581
 11
122.885475
 21
-75.804581
  0
LINE
  8
0
 62
     2
 10
60.782436
 20
-75.804581
 11
38.782436
 21
-75.804581
  0
LINE
  8
0
 62
     2
 10
60.782436
 20
-75.804581
 11
57.884659
 21
-76.581039
  0
LINE
  8
0
 62
     2
 10
60.782436
 20
-75.804581
 11
57.884659
 21
-75.028122
  0
LINE
  8
0
 62
     2
 10
38.782436
 20
-75.804581
 11
41.680214
 21
-75.028122
  0
LINE
  8
0
 62
     2
 10
38.782436
 20
-75.804581
 11
41.680214
 21
-76.581039
  0
LINE
  8
0
 62
     2
 10
60.782436
 20
-40.294674
 11
60.782436
 21
-77.304581
  0
LINE
  8
0
 62
     2
 10
38.782436
 20
-49.294678
 11
38.782436
 21
-77.304581
  0
ENDSEC
  0
EOF
