  0
SECTION
  2
HEADER
  0
ENDSEC
  0
SECTION
  2
TABLES
  0
TABLE
  2
LTYPE
 70
     4
  0
LTYPE
  2
CONTINUOUS
 70
    64
  3
Solid line
 72
    65
 73
     0
 40
0.000000
  0
LTYPE
  2
DASHED
 70
    64
  3
__ __ __ __ __ __ __ __ __ __ __ __ __ __ __
 72
    65
 73
     2
 40
3.500000
 49
2.000000
 49
-1.500000
  0
LTYPE
  2
CENTER
 70
    64
  3
____ _ ____ _ ____ _ ____ _ ____ _ ____ _ ____
 72
    65
 73
     4
 40
17.500000
 49
13.000000
 49
-1.500000
 49
1.500000
 49
-1.500000
  0
LTYPE
  2
PHANTOM
 70
    64
  3
_____ _ _ _____ _ _ _____ _ _ _____ _ _ ____  
 72
    65
 73
     6
 40
15.500000
 49
8.000000
 49
-1.500000
 49
1.500000
 49
-1.500000
 49
1.500000
 49
-1.500000
  0
LTYPE
  2
DASHED1
 70
    64
  3
__ __ __ __ __ __ __ __ __ __ __ __ __ __ __
 72
    65
 73
     2
 40
1.500000
 49
1.000000
 49
-0.500000
  0
LTYPE
  2
DASHED2
 70
    64
  3
__ __ __ __ __ __ __ __ __ __ __ __ __ __ __
 72
    65
 73
     2
 40
3.500000
 49
2.500000
 49
-1.000000
  0
LTYPE
  2
DASHED3
 70
    64
  3
__ __ __ __ __ __ __ __ __ __ __ __ __ __ __
 72
    65
 73
     2
 40
6.000000
 49
4.000000
 49
-2.000000
  0
LTYPE
  2
DASHED4
 70
    64
  3
__ __ __ __ __ __ __ __ __ __ __ __ __ __ __
 72
    65
 73
     2
 40
12.000000
 49
10.000000
 49
-2.000000
  0
LTYPE
  2
DASHED5
 70
    64
  3
__ __ __ __ __ __ __ __ __ __ __ __ __ __ __
 72
    65
 73
     2
 40
17.000000
 49
15.000000
 49
-2.000000
  0
LTYPE
  2
DASHED6
 70
    64
  3
__ __ __ __ __ __ __ __ __ __ __ __ __ __ __
 72
    65
 73
     2
 40
29.000000
 49
27.000000
 49
-2.000000
  0
LTYPE
  2
PHANTOM1
 70
    64
  3
_____ _ _ _____ _ _ _____ _ _ _____ _ _ ____  
 72
    65
 73
     6
 40
31.000000
 49
25.000000
 49
-1.500000
 49
1.000000
 49
-1.000000
 49
1.000000
 49
-1.500000
  0
LTYPE
  2
PHANTOM2
 70
    64
  3
_____ _ _ _____ _ _ _____ _ _ _____ _ _ ____  
 72
    65
 73
     6
 40
36.000000
 49
27.000000
 49
-1.500000
 49
2.500000
 49
-1.000000
 49
2.500000
 49
-1.500000
  0
LTYPE
  2
PHANTOM3
 70
    64
  3
_____ _ _ _____ _ _ _____ _ _ _____ _ _ ____  
 72
    65
 73
     6
 40
78.000000
 49
64.000000
 49
-2.000000
 49
4.000000
 49
-2.000000
 49
4.000000
 49
-2.000000
  0
LTYPE
  2
CENTER1
 70
    64
  3
____ _ ____ _ ____ _ ____ _ ____ _ ____ _ ____
 72
    65
 73
     4
 40
19.000000
 49
14.000000
 49
-1.000000
 49
3.000000
 49
-1.000000
  0
LTYPE
  2
CENTER2
 70
    64
  3
____ _ ____ _ ____ _ ____ _ ____ _ ____ _ ____
 72
    65
 73
     4
 40
28.500000
 49
25.000000
 49
-1.000000
 49
1.500000
 49
-1.000000
  0
LTYPE
  2
CENTER3
 70
    64
  3
____ _ ____ _ ____ _ ____ _ ____ _ ____ _ ____
 72
    65
 73
     4
 40
31.500000
 49
27.000000
 49
-1.000000
 49
2.500000
 49
-1.000000
  0
LTYPE
  2
CENTER4
 70
    64
  3
____ _ ____ _ ____ _ ____ _ ____ _ ____ _ ____
 72
    65
 73
     4
 40
50.000000
 49
45.000000
 49
-1.000000
 49
3.000000
 49
-1.000000
  0
LTYPE
  2
CENTER5
 70
    64
  3
____ _ ____ _ ____ _ ____ _ ____ _ ____ _ ____
 72
    65
 73
     4
 40
100.000000
 49
92.000000
 49
-2.000000
 49
4.000000
 49
-2.000000
  0
LTYPE
  2
SBK1
 70
    64
  3
______ _ _ _ ______ _ _ _ ______ _ _ _ _____  
 72
    65
 73
     8
 40
60.500000
 49
45.000000
 49
-2.000000
 49
2.500000
 49
-2.000000
 49
2.500000
 49
-2.000000
 49
2.500000
 49
-2.000000
  0
LTYPE
  2
SBK2
 70
    64
  3
______ _ _ _ ______ _ _ _ ______ _ _ _ _____  
 72
    65
 73
     8
 40
84.000000
 49
64.000000
 49
-2.000000
 49
4.000000
 49
-2.000000
 49
4.000000
 49
-2.000000
 49
4.000000
 49
-2.000000
  0
LTYPE
  2
STCH
 70
    64
  3
__ __ __ __ __ __ __ __ __ __ __ __ __ __ __
 72
    65
 73
     2
 40
3.000000
 49
1.000000
 49
-2.000000
  0
LTYPE
  2
MTCH
 70
    64
  3
_____ _ _ _____ _ _ _____ _ _ _____ _ _ ____  
 72
    65
 73
     6
 40
80.000000
 49
66.000000
 49
-2.000000
 49
4.000000
 49
-2.000000
 49
4.000000
 49
-2.000000
  0
ENDTAB
  0
TABLE
  2
LAYER
 70
     1
  0
LAYER
  2
0
 70
     0
 62
     7
  6
CONTINUOUS
  0
ENDTAB
  0
TABLE
  2
STYLE
 70
     1
  0
STYLE
  2
STANDARD
 70
     0
 40
0.000000
 41
1.000000
 50
0.000000
 71
     0
 42
0.200000
  3
txt
  4
BIGFONT
  0
ENDTAB
  0
TABLE
  2
VIEW
 70
     0
  0
ENDTAB
  0
ENDSEC
  0
SECTION
  2
BLOCKS
  0
ENDSEC
  0
SECTION
  2
ENTITIES
  0
LINE
  8
0
  6
DASHED
 62
     2
 10
115.459457
 20
-53.447899
 11
115.459457
 21
-47.846680
  0
LINE
  8
0
  6
DASHED
 62
     2
 10
111.459457
 20
-53.447899
 11
111.459457
 21
-47.785282
  0
LINE
  8
0
  6
DASHED
 62
     2
 10
115.959457
 20
-53.447899
 11
115.959457
 21
-47.846680
  0
LINE
  8
0
  6
DASHED
 62
     2
 10
110.959457
 20
-53.447899
 11
110.959457
 21
-47.723881
  0
LINE
  8
0
 10
108.459457
 20
-7.147899
 11
108.459457
 21
-8.947899
  0
LINE
  8
0
 10
108.459457
 20
11.052101
 11
108.459457
 21
-3.947899
  0
LINE
  8
0
 10
152.459457
 20
-7.147899
 11
152.459457
 21
-8.947899
  0
LINE
  8
0
 10
152.459457
 20
11.052101
 11
152.459457
 21
-3.947899
  0
LINE
  8
0
 10
153.459457
 20
17.052101
 11
153.459457
 21
-9.955418
  0
LINE
  8
0
 10
107.459457
 20
17.052101
 11
107.459457
 21
-9.947899
  0
LINE
  8
0
 10
153.459457
 20
-26.805042
 11
153.459457
 21
-32.105042
  0
LINE
  8
0
 10
107.459457
 20
39.194958
 11
107.459457
 21
33.894958
  0
LINE
  8
0
 10
153.459457
 20
39.194958
 11
153.459457
 21
33.894958
  0
LINE
  8
0
  6
CENTER
 62
     2
 10
147.459457
 20
59.737816
 11
147.459457
 21
47.423531
  0
LINE
  8
0
  6
CENTER
 62
     2
 10
118.802315
 20
-46.447899
 11
108.059456
 21
-46.447899
  0
LINE
  8
0
 62
     2
 10
113.459457
 20
-34.147900
 11
113.459457
 21
-28.719330
  0
LINE
  8
0
  6
CENTER
 62
     2
 10
151.459457
 20
-29.447899
 11
144.202316
 21
-29.447899
  0
LINE
  8
0
  6
CENTER
 62
     2
 10
151.459457
 20
36.552101
 11
144.402313
 21
36.552101
  0
LINE
  8
0
  6
CENTER
 62
     2
 10
109.459457
 20
36.552101
 11
116.345169
 21
36.552101
  0
LINE
  8
0
 10
128.959457
 20
54.952103
 11
128.959457
 21
60.552101
  0
LINE
  8
0
 10
131.959457
 20
54.952103
 11
131.959457
 21
60.552101
  0
LINE
  8
0
 10
131.959457
 20
-47.847900
 11
131.959457
 21
-53.447899
  0
LINE
  8
0
 10
128.959457
 20
-47.847900
 11
128.959457
 21
-53.447899
  0
LINE
  8
0
 62
     2
 10
118.459457
 20
-53.447899
 11
118.245171
 21
-49.547901
  0
LINE
  8
0
  6
DASHED
 62
     2
 10
117.459457
 20
-52.447899
 11
117.459457
 21
-49.547901
  0
LINE
  8
0
  6
DASHED
 62
     2
 10
118.459457
 20
-53.447895
 11
117.459457
 21
-52.447899
  0
LINE
  8
0
  6
DASHED
 62
     2
 10
108.459457
 20
-53.447895
 11
109.459450
 21
-52.447895
  0
LINE
  8
0
  6
DASHED
 62
     2
 10
117.459457
 20
-52.447899
 11
109.459457
 21
-52.447899
  0
LINE
  8
0
  6
DASHED
 62
     2
 10
109.459457
 20
-52.447899
 11
109.459457
 21
-49.547901
  0
LINE
  8
0
  6
DASHED
 62
     2
 10
108.459457
 20
-53.447899
 11
108.659447
 21
-49.547901
  0
LINE
  8
0
 10
154.459457
 20
-26.805042
 11
151.459457
 21
-26.805042
  0
LINE
  8
0
 10
151.459457
 20
-26.619328
 11
151.459457
 21
-25.447899
  0
LINE
  8
0
 10
151.459457
 20
-25.447899
 11
146.959457
 21
-25.447899
  0
LINE
  8
0
 10
146.959457
 20
-33.447899
 11
146.959457
 21
-25.447899
  0
LINE
  8
0
 10
151.459457
 20
-33.447899
 11
146.959457
 21
-33.447899
  0
LINE
  8
0
 10
151.459457
 20
-33.447899
 11
151.459457
 21
-32.105042
  0
LINE
  8
0
 10
154.459457
 20
-32.105042
 11
151.459457
 21
-32.105042
  0
LINE
  8
0
 10
151.459457
 20
40.552101
 11
151.459457
 21
39.194958
  0
LINE
  8
0
 10
154.459457
 20
39.194958
 11
151.459457
 21
39.194958
  0
LINE
  8
0
 10
154.459457
 20
33.894958
 11
151.459457
 21
33.894958
  0
LINE
  8
0
 10
151.459457
 20
33.709244
 11
151.459457
 21
32.552101
  0
LINE
  8
0
 10
151.459457
 20
32.552101
 11
146.959457
 21
32.552101
  0
LINE
  8
0
 10
146.959457
 20
40.552101
 11
146.959457
 21
32.552101
  0
LINE
  8
0
 10
151.459457
 20
40.552101
 11
146.959457
 21
40.552101
  0
LINE
  8
0
  6
CENTER
 62
     2
 10
113.459457
 20
-55.562187
 11
113.459457
 21
-40.862186
  0
LINE
  8
0
  6
CENTER
 62
     2
 10
116.759460
 20
43.552101
 11
144.359451
 21
43.552101
  0
LINE
  8
0
 62
     2
 10
110.416595
 20
-31.447899
 11
116.302315
 21
-31.447899
  0
LINE
  8
0
  6
CENTER
 62
     2
 10
113.459457
 20
59.666389
 11
113.459457
 21
48.052101
  0
LINE
  8
0
  6
CENTER
 62
     2
 10
107.859459
 20
53.552101
 11
118.902313
 21
53.552101
  0
LINE
  8
0
  6
CENTER
 62
     2
 10
142.088028
 20
53.552101
 11
153.573746
 21
53.552101
  0
LINE
  8
0
  6
CENTER
 62
     2
 10
147.459457
 20
-41.262184
 11
147.459457
 21
-51.805042
  0
LINE
  8
0
  6
CENTER
 62
     2
 10
142.088028
 20
-46.447899
 11
153.573746
 21
-46.447899
  0
LINE
  8
0
  6
CENTER
 62
     2
 10
117.059456
 20
-36.447899
 11
143.873749
 21
-36.447899
  0
LINE
  8
0
 10
106.459457
 20
-51.447899
 11
106.459457
 21
-10.947899
  0
LINE
  8
0
 10
106.459457
 20
58.552101
 11
108.459457
 21
60.552097
  0
LINE
  8
0
 10
106.459457
 20
-51.447899
 11
108.459457
 21
-53.447895
  0
LINE
  8
0
 10
154.459457
 20
58.552101
 11
152.459457
 21
60.552101
  0
LINE
  8
0
 10
154.459457
 20
-51.447903
 11
152.459457
 21
-53.447906
  0
LINE
  8
0
 10
108.459457
 20
-53.447899
 11
152.459457
 21
-53.447899
  0
LINE
  8
0
 10
108.459457
 20
60.552101
 11
152.459457
 21
60.552101
  0
LINE
  8
0
 10
154.459457
 20
-26.805042
 11
154.459457
 21
-10.947899
  0
LINE
  8
0
 10
154.459457
 20
-51.447899
 11
154.459457
 21
-32.105042
  0
LINE
  8
0
 10
154.459457
 20
33.894958
 11
154.459457
 21
18.052101
  0
LINE
  8
0
 10
154.459457
 20
58.552101
 11
154.459457
 21
39.194958
  0
LINE
  8
0
 10
152.459457
 20
-8.947893
 11
154.359451
 21
-10.862178
  0
LINE
  8
0
 10
152.459457
 20
16.052101
 11
152.459457
 21
14.252101
  0
LINE
  8
0
 10
152.459457
 20
-7.147899
 11
151.959457
 21
-7.147899
  0
LINE
  8
0
 10
151.959457
 20
-7.147906
 11
151.459457
 21
-7.647907
  0
LINE
  8
0
 10
151.459457
 20
-7.647899
 11
149.859451
 21
-7.647899
  0
LINE
  8
0
 10
151.459457
 20
-3.447899
 11
149.859451
 21
-3.447899
  0
LINE
  8
0
 10
151.959457
 20
-3.947902
 11
151.459457
 21
-3.447901
  0
LINE
  8
0
 10
152.459457
 20
-3.947899
 11
151.959457
 21
-3.947899
  0
LINE
  8
0
 10
152.459457
 20
16.052099
 11
154.459457
 21
18.052101
  0
LINE
  8
0
 10
152.459457
 20
14.252101
 11
151.959457
 21
14.252101
  0
LINE
  8
0
 10
151.959457
 20
14.252103
 11
151.459457
 21
14.752098
  0
LINE
  8
0
 10
151.459457
 20
14.752101
 11
149.859451
 21
14.752101
  0
LINE
  8
0
 10
151.459457
 20
10.552101
 11
149.859451
 21
10.552101
  0
LINE
  8
0
 10
151.959457
 20
11.052098
 11
151.459457
 21
10.552098
  0
LINE
  8
0
 10
152.459457
 20
11.052101
 11
151.959457
 21
11.052101
  0
LINE
  8
0
 10
109.459457
 20
33.894958
 11
109.459457
 21
32.552101
  0
LINE
  8
0
 10
106.459457
 20
33.894958
 11
106.459457
 21
18.052101
  0
LINE
  8
0
 10
106.459457
 20
33.894958
 11
109.459457
 21
33.894958
  0
LINE
  8
0
 10
106.459457
 20
39.194958
 11
109.459457
 21
39.194958
  0
LINE
  8
0
 10
109.459457
 20
32.552101
 11
113.959457
 21
32.552101
  0
LINE
  8
0
 10
109.459457
 20
40.552101
 11
113.959457
 21
40.552101
  0
LINE
  8
0
 10
109.459457
 20
40.552101
 11
109.459457
 21
39.194958
  0
LINE
  8
0
 10
113.959457
 20
40.552101
 11
113.959457
 21
32.552101
  0
LINE
  8
0
 10
108.459457
 20
-8.947900
 11
106.545174
 21
-10.862185
  0
LINE
  8
0
 10
108.459457
 20
16.052101
 11
108.459457
 21
14.252101
  0
LINE
  8
0
 10
108.459457
 20
-7.147899
 11
108.959457
 21
-7.147899
  0
LINE
  8
0
 10
108.959465
 20
-7.147897
 11
109.459465
 21
-7.647898
  0
LINE
  8
0
 10
109.459457
 20
-7.647899
 11
111.059456
 21
-7.647899
  0
LINE
  8
0
 10
109.459457
 20
-3.447899
 11
111.059456
 21
-3.447899
  0
LINE
  8
0
 10
108.959465
 20
-3.947900
 11
109.459465
 21
-3.447899
  0
LINE
  8
0
 10
108.459457
 20
-3.947899
 11
108.959457
 21
-3.947899
  0
LINE
  8
0
 10
108.459457
 20
16.052103
 11
106.459457
 21
18.052101
  0
LINE
  8
0
 10
108.459457
 20
14.252101
 11
108.959457
 21
14.252101
  0
LINE
  8
0
 10
108.959457
 20
14.252097
 11
109.459457
 21
14.752098
  0
LINE
  8
0
 10
109.459457
 20
14.752101
 11
111.059456
 21
14.752101
  0
LINE
  8
0
 10
109.459457
 20
10.552101
 11
111.059456
 21
10.552101
  0
LINE
  8
0
 10
108.959457
 20
11.052098
 11
109.459457
 21
10.552098
  0
LINE
  8
0
 10
108.459457
 20
11.052101
 11
108.959457
 21
11.052101
  0
LINE
  8
0
  6
CENTER
 62
     2
 10
102.216599
 20
3.552101
 11
158.688034
 21
3.552101
  0
LINE
  8
0
 10
106.459457
 20
58.552101
 11
106.459457
 21
39.194958
  0
LINE
  8
0
  6
CENTER
 62
     2
 10
130.459457
 20
64.780670
 11
130.459457
 21
-57.676472
  0
LINE
  8
0
 10
-152.040543
 20
-52.447903
 11
-152.540543
 21
-51.947903
  0
LINE
  8
0
 10
-106.540543
 20
-51.947903
 11
-107.040543
 21
-52.447903
  0
LINE
  8
0
 10
-152.540543
 20
59.052105
 11
-152.040543
 21
59.552113
  0
LINE
  8
0
 10
-107.040543
 20
59.552101
 11
-106.540543
 21
59.052097
  0
LINE
  8
0
 10
-107.040543
 20
59.552101
 11
-152.040543
 21
59.552101
  0
LINE
  8
0
 10
-107.040543
 20
-52.447899
 11
-152.040543
 21
-52.447899
  0
LINE
  8
0
 10
-152.540543
 20
59.052101
 11
-152.540543
 21
-51.947899
  0
LINE
  8
0
 10
-106.540543
 20
59.052101
 11
-106.540543
 21
-51.947899
  0
LINE
  8
0
  6
CENTER
 62
     2
 10
-120.911972
 20
-44.447899
 11
-109.811974
 21
-44.447899
  0
LINE
  8
0
  6
CENTER
 62
     2
 10
-138.497681
 20
-36.447899
 11
-120.483398
 21
-36.447899
  0
LINE
  8
0
  6
CENTER
 62
     2
 10
-138.254822
 20
43.552101
 11
-120.526260
 21
43.552101
  0
LINE
  8
0
  6
CENTER
 62
     2
 10
-120.926254
 20
51.552101
 11
-110.154831
 21
51.552101
  0
LINE
  8
0
  6
CENTER
 62
     2
 10
-115.540543
 20
56.980675
 11
-115.540543
 21
46.037815
  0
LINE
  8
0
  6
CENTER
 62
     2
 10
-143.540543
 20
56.809246
 11
-143.540543
 21
46.137817
  0
LINE
  8
0
 10
-107.540543
 20
58.552101
 11
-107.540543
 21
-51.447899
  0
LINE
  8
0
 10
-151.540543
 20
58.552101
 11
-151.540543
 21
-51.447899
  0
LINE
  8
0
 10
-129.540543
 20
6.437819
 11
-132.040543
 21
4.994963
  0
LINE
  8
0
 10
-129.540543
 20
6.437814
 11
-127.040543
 21
4.994958
  0
LINE
  8
0
 10
-127.040543
 20
4.994958
 11
-127.040543
 21
2.109244
  0
LINE
  8
0
 10
-127.040543
 20
2.109242
 11
-129.540543
 21
0.652098
  0
LINE
  8
0
 10
-129.540543
 20
0.652104
 11
-132.040543
 21
2.109247
  0
LINE
  8
0
 10
-132.040543
 20
4.994958
 11
-132.040543
 21
2.109244
  0
LINE
  8
0
 10
-129.540543
 20
46.437817
 11
-132.040543
 21
44.994961
  0
LINE
  8
0
 10
-129.540543
 20
46.437820
 11
-127.040543
 21
44.994965
  0
LINE
  8
0
 10
-127.040543
 20
44.994961
 11
-127.040543
 21
42.109245
  0
LINE
  8
0
 10
-127.040543
 20
42.109249
 11
-129.540543
 21
40.652103
  0
LINE
  8
0
 10
-129.540543
 20
40.652096
 11
-132.040543
 21
42.109241
  0
LINE
  8
0
 10
-132.040543
 20
44.994961
 11
-132.040543
 21
42.109245
  0
LINE
  8
0
 10
-129.540543
 20
-33.562187
 11
-127.040543
 21
-35.005043
  0
LINE
  8
0
 10
-127.040543
 20
-35.005043
 11
-127.040543
 21
-37.890759
  0
LINE
  8
0
 10
-127.040543
 20
-37.890762
 11
-129.540543
 21
-39.333618
  0
LINE
  8
0
 10
-129.540543
 20
-39.333611
 11
-132.040543
 21
-37.890751
  0
LINE
  8
0
 10
-132.040543
 20
-35.005043
 11
-132.040543
 21
-37.890759
  0
LINE
  8
0
 10
-129.540543
 20
-33.562191
 11
-132.040543
 21
-35.005047
  0
LINE
  8
0
  6
CENTER
 62
     2
 10
-138.111969
 20
-44.447899
 11
-148.911972
 21
-44.447899
  0
LINE
  8
0
  6
CENTER
 62
     2
 10
-143.540543
 20
-50.019329
 11
-143.540543
 21
-38.547901
  0
LINE
  8
0
  6
CENTER
 62
     2
 10
-138.111969
 20
51.552101
 11
-148.911972
 21
51.552101
  0
LINE
  8
0
  6
CENTER
 62
     2
 10
-115.540543
 20
-50.019329
 11
-115.540543
 21
-38.547901
  0
LINE
  8
0
 10
-107.540543
 20
-51.447899
 11
-108.540543
 21
-52.447899
  0
LINE
  8
0
 10
-151.540543
 20
-51.447899
 11
-150.540543
 21
-52.447895
  0
LINE
  8
0
 10
-108.540543
 20
59.552101
 11
-107.540543
 21
58.552101
  0
LINE
  8
0
 10
-150.540543
 20
59.552101
 11
-151.540543
 21
58.552105
  0
LINE
  8
0
 10
-153.540543
 20
-26.805042
 11
-152.540543
 21
-26.805042
  0
LINE
  8
0
 10
-153.540543
 20
-32.105042
 11
-152.540543
 21
-32.105042
  0
LINE
  8
0
 10
-153.540543
 20
33.894958
 11
-152.540543
 21
33.894958
  0
LINE
  8
0
 10
-153.540543
 20
39.194958
 11
-152.540543
 21
39.194958
  0
LINE
  8
0
 10
-105.540543
 20
-51.447899
 11
-105.540543
 21
-10.947899
  0
LINE
  8
0
 10
-105.540543
 20
58.552101
 11
-107.540543
 21
60.552101
  0
LINE
  8
0
 10
-105.540543
 20
-51.447899
 11
-107.540543
 21
-53.447899
  0
LINE
  8
0
 10
-153.540543
 20
58.552105
 11
-151.540543
 21
60.552101
  0
LINE
  8
0
 10
-153.540543
 20
-51.447899
 11
-151.540543
 21
-53.447895
  0
LINE
  8
0
 10
-107.540543
 20
-53.447899
 11
-151.540543
 21
-53.447899
  0
LINE
  8
0
 10
-107.540543
 20
60.552101
 11
-151.540543
 21
60.552101
  0
LINE
  8
0
 10
-153.540543
 20
-26.805042
 11
-153.540543
 21
-10.947899
  0
LINE
  8
0
 10
-153.540543
 20
-51.447899
 11
-153.540543
 21
-32.105042
  0
LINE
  8
0
 10
-153.540543
 20
33.894958
 11
-153.540543
 21
18.052101
  0
LINE
  8
0
 10
-153.540543
 20
58.552101
 11
-153.540543
 21
39.194958
  0
LINE
  8
0
 10
-152.540543
 20
-9.955417
 11
-153.440536
 21
-10.862183
  0
LINE
  8
0
 10
-152.540543
 20
17.052099
 11
-153.540543
 21
18.052101
  0
LINE
  8
0
 10
-105.540543
 20
33.894958
 11
-105.540543
 21
18.052101
  0
LINE
  8
0
 10
-105.540543
 20
33.894958
 11
-106.540543
 21
33.894958
  0
LINE
  8
0
 10
-105.540543
 20
39.194958
 11
-106.540543
 21
39.194958
  0
LINE
  8
0
 10
-106.540543
 20
-9.947904
 11
-105.626266
 21
-10.862188
  0
LINE
  8
0
 10
-106.540543
 20
17.052099
 11
-105.540543
 21
18.052101
  0
LINE
  8
0
  6
CENTER
 62
     2
 10
-103.711975
 20
3.552101
 11
-155.583405
 21
3.552101
  0
LINE
  8
0
 10
-105.540543
 20
58.552101
 11
-105.540543
 21
39.194958
  0
LINE
  8
0
  6
CENTER
 62
     2
 10
-129.540543
 20
64.794960
 11
-129.540543
 21
-57.890759
  0
LINE
  8
0
  6
DASHED
 62
     2
 10
-22.254829
 20
-47.315376
 11
-22.254829
 21
-52.447899
  0
LINE
  8
0
  6
DASHED
 62
     2
 10
-18.254829
 20
-47.631393
 11
-18.254829
 21
-52.447899
  0
LINE
  8
0
  6
DASHED
 62
     2
 10
-22.754829
 20
-47.631393
 11
-22.754829
 21
-52.447899
  0
LINE
  8
0
  6
DASHED
 62
     2
 10
-17.754829
 20
-47.631393
 11
-17.754829
 21
-52.447899
  0
LINE
  8
0
  6
CENTER
 62
     2
 10
-23.987408
 20
-31.447899
 11
-16.254829
 21
-31.447899
  0
LINE
  8
0
  6
CENTER
 62
     2
 10
-20.254829
 20
-27.880325
 11
-20.254829
 21
-35.408379
  0
LINE
  8
0
 10
-25.754829
 20
-52.447899
 11
-26.254831
 21
-51.947899
  0
LINE
  8
0
 10
-25.754831
 20
59.552101
 11
-26.254833
 21
59.052105
  0
LINE
  8
0
 10
-16.254829
 20
59.552101
 11
-25.754829
 21
59.552101
  0
LINE
  8
0
 10
-16.254829
 20
-52.447899
 11
-25.754829
 21
-52.447899
  0
LINE
  8
0
  6
CENTER
 62
     2
 10
37.973747
 20
3.552101
 11
-47.997688
 21
3.552101
  0
LINE
  8
0
 10
-26.254829
 20
59.052101
 11
-26.254829
 21
-51.947899
  0
LINE
  8
0
 10
-30.254829
 20
-44.447899
 11
-26.254829
 21
-44.447899
  0
LINE
  8
0
 10
-30.254829
 20
-28.447899
 11
-26.254829
 21
-28.447899
  0
LINE
  8
0
 10
-30.254829
 20
35.552101
 11
-26.254829
 21
35.552101
  0
LINE
  8
0
 10
-30.254829
 20
51.552101
 11
-26.254829
 21
51.552101
  0
LINE
  8
0
  6
CENTER
 62
     2
 10
3.745171
 20
25.552101
 11
18.345173
 21
25.552101
  0
LINE
  8
0
  6
CENTER
 62
     2
 10
-9.254829
 20
33.052101
 11
-9.254829
 21
18.666388
  0
LINE
  8
0
  6
CENTER
 62
     2
 10
10.745171
 20
32.909245
 11
10.745171
 21
18.537815
  0
LINE
  8
0
 10
33.745171
 20
59.552101
 11
33.745171
 21
-52.447899
  0
LINE
  8
0
 10
-16.254829
 20
-51.447899
 11
33.745171
 21
-51.447899
  0
LINE
  8
0
  6
CENTER
 62
     2
 10
-6.254829
 20
-54.676472
 11
-6.254829
 21
-48.147900
  0
LINE
  8
0
  6
DASHED
 62
     2
 10
13.745173
 20
-53.447903
 11
13.545174
 21
-49.547901
  0
LINE
  8
0
  6
DASHED
 62
     2
 10
12.745171
 20
-52.447899
 11
12.745171
 21
-49.547901
  0
LINE
  8
0
  6
DASHED
 62
     2
 10
13.745173
 20
-53.447903
 11
12.745173
 21
-52.447903
  0
LINE
  8
0
  6
DASHED
 62
     2
 10
3.745176
 20
-53.447903
 11
4.745174
 21
-52.447903
  0
LINE
  8
0
  6
DASHED
 62
     2
 10
12.745171
 20
-52.447899
 11
4.745171
 21
-52.447899
  0
LINE
  8
0
  6
DASHED
 62
     2
 10
4.745171
 20
-52.447899
 11
4.745171
 21
-49.547901
  0
LINE
  8
0
  6
DASHED
 62
     2
 10
3.745173
 20
-53.447903
 11
3.959458
 21
-49.547901
  0
LINE
  8
0
  6
CENTER
 62
     2
 10
8.745171
 20
-48.276470
 11
8.745171
 21
-55.805042
  0
LINE
  8
0
  6
CENTER
 62
     2
 10
18.573742
 20
-18.447899
 11
3.845173
 21
-18.447899
  0
LINE
  8
0
  6
CENTER
 62
     2
 10
21.745171
 20
-38.462185
 11
21.745171
 21
-25.105042
  0
LINE
  8
0
  6
CENTER
 62
     2
 10
28.534645
 20
-31.447899
 11
14.687447
 21
-31.447899
  0
LINE
  8
0
  6
CENTER
 62
     2
 10
3.316601
 20
-31.447899
 11
-9.783401
 21
-31.447899
  0
LINE
  8
0
  6
CENTER
 62
     2
 10
-3.254829
 20
-38.590755
 11
-3.254829
 21
-24.762184
  0
LINE
  8
0
  6
DASHED
 62
     2
 10
-1.254829
 20
-53.447899
 11
-2.254831
 21
-52.447899
  0
LINE
  8
0
  6
DASHED
 62
     2
 10
-1.254828
 20
-53.447899
 11
-1.454828
 21
-49.547901
  0
LINE
  8
0
  6
DASHED
 62
     2
 10
-2.254829
 20
-52.447899
 11
-2.254829
 21
-49.547901
  0
LINE
  8
0
  6
DASHED
 62
     2
 10
-11.254827
 20
-53.447895
 11
-11.040541
 21
-49.547897
  0
LINE
  8
0
  6
DASHED
 62
     2
 10
-10.254829
 20
-52.447899
 11
-10.254829
 21
-49.547901
  0
LINE
  8
0
  6
DASHED
 62
     2
 10
-11.254829
 20
-53.447903
 11
-10.254827
 21
-52.447899
  0
LINE
  8
0
  6
DASHED
 62
     2
 10
-2.254829
 20
-52.447899
 11
-10.254829
 21
-52.447899
  0
LINE
  8
0
  6
CENTER
 62
     2
 10
10.745171
 20
-10.833613
 11
10.745171
 21
-25.362185
  0
LINE
  8
0
  6
CENTER
 62
     2
 10
-2.197685
 20
-18.447899
 11
-16.254829
 21
-18.447899
  0
LINE
  8
0
  6
CENTER
 62
     2
 10
-9.254829
 20
-10.833613
 11
-9.254829
 21
-25.362185
  0
LINE
  8
0
 10
-15.254829
 20
-53.447899
 11
-16.254829
 21
-52.447899
  0
LINE
  8
0
 10
32.745174
 20
-53.447903
 11
33.745174
 21
-52.447903
  0
LINE
  8
0
 10
-16.254829
 20
59.552101
 11
-16.254829
 21
-52.433613
  0
LINE
  8
0
 10
-16.254829
 20
-3.947899
 11
33.745171
 21
-3.947899
  0
LINE
  8
0
 10
-16.254829
 20
-7.147899
 11
33.745171
 21
-7.147899
  0
LINE
  8
0
 10
-16.254829
 20
-8.947899
 11
33.745171
 21
-8.947899
  0
LINE
  8
0
 10
-16.254829
 20
-10.947899
 11
33.745171
 21
-10.947899
  0
LINE
  8
0
 10
-15.254829
 20
-53.447899
 11
32.745171
 21
-53.447899
  0
LINE
  8
0
  6
DASHED
 62
     2
 10
59.245171
 20
51.552101
 11
59.245171
 21
35.552101
  0
LINE
  8
0
  6
DASHED
 62
     2
 10
59.745167
 20
36.052097
 11
59.245171
 21
35.552105
  0
LINE
  8
0
  6
DASHED
 62
     2
 10
59.245174
 20
51.552101
 11
59.745174
 21
51.052101
  0
LINE
  8
0
  6
DASHED
 62
     2
 10
59.745171
 20
51.052101
 11
59.745171
 21
36.052101
  0
LINE
  8
0
  6
DASHED
 62
     2
 10
33.745171
 20
35.552101
 11
59.245171
 21
35.552101
  0
LINE
  8
0
  6
DASHED
 62
     2
 10
33.745171
 20
51.552101
 11
59.245171
 21
51.552101
  0
LINE
  8
0
  6
DASHED
 62
     2
 10
59.245171
 20
-28.447899
 11
59.245171
 21
-44.447899
  0
LINE
  8
0
  6
DASHED
 62
     2
 10
59.745174
 20
-43.947899
 11
59.245174
 21
-44.447899
  0
LINE
  8
0
  6
DASHED
 62
     2
 10
59.245174
 20
-28.447901
 11
59.745171
 21
-28.947897
  0
LINE
  8
0
  6
DASHED
 62
     2
 10
59.745171
 20
-28.947899
 11
59.745171
 21
-43.947899
  0
LINE
  8
0
  6
DASHED
 62
     2
 10
33.745171
 20
-44.447899
 11
59.245171
 21
-44.447899
  0
LINE
  8
0
  6
DASHED
 62
     2
 10
33.745171
 20
-28.447899
 11
59.245171
 21
-28.447899
  0
LINE
  8
0
 10
-16.254829
 20
58.552101
 11
33.745171
 21
58.552101
  0
LINE
  8
0
 10
-30.254829
 20
7.423530
 11
-28.754829
 21
7.423530
  0
LINE
  8
0
  6
CENTER
 62
     2
 10
-2.469116
 20
25.552101
 11
-16.254829
 21
25.552101
  0
LINE
  8
0
 10
-15.254830
 20
60.552105
 11
-16.254831
 21
59.552105
  0
LINE
  8
0
 10
32.745174
 20
60.552105
 11
33.745174
 21
59.552101
  0
LINE
  8
0
 10
-16.254829
 20
11.052101
 11
33.745171
 21
11.052101
  0
LINE
  8
0
 10
-16.254829
 20
14.252101
 11
33.745171
 21
14.252101
  0
LINE
  8
0
 10
-16.254829
 20
16.052101
 11
33.745171
 21
16.052101
  0
LINE
  8
0
 10
-15.254829
 20
60.552101
 11
32.745171
 21
60.552101
  0
LINE
  8
0
 10
-16.254829
 20
39.194958
 11
33.745171
 21
39.194958
  0
LINE
  8
0
 10
-16.254829
 20
33.894958
 11
33.745171
 21
33.894958
  0
LINE
  8
0
 10
-30.254827
 20
-51.447899
 11
-31.254829
 21
-52.447899
  0
LINE
  8
0
 10
-45.254829
 20
-51.447899
 11
-44.254829
 21
-52.447899
  0
LINE
  8
0
 10
-31.254829
 20
59.552101
 11
-30.254827
 21
58.552101
  0
LINE
  8
0
 10
-44.254829
 20
59.552101
 11
-45.254829
 21
58.552101
  0
LINE
  8
0
 62
     2
 10
-28.754829
 20
7.423530
 11
-30.254829
 21
1.609244
  0
LINE
  8
0
 62
     2
 10
-28.754829
 20
-0.333613
 11
-30.254829
 21
5.480673
  0
LINE
  8
0
 10
-28.754829
 20
-0.333613
 11
-28.754829
 21
7.423530
  0
LINE
  8
0
 10
-30.254829
 20
-0.333613
 11
-28.754829
 21
-0.333613
  0
LINE
  8
0
  6
CENTER
 62
     2
 10
-48.254829
 20
43.552101
 11
-23.790384
 21
43.552101
  0
LINE
  8
0
 10
-45.254829
 20
58.552101
 11
-45.254829
 21
-51.447899
  0
LINE
  8
0
 10
-44.254829
 20
59.552101
 11
-31.254829
 21
59.552101
  0
LINE
  8
0
 10
-30.254829
 20
-51.447899
 11
-30.254829
 21
58.552101
  0
LINE
  8
0
 10
-44.254829
 20
-52.447899
 11
-31.254829
 21
-52.447899
  0
LINE
  8
0
  6
CENTER
 62
     2
 10
-48.254829
 20
-36.447899
 11
-23.607992
 21
-36.447899
  0
LINE
  8
0
 10
-30.254829
 20
-4.447899
 11
-26.254829
 21
-4.447899
  0
LINE
  8
0
 10
-30.254829
 20
11.552101
 11
-26.254829
 21
11.552101
  0
LINE
  8
0
  6
PHANTOM
 62
     3
 10
18.796410
 20
-25.585098
 11
18.796410
 21
72.001404
  0
LINE
  8
0
  6
PHANTOM
 62
     3
 10
0.313164
 20
-39.807472
 11
3.158806
 21
-39.807472
  0
LINE
  8
0
  6
PHANTOM
 62
     3
 10
1.906261
 20
-41.524246
 11
5.072540
 21
-41.524246
  0
LINE
  8
0
  6
PHANTOM
 62
     3
 10
5.072540
 20
-41.524246
 11
5.072540
 21
-25.585098
  0
LINE
  8
0
  6
PHANTOM
 62
     3
 10
5.072540
 20
-25.585098
 11
18.796410
 21
-25.585098
  0
LINE
  8
0
  6
CENTER
 62
     2
 10
-20.254829
 20
-48.147900
 11
-20.254829
 21
-53.951736
  0
LINE
  8
0
  6
PHANTOM
 62
     3
 10
1.906261
 20
-60.396984
 11
1.906261
 21
-41.524246
  0
LINE
  8
0
  6
PHANTOM
 62
     3
 10
0.313164
 20
-60.396984
 11
0.313164
 21
-39.807472
  0
LINE
  8
0
  6
PHANTOM
 62
     3
 10
3.158806
 20
-39.807472
 11
3.158806
 21
78.777695
  0
LINE
  8
0
 10
-99.250000
 20
-123.500000
 11
-99.250000
 21
-92.500000
  0
LINE
  8
0
 10
-184.250000
 20
-123.500000
 11
-184.250000
 21
-92.500000
  0
LINE
  8
0
 10
-27.250000
 20
-123.500000
 11
-27.250000
 21
-92.500000
  0
LINE
  8
0
 10
-39.250000
 20
-123.500000
 11
-39.250000
 21
-92.500000
  0
LINE
  8
0
 10
-51.250000
 20
-123.500000
 11
-51.250000
 21
-92.500000
  0
LINE
  8
0
 10
-63.250000
 20
-123.500000
 11
-63.250000
 21
-92.500000
  0
LINE
  8
0
 10
-75.250000
 20
-123.500000
 11
-75.250000
 21
-92.500000
  0
LINE
  8
0
 10
-184.250000
 20
-92.500000
 11
-27.250000
 21
-92.500000
  0
LINE
  8
0
 10
-184.250000
 20
-97.500000
 11
-161.929993
 21
-97.500000
  0
LINE
  8
0
 10
-159.250000
 20
-107.499992
 11
-161.930008
 21
-97.500000
  0
LINE
  8
0
 10
-87.250000
 20
-123.500000
 11
-87.250000
 21
-92.500000
  0
LINE
  8
0
 10
-111.250000
 20
-123.500000
 11
-111.250000
 21
-92.500000
  0
LINE
  8
0
 10
-123.250000
 20
-123.500000
 11
-123.250000
 21
-92.500000
  0
LINE
  8
0
 10
-147.250000
 20
-123.500000
 11
-147.250000
 21
-92.500000
  0
LINE
  8
0
 10
-135.250000
 20
-123.500000
 11
-135.250000
 21
-92.500000
  0
LINE
  8
0
 10
-159.250000
 20
-123.500000
 11
-159.250000
 21
-92.500000
  0
LINE
  8
0
 10
-184.250000
 20
-107.500000
 11
-27.250000
 21
-107.500000
  0
LINE
  8
0
 10
-184.250000
 20
-115.500000
 11
-27.250000
 21
-115.500000
  0
LINE
  8
0
 10
-184.250000
 20
-123.500000
 11
-27.250000
 21
-123.500000
  0
LINE
  8
0
 10
-74.250000
 20
132.600006
 11
-74.250000
 21
117.599998
  0
LINE
  8
0
 10
-194.250000
 20
117.599998
 11
-74.250000
 21
117.599998
  0
LINE
  8
0
 10
109.800003
 20
117.599998
 11
194.800003
 21
117.599998
  0
LINE
  8
0
 10
109.800003
 20
132.600006
 11
109.800003
 21
117.599998
  0
LINE
  8
0
 10
109.800003
 20
-118.500000
 11
194.800003
 21
-118.500000
  0
LINE
  8
0
 10
109.800003
 20
-118.500000
 11
109.800003
 21
-133.500000
  0
LINE
  8
0
 10
-194.250000
 20
-133.500000
 11
194.800003
 21
-133.500000
  0
LINE
  8
0
 10
-194.250000
 20
132.600006
 11
-194.250000
 21
-133.500000
  0
LINE
  8
0
 10
194.800003
 20
132.600006
 11
194.800003
 21
-133.500000
  0
LINE
  8
0
 10
-194.250000
 20
132.600006
 11
194.800003
 21
132.600006
  0
CIRCLE
  8
0
 10
113.459457
 20
53.552101
 40
3.323500
  0
CIRCLE
  8
0
 10
147.459457
 20
53.552101
 40
3.323500
  0
CIRCLE
  8
0
 10
113.459457
 20
-46.447899
 40
3.323500
  0
CIRCLE
  8
0
 10
147.459457
 20
-46.447899
 40
3.323500
  0
CIRCLE
  8
0
 10
130.459457
 20
-36.447899
 40
8.000000
  0
CIRCLE
  8
0
 10
130.459457
 20
43.552101
 40
8.000000
  0
CIRCLE
  8
0
 62
     2
 10
113.459442
 20
-46.447899
 40
3.999999
  0
CIRCLE
  8
0
 10
113.459465
 20
-31.447899
 40
1.499999
  0
CIRCLE
  8
0
 10
130.459457
 20
3.552101
 40
17.000000
  0
CIRCLE
  8
0
 10
130.459457
 20
43.552101
 40
11.500000
  0
CIRCLE
  8
0
 62
     2
 10
113.459465
 20
53.552101
 40
3.999999
  0
CIRCLE
  8
0
 62
     2
 10
147.459442
 20
53.552101
 40
3.999999
  0
CIRCLE
  8
0
 62
     2
 10
147.459442
 20
-46.447899
 40
3.999999
  0
CIRCLE
  8
0
 10
130.459457
 20
-36.447899
 40
11.500000
  0
ARC
  8
0
 10
149.859451
 20
-5.547899
 40
2.100000
 50
90.000000
 51
270.000000
  0
ARC
  8
0
 10
149.859451
 20
12.652102
 40
2.100000
 50
90.000000
 51
270.000000
  0
ARC
  8
0
 10
111.059456
 20
-5.547899
 40
2.100000
 50
270.000000
 51
90.000000
  0
ARC
  8
0
 10
111.059456
 20
12.652102
 40
2.100000
 50
270.000000
 51
90.000000
  0
CIRCLE
  8
0
 10
130.459457
 20
3.552101
 40
10.499999
  0
CIRCLE
  8
0
 10
-143.540543
 20
-44.447899
 40
3.323500
  0
CIRCLE
  8
0
 10
-115.540543
 20
-44.447899
 40
3.323500
  0
CIRCLE
  8
0
 10
-143.540543
 20
51.552101
 40
3.323500
  0
CIRCLE
  8
0
 10
-115.540543
 20
51.552101
 40
3.323500
  0
CIRCLE
  8
0
 10
-129.540543
 20
3.552101
 40
4.599999
  0
CIRCLE
  8
0
 10
-129.540543
 20
3.552101
 40
7.000000
  0
CIRCLE
  8
0
 10
-129.540543
 20
43.552101
 40
4.599999
  0
CIRCLE
  8
0
 10
-129.540543
 20
43.552101
 40
7.000000
  0
CIRCLE
  8
0
 10
-129.540543
 20
-36.447899
 40
4.599999
  0
CIRCLE
  8
0
 10
-129.540543
 20
-36.447899
 40
7.000000
  0
CIRCLE
  8
0
 62
     2
 10
-143.540543
 20
-44.447899
 40
3.999999
  0
CIRCLE
  8
0
 62
     2
 10
-143.540543
 20
51.552090
 40
3.999999
  0
CIRCLE
  8
0
 62
     2
 10
-115.540535
 20
-44.447899
 40
3.999999
  0
CIRCLE
  8
0
 62
     2
 10
-115.540535
 20
51.552090
 40
3.999999
  0
CIRCLE
  8
0
 10
-129.540543
 20
43.552101
 40
7.500000
  0
CIRCLE
  8
0
 10
-129.540543
 20
-36.447899
 40
7.500000
  0
CIRCLE
  8
0
 10
-129.540543
 20
3.552101
 40
7.500000
  0
CIRCLE
  8
0
 10
-3.254829
 20
-31.447899
 40
4.283000
  0
CIRCLE
  8
0
 10
21.745171
 20
-31.447899
 40
4.283000
  0
CIRCLE
  8
0
 10
-20.254829
 20
-31.447899
 40
2.067000
  0
CIRCLE
  8
0
 62
     2
 10
-20.254829
 20
-31.447899
 40
2.500000
  0
CIRCLE
  8
0
 62
     2
 10
21.745178
 20
-31.447899
 40
5.000000
  0
CIRCLE
  8
0
 62
     2
 10
-3.254845
 20
-31.447899
 40
5.000000
  0
CIRCLE
  8
0
  6
DASHED
 62
     2
 10
10.745152
 20
-18.447912
 40
4.286999
  0
CIRCLE
  8
0
 10
10.745152
 20
-18.447912
 40
5.499999
  0
CIRCLE
  8
0
 10
10.745152
 20
-18.447912
 40
3.299999
  0
CIRCLE
  8
0
  6
DASHED
 62
     2
 10
-9.254833
 20
-18.447891
 40
4.286999
  0
CIRCLE
  8
0
 10
-9.254833
 20
-18.447891
 40
5.499999
  0
CIRCLE
  8
0
 10
-9.254833
 20
-18.447891
 40
3.299999
  0
CIRCLE
  8
0
  6
DASHED
 62
     2
 10
10.745190
 20
25.552094
 40
4.286999
  0
CIRCLE
  8
0
 10
10.745190
 20
25.552094
 40
5.499999
  0
CIRCLE
  8
0
 10
10.745190
 20
25.552094
 40
3.299999
  0
CIRCLE
  8
0
  6
DASHED
 62
     2
 10
-9.254810
 20
25.552094
 40
4.286999
  0
CIRCLE
  8
0
 10
-9.254810
 20
25.552094
 40
5.499999
  0
CIRCLE
  8
0
 10
-9.254810
 20
25.552094
 40
3.299999
  0
ARC
  8
0
 10
-35.754818
 20
3.544958
 40
8.002699
 50
331.009949
 51
28.990065
  0
TEXT
  8
0
 10
-107.056999
 20
-121.379997
 40
3.200000
  1
0
 50
0.000000
 41
1.052632
 51
0.000000
  7
STANDARD
  0
TEXT
  8
0
 10
-108.656998
 20
-113.379997
 40
3.200000
  1
40
 50
0.000000
 41
1.052632
 51
0.000000
  7
STANDARD
  0
TEXT
  8
0
 10
-108.657158
 20
-101.879997
 40
3.200000
  1
50
 50
0.000000
 41
1.052632
 51
0.000000
  7
STANDARD
  0
TEXT
  8
0
 10
-38.257000
 20
-121.379997
 40
3.200000
  1
100
 50
0.000000
 41
1.052632
 51
0.000000
  7
STANDARD
  0
TEXT
  8
0
 10
-48.657001
 20
-121.379997
 40
3.200000
  1
75
 50
0.000000
 41
1.052632
 51
0.000000
  7
STANDARD
  0
TEXT
  8
0
 10
-60.657001
 20
-121.379997
 40
3.200000
  1
50
 50
0.000000
 41
1.052632
 51
0.000000
  7
STANDARD
  0
TEXT
  8
0
 10
-72.656998
 20
-121.379997
 40
3.200000
  1
25
 50
0.000000
 41
1.052632
 51
0.000000
  7
STANDARD
  0
TEXT
  8
0
 10
-84.656998
 20
-121.379997
 40
3.200000
  1
50
 50
0.000000
 41
1.052632
 51
0.000000
  7
STANDARD
  0
TEXT
  8
0
 10
-96.656998
 20
-121.379997
 40
3.200000
  1
25
 50
0.000000
 41
1.052632
 51
0.000000
  7
STANDARD
  0
TEXT
  8
0
 10
-119.056999
 20
-121.379997
 40
3.200000
  1
0
 50
0.000000
 41
1.052632
 51
0.000000
  7
STANDARD
  0
TEXT
  8
0
 10
-131.057007
 20
-121.379997
 40
3.200000
  1
0
 50
0.000000
 41
1.052632
 51
0.000000
  7
STANDARD
  0
TEXT
  8
0
 10
-143.057007
 20
-121.379997
 40
3.200000
  1
0
 50
0.000000
 41
1.052632
 51
0.000000
  7
STANDARD
  0
TEXT
  8
0
 10
-155.057007
 20
-121.379997
 40
3.200000
  1
0
 50
0.000000
 41
1.052632
 51
0.000000
  7
STANDARD
  0
TEXT
  8
0
 10
-36.657001
 20
-113.379997
 40
3.200000
  1
90
 50
0.000000
 41
1.052632
 51
0.000000
  7
STANDARD
  0
TEXT
  8
0
 10
-48.657001
 20
-113.379997
 40
3.200000
  1
90
 50
0.000000
 41
1.052632
 51
0.000000
  7
STANDARD
  0
TEXT
  8
0
 10
-60.657001
 20
-113.379997
 40
3.200000
  1
90
 50
0.000000
 41
1.052632
 51
0.000000
  7
STANDARD
  0
TEXT
  8
0
 10
-72.656998
 20
-113.379997
 40
3.200000
  1
90
 50
0.000000
 41
1.052632
 51
0.000000
  7
STANDARD
  0
TEXT
  8
0
 10
-84.656998
 20
-113.379997
 40
3.200000
  1
40
 50
0.000000
 41
1.052632
 51
0.000000
  7
STANDARD
  0
TEXT
  8
0
 10
-96.656998
 20
-113.379997
 40
3.200000
  1
40
 50
0.000000
 41
1.052632
 51
0.000000
  7
STANDARD
  0
TEXT
  8
0
 10
-120.656998
 20
-113.379997
 40
3.200000
  1
30
 50
0.000000
 41
1.052632
 51
0.000000
  7
STANDARD
  0
TEXT
  8
0
 10
-132.656998
 20
-113.379997
 40
3.200000
  1
20
 50
0.000000
 41
1.052632
 51
0.000000
  7
STANDARD
  0
TEXT
  8
0
 10
-144.656998
 20
-113.379997
 40
3.200000
  1
10
 50
0.000000
 41
1.052632
 51
0.000000
  7
STANDARD
  0
TEXT
  8
0
 10
-155.057007
 20
-113.379997
 40
3.200000
  1
0
 50
0.000000
 41
1.052632
 51
0.000000
  7
STANDARD
  0
TEXT
  8
0
 10
-38.257156
 20
-101.879997
 40
3.200000
  1
200
 50
0.000000
 41
1.052632
 51
0.000000
  7
STANDARD
  0
TEXT
  8
0
 10
-50.257156
 20
-101.879997
 40
3.200000
  1
175
 50
0.000000
 41
1.052632
 51
0.000000
  7
STANDARD
  0
TEXT
  8
0
 10
-62.257156
 20
-101.879997
 40
3.200000
  1
150
 50
0.000000
 41
1.052632
 51
0.000000
  7
STANDARD
  0
TEXT
  8
0
 10
-74.257156
 20
-101.879997
 40
3.200000
  1
125
 50
0.000000
 41
1.052632
 51
0.000000
  7
STANDARD
  0
TEXT
  8
0
 10
-86.257156
 20
-101.879997
 40
3.200000
  1
100
 50
0.000000
 41
1.052632
 51
0.000000
  7
STANDARD
  0
TEXT
  8
0
 10
-173.557007
 20
-121.379997
 40
3.200000
  1
B
 50
0.000000
 41
1.052632
 51
0.000000
  7
STANDARD
  0
TEXT
  8
0
 10
-125.157143
 20
-91.379997
 40
3.200000
  1
STRETCH LIST
 50
0.000000
 41
1.052632
 51
0.000000
  7
STANDARD
  0
TEXT
  8
0
 10
-39.857143
 20
-91.379997
 40
3.200000
  1
（ｍｍ）
 50
0.000000
 41
0.833333
 51
0.000000
  7
STANDARD
  0
TEXT
  8
0
 10
-96.657158
 20
-101.879997
 40
3.200000
  1
75
 50
0.000000
 41
1.052632
 51
0.000000
  7
STANDARD
  0
TEXT
  8
0
 10
-120.657158
 20
-101.879997
 40
3.200000
  1
40
 50
0.000000
 41
1.052632
 51
0.000000
  7
STANDARD
  0
TEXT
  8
0
 10
-132.657150
 20
-101.879997
 40
3.200000
  1
30
 50
0.000000
 41
1.052632
 51
0.000000
  7
STANDARD
  0
TEXT
  8
0
 10
-144.657150
 20
-101.879997
 40
3.200000
  1
20
 50
0.000000
 41
1.052632
 51
0.000000
  7
STANDARD
  0
TEXT
  8
0
 10
-156.657150
 20
-101.879997
 40
3.200000
  1
10
 50
0.000000
 41
1.052632
 51
0.000000
  7
STANDARD
  0
TEXT
  8
0
 10
-184.496872
 20
-101.019997
 40
3.200000
  1
STRETCH
 50
0.000000
 41
1.052632
 51
0.000000
  7
STANDARD
  0
TEXT
  8
0
 10
-184.496872
 20
-105.820000
 40
3.200000
  1
  PLACE
 50
0.000000
 41
1.052632
 51
0.000000
  7
STANDARD
  0
TEXT
  8
0
 10
-173.557144
 20
-113.379997
 40
3.200000
  1
A
 50
0.000000
 41
1.052632
 51
0.000000
  7
STANDARD
  0
TEXT
  8
0
 10
-181.557144
 20
-96.879997
 40
3.200000
  1
STROKE
 50
0.000000
 41
1.052632
 51
0.000000
  7
STANDARD
  0
TEXT
  8
0
 62
     3
 10
-16.197857
 20
79.440636
 40
3.200000
  1
STRETCH LINE A
 50
0.000000
 41
1.052632
 51
0.000000
  7
STANDARD
  0
TEXT
  8
0
 10
-186.892654
 20
104.550003
 40
4.500000
  1
MODEL:CS-SGDAQ32*ST(10)
 50
0.000000
 41
1.052632
 51
0.000000
  7
STANDARD
  0
TEXT
  8
0
 62
     3
 10
6.709961
 20
73.310333
 40
3.200000
  1
STRETCH LINE B
 50
0.000000
 41
1.052632
 51
0.000000
  7
STANDARD
  0
TEXT
  8
0
 10
-193.142654
 20
122.050003
 40
4.500000
  1
CS JIG CYLINDER WITH GUIDE
 50
0.000000
 41
1.052632
 51
0.000000
  7
STANDARD
  0
TEXT
  8
0
 10
113.700287
 20
-130.669998
 40
6.300000
  1
KOGANEI CORP.
 50
0.000000
 41
1.052632
 51
0.000000
  7
STANDARD
  0
TEXT
  8
0
 10
133.907150
 20
122.050003
 40
4.500000
  1
Ｖｅｒ．　１．０
 50
0.000000
 41
0.833333
 51
0.000000
  7
STANDARD
  0
TEXT
  8
0
 62
     2
 10
61.796440
 20
-76.644279
 40
3.200000
  1
ST=75,100,125,150,175,200
 50
0.000000
 41
1.052632
 51
0.000000
  7
STANDARD
  0
LINE
  8
0
 62
     2
 10
59.745174
 20
-77.644279
 11
141.546448
 21
-77.644279
  0
LINE
  8
0
 62
     2
 10
59.745174
 20
-77.644279
 11
33.745174
 21
-77.644279
  0
LINE
  8
0
 62
     2
 10
59.745174
 20
-77.644279
 11
56.847397
 21
-78.420738
  0
LINE
  8
0
 62
     2
 10
59.745174
 20
-77.644279
 11
56.847397
 21
-76.867821
  0
LINE
  8
0
 62
     2
 10
33.745174
 20
-77.644279
 11
36.642952
 21
-76.867821
  0
LINE
  8
0
 62
     2
 10
33.745174
 20
-77.644279
 11
36.642952
 21
-78.420738
  0
LINE
  8
0
 62
     2
 10
59.745174
 20
-43.947899
 11
59.745174
 21
-79.144279
  0
LINE
  8
0
 62
     2
 10
33.745174
 20
-52.447903
 11
33.745174
 21
-79.144279
  0
ENDSEC
  0
EOF
