  0
SECTION
  2
HEADER
  9
$ACADVER
  1
AC1012
  9
$DWGCODEPAGE
  3
dos932
  9
$INSBASE
 10
0.0
 20
0.0
 30
0.0
  9
$EXTMIN
 10
-194.25
 20
-133.5
 30
0.0
  9
$EXTMAX
 10
196.25000429153442
 20
132.59999999999999
 30
0.0
  9
$LIMMIN
 10
-194.25
 20
-133.5
  9
$LIMMAX
 10
196.25000429153442
 20
132.59999999999999
  9
$ORTHOMODE
 70
               0
  9
$REGENMODE
 70
               1
  9
$FILLMODE
 70
               1
  9
$QTEXTMODE
 70
               0
  9
$MIRRTEXT
 70
               1
  9
$DRAGMODE
 70
               2
  9
$LTSCALE
 40
1.0
  9
$OSMODE
 70
               0
  9
$ATTMODE
 70
               1
  9
$TEXTSIZE
 40
3.2000000476837158
  9
$TRACEWID
 40
0.05
  9
$TEXTSTYLE
  7
MX_NOTE_STANDARD
  9
$CLAYER
  8
0
  9
$CELTYPE
  6
CONTINUOUS
  9
$CECOLOR
 62
             256
  9
$CELTSCALE
 40
1.0
  9
$DELOBJ
 70
               1
  9
$DISPSILH
 70
               0
  9
$DIMSCALE
 40
1.0
  9
$DIMASZ
 40
2.5
  9
$DIMEXO
 40
1.5
  9
$DIMDLI
 40
3.75
  9
$DIMRND
 40
0.0
  9
$DIMDLE
 40
0.0
  9
$DIMEXE
 40
1.5
  9
$DIMTP
 40
0.0
  9
$DIMTM
 40
0.0
  9
$DIMTXT
 40
3.2000000476837158
  9
$DIMCEN
 40
2.5
  9
$DIMTSZ
 40
0.0
  9
$DIMTOL
 70
               0
  9
$DIMLIM
 70
               0
  9
$DIMTIH
 70
               0
  9
$DIMTOH
 70
               0
  9
$DIMSE1
 70
               0
  9
$DIMSE2
 70
               0
  9
$DIMTAD
 70
               1
  9
$DIMZIN
 70
               8
  9
$DIMBLK
  1

  9
$DIMASO
 70
               1
  9
$DIMSHO
 70
               1
  9
$DIMPOST
  1

  9
$DIMAPOST
  1

  9
$DIMALT
 70
               0
  9
$DIMALTD
 70
               4
  9
$DIMALTF
 40
0.0394
  9
$DIMLFAC
 40
1.0
  9
$DIMTOFL
 70
               1
  9
$DIMTVP
 40
0.0
  9
$DIMTIX
 70
               0
  9
$DIMSOXD
 70
               0
  9
$DIMSAH
 70
               0
  9
$DIMBLK1
  1

  9
$DIMBLK2
  1

  9
$DIMSTYLE
  2
MXDIMSTYLE
  9
$DIMCLRD
 70
               0
  9
$DIMCLRE
 70
               0
  9
$DIMCLRT
 70
               0
  9
$DIMTFAC
 40
1.0
  9
$DIMGAP
 40
1.0
  9
$DIMJUST
 70
               0
  9
$DIMSD1
 70
               0
  9
$DIMSD2
 70
               0
  9
$DIMTOLJ
 70
               1
  9
$DIMTZIN
 70
               0
  9
$DIMALTZ
 70
               0
  9
$DIMALTTZ
 70
               0
  9
$DIMFIT
 70
               3
  9
$DIMUPT
 70
               1
  9
$DIMUNIT
 70
               2
  9
$DIMDEC
 70
               4
  9
$DIMTDEC
 70
               4
  9
$DIMALTU
 70
               8
  9
$DIMALTTD
 70
               4
  9
$DIMTXSTY
  7
MX_NOTE_STANDARD
  9
$DIMAUNIT
 70
               0
  9
$LUNITS
 70
               2
  9
$LUPREC
 70
               4
  9
$SKETCHINC
 40
0.1
  9
$FILLETRAD
 40
0.0
  9
$AUNITS
 70
               0
  9
$AUPREC
 70
               0
  9
$MENU
  1
acad
  9
$ELEVATION
 40
0.0
  9
$PELEVATION
 40
0.0
  9
$THICKNESS
 40
0.0
  9
$LIMCHECK
 70
               0
  9
$BLIPMODE
 70
               1
  9
$CHAMFERA
 40
0.0
  9
$CHAMFERB
 40
0.0
  9
$CHAMFERC
 40
0.0
  9
$CHAMFERD
 40
0.0
  9
$SKPOLY
 70
               0
  9
$TDCREATE
 40
2452220.697442130
  9
$TDUPDATE
 40
2452220.697442130
  9
$TDINDWG
 40
0.0000000000
  9
$TDUSRTIMER
 40
0.0000000000
  9
$USRTIMER
 70
               1
  9
$ANGBASE
 50
0.0
  9
$ANGDIR
 70
               0
  9
$PDMODE
 70
               0
  9
$PDSIZE
 40
0.0
  9
$PLINEWID
 40
0.0
  9
$COORDS
 70
               1
  9
$SPLFRAME
 70
               0
  9
$SPLINETYPE
 70
               6
  9
$SPLINESEGS
 70
               8
  9
$ATTDIA
 70
               0
  9
$ATTREQ
 70
               1
  9
$HANDLING
 70
               1
  9
$HANDSEED
  5
2F7
  9
$SURFTAB1
 70
               6
  9
$SURFTAB2
 70
               6
  9
$SURFTYPE
 70
               6
  9
$SURFU
 70
               6
  9
$SURFV
 70
               6
  9
$UCSNAME
  2

  9
$UCSORG
 10
0.0
 20
0.0
 30
0.0
  9
$UCSXDIR
 10
1.0
 20
0.0
 30
0.0
  9
$UCSYDIR
 10
0.0
 20
1.0
 30
0.0
  9
$PUCSNAME
  2

  9
$PUCSORG
 10
0.0
 20
0.0
 30
0.0
  9
$PUCSXDIR
 10
1.0
 20
0.0
 30
0.0
  9
$PUCSYDIR
 10
0.0
 20
1.0
 30
0.0
  9
$USERI1
 70
               0
  9
$USERI2
 70
               0
  9
$USERI3
 70
               0
  9
$USERI4
 70
               0
  9
$USERI5
 70
               0
  9
$USERR1
 40
0.0
  9
$USERR2
 40
0.0
  9
$USERR3
 40
0.0
  9
$USERR4
 40
0.0
  9
$USERR5
 40
0.0
  9
$WORLDVIEW
 70
               1
  9
$SHADEDGE
 70
               3
  9
$SHADEDIF
 70
              70
  9
$TILEMODE
 70
               1
  9
$MAXACTVP
 70
              16
  9
$PINSBASE
 10
0.0
 20
0.0
 30
0.0
  9
$PLIMCHECK
 70
               0
  9
$PEXTMIN
 10
1.0000000000000000E+20
 20
1.0000000000000000E+20
 30
1.0000000000000000E+20
  9
$PEXTMAX
 10
-1.0000000000000000E+20
 20
-1.0000000000000000E+20
 30
-1.0000000000000000E+20
  9
$PLIMMIN
 10
0.0
 20
0.0
  9
$PLIMMAX
 10
12.0
 20
9.0
  9
$UNITMODE
 70
               0
  9
$VISRETAIN
 70
               0
  9
$PLINEGEN
 70
               1
  9
$PSLTSCALE
 70
               0
  9
$TREEDEPTH
 70
            3020
  9
$PICKSTYLE
 70
               1
  9
$CMLSTYLE
  2
Standard
  9
$CMLJUST
 70
               0
  9
$CMLSCALE
 40
1.0
  9
$SAVEIMAGES
 70
               0
  0
ENDSEC
  0
SECTION
  2
CLASSES
  0
CLASS
  1
LWPOLYLINE
  2
AcDbPolyline
  3
"AutoCAD"
 90
        0
280
               0
281
               1
  0
CLASS
  1
IMAGE
  2
AcDbRasterImage
  3
ISM
 90
      127
280
               0
281
               1
  0
CLASS
  1
OLE2FRAME
  2
AcDbOle2Frame
  3
""
 90
        0
280
               0
281
               1
  0
CLASS
  1
HATCH
  2
AcDbHatch
  3
"ACAD_SEDONA"
 90
        0
280
               0
281
               1
  0
CLASS
  1
DICTIONARYVAR
  2
AcDbDictionaryVar
  3
"AutoCAD"
 90
        0
280
               0
281
               0
  0
CLASS
  1
RASTERVARIABLES
  2
AcDbRasterVariables
  3
ISM
 90
        0
280
               0
281
               0
  0
CLASS
  1
IMAGEDEF
  2
AcDbRasterImageDef
  3
ISM
 90
        0
280
               0
281
               0
  0
CLASS
  1
IMAGEDEF_REACTOR
  2
AcDbRasterImageDefReactor
  3
ISM
 90
        1
280
               0
281
               0
  0
CLASS
  1
IDBUFFER
  2
AcDbIdBuffer
  3
"Acad"
 90
        0
280
               0
281
               0
  0
CLASS
  1
SPATIAL_FILTER
  2
AcDbSpatialFilter
  3
"Acad"
 90
        0
280
               0
281
               0
  0
CLASS
  1
XRECORD
  2
AcDbXrecord
  3
"<Built In>"
 90
        0
280
               0
281
               0
  0
CLASS
  1
SORTENTSTABLE
  2
AcDbSortentsTable
  3
"AutoCAD"
 90
        0
280
               0
281
               0
  0
CLASS
  1
LAYER_INDEX
  2
AcDbLayerIndex
  3
"Acad"
 90
        0
280
               0
281
               0
  0
CLASS
  1
SPATIAL_INDEX
  2
AcDbSpatialIndex
  3
"Acad"
 90
        0
280
               0
281
               0
  0
CLASS
  1
OBJECT_PTR
  2
CAseDLPNTableRecord
  3
"ASE-LPNTableRecord"
 90
        1
280
               0
281
               0
  0
CLASS
  1
LAYOUT
  2
AcDbLayout
  3
"AutoCAD 2000"
 90
        1
280
               0
281
               0
  0
CLASS
  1
PLOTSETTINGS
  2
AcDbPlotSettings
  3
"AutoCAD 2000"
 90
        1
280
               0
281
               0
  0
CLASS
  1
ACDBDICTIONARYWDFLT
  2
AcDbDictionaryWithDefault
  3
"AutoCAD 2000"
 90
        1
280
               0
281
               0
  0
CLASS
  1
ACDBPLACEHOLDER
  2
AcDbPlaceHolder
  3
"AutoCAD 2000"
 90
        1
280
               0
281
               0
  0
CLASS
  1
VBA_PROJECT
  2
AcDbVbaProject
  3
"acadvba"
 90
        1
280
               0
281
               0
  0
CLASS
  1
WIPEOUT
  2
AcDbWipeout
  3
WipeOut|AutoCAD Express Tool|expresstools@autodesk.com
 90
      127
280
               0
281
               1
  0
CLASS
  1
WIPEOUTVARIABLES
  2
AcDbWipeoutVariables
  3
WipeOut|AutoCAD Express Tool|expresstools@autodesk.com
 90
        0
280
               0
281
               0
  0
CLASS
  1
RTEXT
  2
RText
  3
RText|AutoCAD Express Tool|expresstools@autodesk.com
 90
        0
280
               0
281
               1
  0
CLASS
  1
ARCALIGNEDTEXT
  2
AcDbArcAlignedText
  3
ATEXT|AutoCAD Express Tool|expresstools@autodesk.com
 90
        0
280
               0
281
               1
  0
ENDSEC
  0
SECTION
  2
TABLES
  0
TABLE
  2
VPORT
  5
7
100
AcDbSymbolTable
 70
               1
  0
VPORT
  5
15
100
AcDbSymbolTableRecord
100
AcDbViewportTableRecord
  2
*ACTIVE
 70
               0
 10
0.0
 20
0.0
 11
1.0
 21
1.0
 12
1.0000021457672119
 22
-0.4499999999999886
 13
0.0
 23
0.0
 14
1.0
 24
1.0
 15
0.0
 25
0.0
 16
0.0
 26
0.0
 36
1.0
 17
0.0
 27
0.0
 37
0.0
 40
268.76100000000002
 41
1.7320508075688772
 42
50.0
 43
0.0
 44
0.0
 50
0.0
 51
0.0
 71
               0
 72
             100
 73
               1
 74
               1
 75
               0
 76
               0
 77
               0
 78
               0
  0
ENDTAB
  0
TABLE
  2
LTYPE
  5
4
100
AcDbSymbolTable
 70
               5
  0
LTYPE
  5
11
100
AcDbSymbolTableRecord
100
AcDbLinetypeTableRecord
  2
BYBLOCK
 70
              64
  3

 72
              65
 73
               0
 40
0.0
  0
LTYPE
  5
12
100
AcDbSymbolTableRecord
100
AcDbLinetypeTableRecord
  2
BYLAYER
 70
              64
  3

 72
              65
 73
               0
 40
0.0
  0
LTYPE
  5
13
100
AcDbSymbolTableRecord
100
AcDbLinetypeTableRecord
  2
CONTINUOUS
 70
              64
  3
Solid line
 72
              65
 73
               0
 40
0.0
  0
LTYPE
  5
22
100
AcDbSymbolTableRecord
100
AcDbLinetypeTableRecord
  2
PHANTOM
 70
              64
  3
Phantom ______  __  __  ______  __  __  ______
 72
              65
 73
               6
 40
63.500000000000007
 49
31.75
 74
               0
 49
-6.3499999999999996
 74
               0
 49
6.3499999999999996
 74
               0
 49
-6.3499999999999996
 74
               0
 49
6.3499999999999996
 74
               0
 49
-6.3499999999999996
 74
               0
  0
LTYPE
  5
36
100
AcDbSymbolTableRecord
100
AcDbLinetypeTableRecord
  2
CENTER
 70
              64
  3
Center ____ _ ____ _ ____ _ ____ _ ____ _ ____
 72
              65
 73
               4
 40
50.800000000000004
 49
31.75
 74
               0
 49
-6.3499999999999996
 74
               0
 49
6.3499999999999996
 74
               0
 49
-6.3499999999999996
 74
               0
  0
ENDTAB
  0
TABLE
  2
LAYER
  5
2
100
AcDbSymbolTable
 70
               2
  0
LAYER
  5
14
100
AcDbSymbolTableRecord
100
AcDbLayerTableRecord
  2
0
 70
               0
 62
               7
  6
CONTINUOUS
  0
LAYER
  5
1D
100
AcDbSymbolTableRecord
100
AcDbLayerTableRecord
  2
DEFPOINTS
 70
               0
 62
               7
  6
CONTINUOUS
  0
ENDTAB
  0
TABLE
  2
STYLE
  5
3
100
AcDbSymbolTable
 70
               1
  0
STYLE
  5
17
100
AcDbSymbolTableRecord
100
AcDbTextStyleTableRecord
  2
MX_NOTE_STANDARD
 70
               0
 40
3.2000000476837158
 41
1.0
 50
0.0
 71
               0
 42
3.2000000476837158
  3
txt.shx
  4
extfont.shx
  0
ENDTAB
  0
TABLE
  2
VIEW
  5
5
100
AcDbSymbolTable
 70
               0
  0
ENDTAB
  0
TABLE
  2
UCS
  5
6
100
AcDbSymbolTable
 70
               0
  0
ENDTAB
  0
TABLE
  2
APPID
  5
8
100
AcDbSymbolTable
 70
               1
  0
APPID
  5
16
100
AcDbSymbolTableRecord
100
AcDbRegAppTableRecord
  2
ACAD
 70
               0
  0
ENDTAB
  0
TABLE
  2
DIMSTYLE
  5
9
100
AcDbSymbolTable
 70
               1
  0
DIMSTYLE
105
18
100
AcDbSymbolTableRecord
100
AcDbDimStyleTableRecord
  2
MXDIMSTYLE
 70
               0
  3

  4

  5

  6

  7

 40
1.0
 41
2.5
 42
1.5
 43
3.75
 44
1.5
 45
0.0
 46
0.0
 47
0.0
 48
0.0
 71
               0
 72
               0
 73
               0
 74
               0
 75
               0
 76
               0
 77
               1
 78
               8
140
3.2000000476837158
141
2.5
142
0.0
143
0.0394
144
1.0
145
0.0
146
1.0
147
1.0
170
               0
171
               4
172
               1
173
               0
174
               0
175
               0
176
               0
177
               0
178
               0
270
               2
271
               4
272
               4
273
               8
274
               4
275
               0
280
               0
281
               0
282
               0
283
               1
284
               0
285
               0
286
               0
287
               3
288
               1
340
17
  0
ENDTAB
  0
TABLE
  2
BLOCK_RECORD
  5
1
100
AcDbSymbolTable
 70
               3
  0
BLOCK_RECORD
  5
A
100
AcDbSymbolTableRecord
100
AcDbBlockTableRecord
  2
*MODEL_SPACE
  0
BLOCK_RECORD
  5
B
100
AcDbSymbolTableRecord
100
AcDbBlockTableRecord
  2
*PAPER_SPACE
  0
BLOCK_RECORD
  5
1E
100
AcDbSymbolTableRecord
100
AcDbBlockTableRecord
  2
MS_1
  0
BLOCK_RECORD
  5
1F
100
AcDbSymbolTableRecord
100
AcDbBlockTableRecord
  2
MS_2
  0
BLOCK_RECORD
  5
20
100
AcDbSymbolTableRecord
100
AcDbBlockTableRecord
  2
MS_3
  0
ENDTAB
  0
ENDSEC
  0
SECTION
  2
BLOCKS
  0
BLOCK
  5
D
100
AcDbEntity
  8
0
100
AcDbBlockBegin
  2
*MODEL_SPACE
 70
               0
 10
0.0
 20
0.0
 30
0.0
  3
*MODEL_SPACE
  1

  0
ENDBLK
  5
E
100
AcDbEntity
  8
0
100
AcDbBlockEnd
  0
BLOCK
  5
F
100
AcDbEntity
 67
               1
  8
0
100
AcDbBlockBegin
  2
*PAPER_SPACE
 70
               0
 10
0.0
 20
0.0
 30
0.0
  3
*PAPER_SPACE
  1

  0
ENDBLK
  5
10
100
AcDbEntity
 67
               1
  8
0
100
AcDbBlockEnd
  0
BLOCK
  5
21
100
AcDbEntity
  8
0
100
AcDbBlockBegin
  2
MS_1
 70
               0
 10
0.0
 20
0.0
 30
0.0
  3
MS_1
  1

  0
ARC
  5
23
100
AcDbEntity
  8
0
  6
PHANTOM
 62
               2
100
AcDbCircle
 10
33.676651000995449
 20
-20.5
 30
0.0
 40
5.7834713699131353
100
AcDbArc
 50
159.7685634136536
 51
200.23143658634558
  0
ARC
  5
24
100
AcDbEntity
  8
0
  6
PHANTOM
 62
               2
100
AcDbCircle
 10
33.676651000995449
 20
-16.5
 30
0.0
 40
5.7834713699131353
100
AcDbArc
 50
159.7685634136536
 51
200.23143658634558
  0
ARC
  5
25
100
AcDbEntity
  8
0
  6
PHANTOM
 62
               2
100
AcDbCircle
 10
24.623336791973273
 20
-20.5
 30
0.0
 40
5.774100822568859
100
AcDbArc
 50
339.7342906415933
 51
20.265709358405889
  0
ARC
  5
26
100
AcDbEntity
  8
0
  6
PHANTOM
 62
               2
100
AcDbCircle
 10
24.623336791973273
 20
-16.5
 30
0.0
 40
5.774100822568859
100
AcDbArc
 50
339.7342906415933
 51
20.265709358405889
  0
CIRCLE
  5
27
100
AcDbEntity
  8
0
  6
PHANTOM
 62
               2
100
AcDbCircle
 10
54.999984741210938
 20
0.0
 30
0.0
 40
26.25
  0
CIRCLE
  5
28
100
AcDbEntity
  8
0
  6
CONTINUOUS
 62
               7
100
AcDbCircle
 10
54.999984741210938
 20
0.0
 30
0.0
 40
5.7224998474121094
  0
CIRCLE
  5
29
100
AcDbEntity
  8
0
  6
CONTINUOUS
 62
               2
100
AcDbCircle
 10
54.999984741210938
 20
0.0
 30
0.0
 40
6.5784997940063477
  0
ARC
  5
2A
100
AcDbEntity
  8
0
  6
CONTINUOUS
 62
               7
100
AcDbCircle
 10
54.999984741210938
 20
0.0
 30
0.0
 40
12.525863022005055
100
AcDbArc
 50
309.7529147587959
 51
50.247085241203315
  0
ARC
  5
2B
100
AcDbEntity
  8
0
  6
CONTINUOUS
 62
               7
100
AcDbCircle
 10
54.999984741210938
 20
0.0
 30
0.0
 40
11.998212464020456
100
AcDbArc
 50
303.54443888651417
 51
56.455561113484997
  0
ARC
  5
2C
100
AcDbEntity
  8
0
  6
CONTINUOUS
 62
               4
100
AcDbCircle
 10
58.006414522218556
 20
-49.000957090667356
 30
0.0
 40
4.249047751137347
100
AcDbArc
 50
252.8008907355042
 51
269.91350410448575
  0
ARC
  5
2D
100
AcDbEntity
  8
0
  6
CONTINUOUS
 62
               4
100
AcDbCircle
 10
57.990838667952893
 20
-49.001031890130044
 30
0.0
 40
4.2510417618399714
100
AcDbArc
 50
89.876522956786772
 51
103.06311701355918
  0
ARC
  5
2E
100
AcDbEntity
  8
0
  6
CONTINUOUS
 62
               4
100
AcDbCircle
 10
63.0
 20
-49.0
 30
0.0
 40
4.2500000000273914
100
AcDbArc
 50
269.99999999999937
 51
89.999999999999801
  0
ARC
  5
2F
100
AcDbEntity
  8
0
  6
CONTINUOUS
 62
               4
100
AcDbCircle
 10
17.999333213402355
 20
-48.999910137579462
 30
0.0
 40
4.2499101898869611
100
AcDbArc
 50
76.935722082493953
 51
89.991010619911577
  0
ARC
  5
30
100
AcDbEntity
  8
0
  6
CONTINUOUS
 62
               4
100
AcDbCircle
 10
17.99358479547206
 20
-49.00095260178982
 30
0.0
 40
4.2490522410398608
100
AcDbArc
 50
270.08650500463483
 51
287.19910015537283
  0
ARC
  5
31
100
AcDbEntity
  8
0
  6
CONTINUOUS
 62
               4
100
AcDbCircle
 10
13.0
 20
-49.0
 30
0.0
 40
4.25
100
AcDbArc
 50
89.999999999999801
 51
269.99999999999937
  0
ARC
  5
32
100
AcDbEntity
  8
0
  6
CONTINUOUS
 62
               7
100
AcDbCircle
 10
56.032313798732936
 20
-89.201921441992724
 30
0.0
 40
0.9980812399892477
100
AcDbArc
 50
269.8671741182236
 51
358.38791163597114
  0
ARC
  5
33
100
AcDbEntity
  8
0
  6
CONTINUOUS
 62
               7
100
AcDbCircle
 10
19.962529477744454
 20
-89.196928373459329
 30
0.0
 40
1.0030748158679956
100
AcDbArc
 50
181.88939853594775
 51
269.85551570985541
  0
CIRCLE
  5
34
100
AcDbEntity
  8
0
  6
CONTINUOUS
 62
               7
100
AcDbCircle
 10
54.999984741210938
 20
0.0
 30
0.0
 40
9.0
  0
CIRCLE
  5
35
100
AcDbEntity
  8
0
  6
CONTINUOUS
 62
               7
100
AcDbCircle
 10
54.999984741210938
 20
0.0
 30
0.0
 40
10.0
  0
LINE
  5
37
100
AcDbEntity
  8
0
  6
CENTER
 62
               2
100
AcDbLine
 10
43.439999999999998
 20
-18.5
 30
0.0
 11
17.91
 21
-18.5
 31
0.0
  0
LINE
  5
38
100
AcDbEntity
  8
0
  6
PHANTOM
 62
               2
100
AcDbLine
 10
42.5
 20
-22.5
 30
0.0
 11
42.5
 21
-14.5
 31
0.0
  0
LINE
  5
39
100
AcDbEntity
  8
0
  6
PHANTOM
 62
               2
100
AcDbLine
 10
42.5
 20
-14.5
 30
0.0
 11
32.0
 21
-14.5
 31
0.0
  0
LINE
  5
3A
100
AcDbEntity
  8
0
  6
PHANTOM
 62
               2
100
AcDbLine
 10
42.5
 20
-22.5
 30
0.0
 11
32.0
 21
-22.5
 31
0.0
  0
LINE
  5
3B
100
AcDbEntity
  8
0
  6
PHANTOM
 62
               2
100
AcDbLine
 10
32.0
 20
-22.5
 30
0.0
 11
32.0
 21
-14.5
 31
0.0
  0
LINE
  5
3C
100
AcDbEntity
  8
0
  6
PHANTOM
 62
               2
100
AcDbLine
 10
20.399999999999999
 20
-16.260000000000002
 30
0.0
 11
18.899999999999999
 21
-16.52
 31
0.0
  0
LINE
  5
3D
100
AcDbEntity
  8
0
  6
PHANTOM
 62
               2
100
AcDbLine
 10
20.399999999999999
 20
-20.73
 30
0.0
 11
18.899999999999999
 21
-20.469999999999999
 31
0.0
  0
LINE
  5
3E
100
AcDbEntity
  8
0
  6
PHANTOM
 62
               2
100
AcDbLine
 10
18.899999999999999
 20
-20.469999999999999
 30
0.0
 11
18.899999999999999
 21
-16.52
 31
0.0
  0
LINE
  5
3F
100
AcDbEntity
  8
0
  6
PHANTOM
 62
               2
100
AcDbLine
 10
32.0
 20
-22.5
 30
0.0
 11
27.899999999999999
 21
-22.5
 31
0.0
  0
LINE
  5
40
100
AcDbEntity
  8
0
  6
PHANTOM
 62
               2
100
AcDbLine
 10
32.0
 20
-14.5
 30
0.0
 11
27.899999999999999
 21
-14.5
 31
0.0
  0
LINE
  5
41
100
AcDbEntity
  8
0
  6
PHANTOM
 62
               2
100
AcDbLine
 10
31.399999999999999
 20
-22.5
 30
0.0
 11
31.399999999999999
 21
-14.5
 31
0.0
  0
LINE
  5
42
100
AcDbEntity
  8
0
  6
PHANTOM
 62
               2
100
AcDbLine
 10
30.399999999999999
 20
-22.5
 30
0.0
 11
30.399999999999999
 21
-14.5
 31
0.0
  0
LINE
  5
43
100
AcDbEntity
  8
0
  6
PHANTOM
 62
               2
100
AcDbLine
 10
30.039999999999999
 20
-18.5
 30
0.0
 11
28.25
 21
-18.5
 31
0.0
  0
LINE
  5
44
100
AcDbEntity
  8
0
  6
PHANTOM
 62
               2
100
AcDbLine
 10
27.899999999999999
 20
-14.0
 30
0.0
 11
20.399999999999999
 21
-14.0
 31
0.0
  0
LINE
  5
45
100
AcDbEntity
  8
0
  6
PHANTOM
 62
               2
100
AcDbLine
 10
27.899999999999999
 20
-23.0
 30
0.0
 11
20.399999999999999
 21
-23.0
 31
0.0
  0
LINE
  5
46
100
AcDbEntity
  8
0
  6
PHANTOM
 62
               2
100
AcDbLine
 10
20.399999999999999
 20
-23.0
 30
0.0
 11
20.399999999999999
 21
-14.0
 31
0.0
  0
LINE
  5
47
100
AcDbEntity
  8
0
  6
PHANTOM
 62
               2
100
AcDbLine
 10
27.899999999999999
 20
-23.0
 30
0.0
 11
27.899999999999999
 21
-14.0
 31
0.0
  0
LINE
  5
48
100
AcDbEntity
  8
0
  6
CENTER
 62
               2
100
AcDbLine
 10
38.0
 20
35.479999999999997
 30
0.0
 11
38.0
 21
-94.680000000000007
 31
0.0
  0
LINE
  5
49
100
AcDbEntity
  8
0
  6
CONTINUOUS
 62
               2
100
AcDbLine
 10
48.479999999999997
 20
-32.200000000000003
 30
0.0
 11
27.510000000000002
 21
-41.200000000000003
 31
0.0
  0
LINE
  5
4A
100
AcDbEntity
  8
0
  6
CONTINUOUS
 62
               2
100
AcDbLine
 10
27.510000000000002
 20
-32.200000000000003
 30
0.0
 11
48.479999999999997
 21
-41.200000000000003
 31
0.0
  0
LINE
  5
4B
100
AcDbEntity
  8
0
  6
CONTINUOUS
 62
               7
100
AcDbLine
 10
48.479999999999997
 20
-41.200000000000003
 30
0.0
 11
45.340000000000003
 21
-42.200000000000003
 31
0.0
  0
LINE
  5
4C
100
AcDbEntity
  8
0
  6
CONTINUOUS
 62
               7
100
AcDbLine
 10
27.510000000000002
 20
-41.200000000000003
 30
0.0
 11
30.649999999999999
 21
-42.200000000000003
 31
0.0
  0
LINE
  5
4D
100
AcDbEntity
  8
0
  6
CONTINUOUS
 62
               2
100
AcDbLine
 10
59.5
 20
-29.0
 30
0.0
 11
59.5
 21
-32.200000000000003
 31
0.0
  0
LINE
  5
4E
100
AcDbEntity
  8
0
  6
CONTINUOUS
 62
               7
100
AcDbLine
 10
60.5
 20
-29.0
 30
0.0
 11
60.5
 21
-32.200000000000003
 31
0.0
  0
LINE
  5
4F
100
AcDbEntity
  8
0
  6
CONTINUOUS
 62
               2
100
AcDbLine
 10
16.5
 20
-29.0
 30
0.0
 11
16.5
 21
-32.200000000000003
 31
0.0
  0
LINE
  5
50
100
AcDbEntity
  8
0
  6
CONTINUOUS
 62
               7
100
AcDbLine
 10
15.5
 20
-29.0
 30
0.0
 11
15.5
 21
-32.200000000000003
 31
0.0
  0
LINE
  5
51
100
AcDbEntity
  8
0
  6
CONTINUOUS
 62
               7
100
AcDbLine
 10
49.020000000000003
 20
31.0
 30
0.0
 11
54.68
 21
31.0
 31
0.0
  0
LINE
  5
52
100
AcDbEntity
  8
0
  6
CONTINUOUS
 62
               7
100
AcDbLine
 10
56.5
 20
25.0
 30
0.0
 11
57.590000000000003
 21
24.420000000000002
 31
0.0
  0
LINE
  5
53
100
AcDbEntity
  8
0
  6
CONTINUOUS
 62
               7
100
AcDbLine
 10
56.5
 20
32.0
 30
0.0
 11
57.590000000000003
 21
31.0
 31
0.0
  0
LINE
  5
54
100
AcDbEntity
  8
0
  6
CONTINUOUS
 62
               7
100
AcDbLine
 10
42.289999999999999
 20
32.0
 30
0.0
 11
42.0
 21
31.0
 31
0.0
  0
LINE
  5
55
100
AcDbEntity
  8
0
  6
CONTINUOUS
 62
               7
100
AcDbLine
 10
49.020000000000003
 20
31.0
 30
0.0
 11
48.049999999999997
 21
32.0
 31
0.0
  0
LINE
  5
56
100
AcDbEntity
  8
0
  6
CONTINUOUS
 62
               7
100
AcDbLine
 10
49.020000000000003
 20
24.420000000000002
 30
0.0
 11
48.049999999999997
 21
25.0
 31
0.0
  0
LINE
  5
57
100
AcDbEntity
  8
0
  6
CONTINUOUS
 62
               7
100
AcDbLine
 10
42.289999999999999
 20
25.0
 30
0.0
 11
42.0
 21
24.420000000000002
 31
0.0
  0
LINE
  5
58
100
AcDbEntity
  8
0
  6
CONTINUOUS
 62
               7
100
AcDbLine
 10
54.68
 20
31.0
 30
0.0
 11
54.119999999999997
 21
32.0
 31
0.0
  0
LINE
  5
59
100
AcDbEntity
  8
0
  6
CONTINUOUS
 62
               7
100
AcDbLine
 10
49.020000000000003
 20
24.420000000000002
 30
0.0
 11
42.0
 21
24.420000000000002
 31
0.0
  0
LINE
  5
5A
100
AcDbEntity
  8
0
  6
CONTINUOUS
 62
               7
100
AcDbLine
 10
48.049999999999997
 20
25.0
 30
0.0
 11
42.289999999999999
 21
25.0
 31
0.0
  0
LINE
  5
5B
100
AcDbEntity
  8
0
  6
CONTINUOUS
 62
               7
100
AcDbLine
 10
57.590000000000003
 20
31.0
 30
0.0
 11
57.590000000000003
 21
24.420000000000002
 31
0.0
  0
LINE
  5
5C
100
AcDbEntity
  8
0
  6
CONTINUOUS
 62
               7
100
AcDbLine
 10
56.5
 20
32.0
 30
0.0
 11
56.5
 21
25.0
 31
0.0
  0
LINE
  5
5D
100
AcDbEntity
  8
0
  6
CONTINUOUS
 62
               7
100
AcDbLine
 10
54.68
 20
31.0
 30
0.0
 11
54.68
 21
24.420000000000002
 31
0.0
  0
LINE
  5
5E
100
AcDbEntity
  8
0
  6
CONTINUOUS
 62
               7
100
AcDbLine
 10
49.020000000000003
 20
31.0
 30
0.0
 11
49.020000000000003
 21
24.420000000000002
 31
0.0
  0
LINE
  5
5F
100
AcDbEntity
  8
0
  6
CONTINUOUS
 62
               7
100
AcDbLine
 10
48.049999999999997
 20
32.0
 30
0.0
 11
48.049999999999997
 21
25.0
 31
0.0
  0
LINE
  5
60
100
AcDbEntity
  8
0
  6
CONTINUOUS
 62
               7
100
AcDbLine
 10
42.289999999999999
 20
32.0
 30
0.0
 11
42.289999999999999
 21
25.0
 31
0.0
  0
LINE
  5
61
100
AcDbEntity
  8
0
  6
CONTINUOUS
 62
               7
100
AcDbLine
 10
42.0
 20
31.0
 30
0.0
 11
42.0
 21
24.420000000000002
 31
0.0
  0
LINE
  5
62
100
AcDbEntity
  8
0
  6
CONTINUOUS
 62
               7
100
AcDbLine
 10
57.590000000000003
 20
24.420000000000002
 30
0.0
 11
54.68
 21
24.420000000000002
 31
0.0
  0
LINE
  5
63
100
AcDbEntity
  8
0
  6
CONTINUOUS
 62
               7
100
AcDbLine
 10
56.5
 20
25.0
 30
0.0
 11
54.68
 21
25.0
 31
0.0
  0
LINE
  5
64
100
AcDbEntity
  8
0
  6
CONTINUOUS
 62
               7
100
AcDbLine
 10
58.0
 20
31.0
 30
0.0
 11
57.590000000000003
 21
31.0
 31
0.0
  0
LINE
  5
65
100
AcDbEntity
  8
0
  6
CONTINUOUS
 62
               7
100
AcDbLine
 10
58.0
 20
31.0
 30
0.0
 11
57.0
 21
32.0
 31
0.0
  0
LINE
  5
66
100
AcDbEntity
  8
0
  6
CONTINUOUS
 62
               7
100
AcDbLine
 10
58.0
 20
31.0
 30
0.0
 11
58.0
 21
22.0
 31
0.0
  0
LINE
  5
67
100
AcDbEntity
  8
0
  6
CONTINUOUS
 62
               7
100
AcDbLine
 10
21.309999999999999
 20
31.0
 30
0.0
 11
21.870000000000001
 21
32.0
 31
0.0
  0
LINE
  5
68
100
AcDbEntity
  8
0
  6
CONTINUOUS
 62
               7
100
AcDbLine
 10
19.489999999999998
 20
25.0
 30
0.0
 11
18.399999999999999
 21
24.420000000000002
 31
0.0
  0
LINE
  5
69
100
AcDbEntity
  8
0
  6
CONTINUOUS
 62
               7
100
AcDbLine
 10
19.489999999999998
 20
32.0
 30
0.0
 11
18.399999999999999
 21
31.0
 31
0.0
  0
LINE
  5
6A
100
AcDbEntity
  8
0
  6
CONTINUOUS
 62
               7
100
AcDbLine
 10
33.700000000000003
 20
32.0
 30
0.0
 11
34.0
 21
31.0
 31
0.0
  0
LINE
  5
6B
100
AcDbEntity
  8
0
  6
CONTINUOUS
 62
               7
100
AcDbLine
 10
26.969999999999999
 20
31.0
 30
0.0
 11
27.940000000000001
 21
32.0
 31
0.0
  0
LINE
  5
6C
100
AcDbEntity
  8
0
  6
CONTINUOUS
 62
               7
100
AcDbLine
 10
26.969999999999999
 20
24.420000000000002
 30
0.0
 11
27.940000000000001
 21
25.0
 31
0.0
  0
LINE
  5
6D
100
AcDbEntity
  8
0
  6
CONTINUOUS
 62
               7
100
AcDbLine
 10
33.700000000000003
 20
25.0
 30
0.0
 11
34.0
 21
24.420000000000002
 31
0.0
  0
LINE
  5
6E
100
AcDbEntity
  8
0
  6
CONTINUOUS
 62
               7
100
AcDbLine
 10
21.309999999999999
 20
31.0
 30
0.0
 11
26.969999999999999
 21
31.0
 31
0.0
  0
LINE
  5
6F
100
AcDbEntity
  8
0
  6
CONTINUOUS
 62
               7
100
AcDbLine
 10
34.0
 20
31.0
 30
0.0
 11
42.0
 21
31.0
 31
0.0
  0
LINE
  5
70
100
AcDbEntity
  8
0
  6
CONTINUOUS
 62
               7
100
AcDbLine
 10
26.969999999999999
 20
24.420000000000002
 30
0.0
 11
34.0
 21
24.420000000000002
 31
0.0
  0
LINE
  5
71
100
AcDbEntity
  8
0
  6
CONTINUOUS
 62
               7
100
AcDbLine
 10
27.940000000000001
 20
25.0
 30
0.0
 11
33.700000000000003
 21
25.0
 31
0.0
  0
LINE
  5
72
100
AcDbEntity
  8
0
  6
CONTINUOUS
 62
               7
100
AcDbLine
 10
18.399999999999999
 20
31.0
 30
0.0
 11
18.399999999999999
 21
24.420000000000002
 31
0.0
  0
LINE
  5
73
100
AcDbEntity
  8
0
  6
CONTINUOUS
 62
               7
100
AcDbLine
 10
19.489999999999998
 20
32.0
 30
0.0
 11
19.489999999999998
 21
25.0
 31
0.0
  0
LINE
  5
74
100
AcDbEntity
  8
0
  6
CONTINUOUS
 62
               7
100
AcDbLine
 10
21.309999999999999
 20
31.0
 30
0.0
 11
21.309999999999999
 21
24.420000000000002
 31
0.0
  0
LINE
  5
75
100
AcDbEntity
  8
0
  6
CONTINUOUS
 62
               7
100
AcDbLine
 10
26.969999999999999
 20
31.0
 30
0.0
 11
26.969999999999999
 21
24.420000000000002
 31
0.0
  0
LINE
  5
76
100
AcDbEntity
  8
0
  6
CONTINUOUS
 62
               7
100
AcDbLine
 10
27.940000000000001
 20
32.0
 30
0.0
 11
27.940000000000001
 21
25.0
 31
0.0
  0
LINE
  5
77
100
AcDbEntity
  8
0
  6
CONTINUOUS
 62
               7
100
AcDbLine
 10
33.700000000000003
 20
32.0
 30
0.0
 11
33.700000000000003
 21
25.0
 31
0.0
  0
LINE
  5
78
100
AcDbEntity
  8
0
  6
CONTINUOUS
 62
               7
100
AcDbLine
 10
34.0
 20
31.0
 30
0.0
 11
34.0
 21
24.420000000000002
 31
0.0
  0
LINE
  5
79
100
AcDbEntity
  8
0
  6
CONTINUOUS
 62
               7
100
AcDbLine
 10
18.399999999999999
 20
24.420000000000002
 30
0.0
 11
21.309999999999999
 21
24.420000000000002
 31
0.0
  0
LINE
  5
7A
100
AcDbEntity
  8
0
  6
CONTINUOUS
 62
               7
100
AcDbLine
 10
19.489999999999998
 20
25.0
 30
0.0
 11
21.309999999999999
 21
25.0
 31
0.0
  0
LINE
  5
7B
100
AcDbEntity
  8
0
  6
CONTINUOUS
 62
               7
100
AcDbLine
 10
18.0
 20
31.0
 30
0.0
 11
18.399999999999999
 21
31.0
 31
0.0
  0
LINE
  5
7C
100
AcDbEntity
  8
0
  6
CONTINUOUS
 62
               7
100
AcDbLine
 10
18.0
 20
31.0
 30
0.0
 11
19.0
 21
32.0
 31
0.0
  0
LINE
  5
7D
100
AcDbEntity
  8
0
  6
CONTINUOUS
 62
               7
100
AcDbLine
 10
18.0
 20
31.0
 30
0.0
 11
18.0
 21
22.0
 31
0.0
  0
LINE
  5
7E
100
AcDbEntity
  8
0
  6
CONTINUOUS
 62
               7
100
AcDbLine
 10
19.0
 20
32.0
 30
0.0
 11
57.0
 21
32.0
 31
0.0
  0
LINE
  5
7F
100
AcDbEntity
  8
0
  6
CONTINUOUS
 62
               7
100
AcDbLine
 10
9.8599999999999994
 20
-16.0
 30
0.0
 11
9.8599999999999994
 21
-16.699999999999999
 31
0.0
  0
LINE
  5
80
100
AcDbEntity
  8
0
  6
CONTINUOUS
 62
               7
100
AcDbLine
 10
3.0
 20
-16.699999999999999
 30
0.0
 11
9.8599999999999994
 21
-16.699999999999999
 31
0.0
  0
LINE
  5
81
100
AcDbEntity
  8
0
  6
CONTINUOUS
 62
               7
100
AcDbLine
 10
3.0
 20
-16.0
 30
0.0
 11
3.0
 21
-16.699999999999999
 31
0.0
  0
LINE
  5
82
100
AcDbEntity
  8
0
  6
CONTINUOUS
 62
               7
100
AcDbLine
 10
63.009999999999998
 20
-9.6300000000000008
 30
0.0
 11
61.630000000000003
 21
-10.0
 31
0.0
  0
LINE
  5
83
100
AcDbEntity
  8
0
  6
CONTINUOUS
 62
               7
100
AcDbLine
 10
70.469999999999999
 20
-9.6300000000000008
 30
0.0
 11
71.0
 21
-10.0
 31
0.0
  0
LINE
  5
84
100
AcDbEntity
  8
0
  6
CONTINUOUS
 62
               7
100
AcDbLine
 10
70.469999999999999
 20
9.6300000000000008
 30
0.0
 11
71.0
 21
10.0
 31
0.0
  0
LINE
  5
85
100
AcDbEntity
  8
0
  6
CONTINUOUS
 62
               7
100
AcDbLine
 10
63.009999999999998
 20
9.6300000000000008
 30
0.0
 11
61.630000000000003
 21
10.0
 31
0.0
  0
LINE
  5
86
100
AcDbEntity
  8
0
  6
CONTINUOUS
 62
               7
100
AcDbLine
 10
63.009999999999998
 20
-9.6300000000000008
 30
0.0
 11
70.469999999999999
 21
-9.6300000000000008
 31
0.0
  0
LINE
  5
87
100
AcDbEntity
  8
0
  6
CONTINUOUS
 62
               7
100
AcDbLine
 10
63.009999999999998
 20
9.6300000000000008
 30
0.0
 11
70.469999999999999
 21
9.6300000000000008
 31
0.0
  0
LINE
  5
88
100
AcDbEntity
  8
0
  6
CONTINUOUS
 62
               7
100
AcDbLine
 10
70.469999999999999
 20
9.6300000000000008
 30
0.0
 11
70.469999999999999
 21
-9.6300000000000008
 31
0.0
  0
LINE
  5
89
100
AcDbEntity
  8
0
  6
CONTINUOUS
 62
               7
100
AcDbLine
 10
71.0
 20
10.0
 30
0.0
 11
71.0
 21
-10.0
 31
0.0
  0
LINE
  5
8A
100
AcDbEntity
  8
0
  6
CONTINUOUS
 62
               7
100
AcDbLine
 10
61.630000000000003
 20
10.0
 30
0.0
 11
71.0
 21
10.0
 31
0.0
  0
LINE
  5
8B
100
AcDbEntity
  8
0
  6
CONTINUOUS
 62
               7
100
AcDbLine
 10
61.630000000000003
 20
-10.0
 30
0.0
 11
71.0
 21
-10.0
 31
0.0
  0
LINE
  5
8C
100
AcDbEntity
  8
0
  6
CONTINUOUS
 62
               7
100
AcDbLine
 10
5.5199999999999996
 20
9.6300000000000008
 30
0.0
 11
5.0
 21
10.0
 31
0.0
  0
LINE
  5
8D
100
AcDbEntity
  8
0
  6
CONTINUOUS
 62
               7
100
AcDbLine
 10
14.470000000000001
 20
9.6300000000000008
 30
0.0
 11
15.0
 21
10.0
 31
0.0
  0
LINE
  5
8E
100
AcDbEntity
  8
0
  6
CONTINUOUS
 62
               7
100
AcDbLine
 10
14.470000000000001
 20
-9.6300000000000008
 30
0.0
 11
15.0
 21
-10.0
 31
0.0
  0
LINE
  5
8F
100
AcDbEntity
  8
0
  6
CONTINUOUS
 62
               7
100
AcDbLine
 10
5.5199999999999996
 20
-9.6300000000000008
 30
0.0
 11
5.0
 21
-10.0
 31
0.0
  0
LINE
  5
90
100
AcDbEntity
  8
0
  6
CONTINUOUS
 62
               7
100
AcDbLine
 10
14.470000000000001
 20
9.6300000000000008
 30
0.0
 11
14.470000000000001
 21
-9.6300000000000008
 31
0.0
  0
LINE
  5
91
100
AcDbEntity
  8
0
  6
CONTINUOUS
 62
               7
100
AcDbLine
 10
5.5199999999999996
 20
9.6300000000000008
 30
0.0
 11
5.5199999999999996
 21
-9.6300000000000008
 31
0.0
  0
LINE
  5
92
100
AcDbEntity
  8
0
  6
CONTINUOUS
 62
               7
100
AcDbLine
 10
5.5199999999999996
 20
-9.6300000000000008
 30
0.0
 11
14.470000000000001
 21
-9.6300000000000008
 31
0.0
  0
LINE
  5
93
100
AcDbEntity
  8
0
  6
CONTINUOUS
 62
               7
100
AcDbLine
 10
5.5199999999999996
 20
9.6300000000000008
 30
0.0
 11
14.470000000000001
 21
9.6300000000000008
 31
0.0
  0
LINE
  5
94
100
AcDbEntity
  8
0
  6
CONTINUOUS
 62
               7
100
AcDbLine
 10
5.0
 20
-10.0
 30
0.0
 11
15.0
 21
-10.0
 31
0.0
  0
LINE
  5
95
100
AcDbEntity
  8
0
  6
CONTINUOUS
 62
               7
100
AcDbLine
 10
5.0
 20
10.0
 30
0.0
 11
15.0
 21
10.0
 31
0.0
  0
LINE
  5
96
100
AcDbEntity
  8
0
  6
CONTINUOUS
 62
               7
100
AcDbLine
 10
15.0
 20
10.0
 30
0.0
 11
15.0
 21
-10.0
 31
0.0
  0
LINE
  5
97
100
AcDbEntity
  8
0
  6
CONTINUOUS
 62
               7
100
AcDbLine
 10
5.0
 20
10.0
 30
0.0
 11
5.0
 21
-10.0
 31
0.0
  0
LINE
  5
98
100
AcDbEntity
  8
0
  6
CONTINUOUS
 62
               4
100
AcDbLine
 10
63.0
 20
-53.25
 30
0.0
 11
58.0
 21
-53.25
 31
0.0
  0
LINE
  5
99
100
AcDbEntity
  8
0
  6
CENTER
 62
             200
100
AcDbLine
 10
60.5
 20
-43.219999999999999
 30
0.0
 11
60.5
 21
-55.270000000000003
 31
0.0
  0
LINE
  5
9A
100
AcDbEntity
  8
0
  6
CONTINUOUS
 62
               4
100
AcDbLine
 10
63.0
 20
-44.75
 30
0.0
 11
58.0
 21
-44.75
 31
0.0
  0
LINE
  5
9B
100
AcDbEntity
  8
0
  6
CENTER
 62
             200
100
AcDbLine
 10
69.739999999999995
 20
-49.0
 30
0.0
 11
55.890000000000001
 21
-49.0
 31
0.0
  0
LINE
  5
9C
100
AcDbEntity
  8
0
  6
CONTINUOUS
 62
               4
100
AcDbLine
 10
13.0
 20
-53.25
 30
0.0
 11
18.0
 21
-53.25
 31
0.0
  0
LINE
  5
9D
100
AcDbEntity
  8
0
  6
CONTINUOUS
 62
               4
100
AcDbLine
 10
13.0
 20
-44.75
 30
0.0
 11
18.0
 21
-44.75
 31
0.0
  0
LINE
  5
9E
100
AcDbEntity
  8
0
  6
CENTER
 62
             200
100
AcDbLine
 10
15.5
 20
-43.219999999999999
 30
0.0
 11
15.5
 21
-55.270000000000003
 31
0.0
  0
LINE
  5
9F
100
AcDbEntity
  8
0
  6
CENTER
 62
             200
100
AcDbLine
 10
6.25
 20
-49.0
 30
0.0
 11
20.100000000000001
 21
-49.0
 31
0.0
  0
LINE
  5
A0
100
AcDbEntity
  8
0
  6
CONTINUOUS
 62
               7
100
AcDbLine
 10
70.0
 20
-59.0
 30
0.0
 11
73.0
 21
-56.0
 31
0.0
  0
LINE
  5
A1
100
AcDbEntity
  8
0
  6
CONTINUOUS
 62
               4
100
AcDbLine
 10
3.0
 20
-56.0
 30
0.0
 11
6.0
 21
-59.0
 31
0.0
  0
LINE
  5
A2
100
AcDbEntity
  8
0
  6
CONTINUOUS
 62
               7
100
AcDbLine
 10
59.240000000000002
 20
-59.0
 30
0.0
 11
70.0
 21
-59.0
 31
0.0
  0
LINE
  5
A3
100
AcDbEntity
  8
0
  6
CONTINUOUS
 62
               4
100
AcDbLine
 10
6.0
 20
-59.0
 30
0.0
 11
16.75
 21
-59.0
 31
0.0
  0
LINE
  5
A4
100
AcDbEntity
  8
0
  6
CONTINUOUS
 62
               7
100
AcDbLine
 10
66.5
 20
-32.200000000000003
 30
0.0
 11
73.0
 21
-32.200000000000003
 31
0.0
  0
LINE
  5
A5
100
AcDbEntity
  8
0
  6
CONTINUOUS
 62
               7
100
AcDbLine
 10
65.0
 20
-29.0
 30
0.0
 11
73.0
 21
-29.0
 31
0.0
  0
LINE
  5
A6
100
AcDbEntity
  8
0
  6
CONTINUOUS
 62
               7
100
AcDbLine
 10
11.0
 20
-29.0
 30
0.0
 11
65.0
 21
-29.0
 31
0.0
  0
LINE
  5
A7
100
AcDbEntity
  8
0
  6
CONTINUOUS
 62
               7
100
AcDbLine
 10
9.5
 20
-32.200000000000003
 30
0.0
 11
66.5
 21
-32.200000000000003
 31
0.0
  0
LINE
  5
A8
100
AcDbEntity
  8
0
  6
CONTINUOUS
 62
               7
100
AcDbLine
 10
16.739999999999998
 20
-58.700000000000003
 30
0.0
 11
59.25
 21
-58.700000000000003
 31
0.0
  0
LINE
  5
A9
100
AcDbEntity
  8
0
  6
CONTINUOUS
 62
               7
100
AcDbLine
 10
53.060000000000002
 20
-58.200000000000003
 30
0.0
 11
53.619999999999997
 21
-42.200000000000003
 31
0.0
  0
LINE
  5
AA
100
AcDbEntity
  8
0
  6
CONTINUOUS
 62
               7
100
AcDbLine
 10
42.609999999999999
 20
-58.200000000000003
 30
0.0
 11
43.170000000000002
 21
-42.200000000000003
 31
0.0
  0
LINE
  5
AB
100
AcDbEntity
  8
0
  6
CONTINUOUS
 62
               7
100
AcDbLine
 10
32.82
 20
-42.200000000000003
 30
0.0
 11
33.380000000000003
 21
-58.200000000000003
 31
0.0
  0
LINE
  5
AC
100
AcDbEntity
  8
0
  6
CONTINUOUS
 62
               7
100
AcDbLine
 10
22.370000000000001
 20
-42.200000000000003
 30
0.0
 11
22.93
 21
-58.200000000000003
 31
0.0
  0
LINE
  5
AD
100
AcDbEntity
  8
0
  6
CONTINUOUS
 62
               7
100
AcDbLine
 10
56.57
 20
-58.200000000000003
 30
0.0
 11
57.130000000000003
 21
-42.200000000000003
 31
0.0
  0
LINE
  5
AE
100
AcDbEntity
  8
0
  6
CONTINUOUS
 62
               7
100
AcDbLine
 10
18.870000000000001
 20
-42.200000000000003
 30
0.0
 11
19.420000000000002
 21
-58.200000000000003
 31
0.0
  0
LINE
  5
AF
100
AcDbEntity
  8
0
  6
CONTINUOUS
 62
               7
100
AcDbLine
 10
49.170000000000002
 20
-62.200000000000003
 30
0.0
 11
47.93
 21
-62.850000000000001
 31
0.0
  0
LINE
  5
B0
100
AcDbEntity
  8
0
  6
CONTINUOUS
 62
               7
100
AcDbLine
 10
57.289999999999999
 20
-62.850000000000001
 30
0.0
 11
58.68
 21
-62.200000000000003
 31
0.0
  0
LINE
  5
B1
100
AcDbEntity
  8
0
  6
CONTINUOUS
 62
               7
100
AcDbLine
 10
57.850000000000001
 20
-87.510000000000005
 30
0.0
 11
58.68
 21
-62.200000000000003
 31
0.0
  0
LINE
  5
B2
100
AcDbEntity
  8
0
  6
CONTINUOUS
 62
               7
100
AcDbLine
 10
56.490000000000002
 20
-88.200000000000003
 30
0.0
 11
57.289999999999999
 21
-62.850000000000001
 31
0.0
  0
LINE
  5
B3
100
AcDbEntity
  8
0
  6
CONTINUOUS
 62
               7
100
AcDbLine
 10
56.490000000000002
 20
-88.200000000000003
 30
0.0
 11
57.07
 21
-88.200000000000003
 31
0.0
  0
LINE
  5
B4
100
AcDbEntity
  8
0
  6
CONTINUOUS
 62
               7
100
AcDbLine
 10
57.850000000000001
 20
-87.510000000000005
 30
0.0
 11
56.490000000000002
 21
-88.200000000000003
 31
0.0
  0
LINE
  5
B5
100
AcDbEntity
  8
0
  6
CONTINUOUS
 62
               7
100
AcDbLine
 10
58.25
 20
-87.510000000000005
 30
0.0
 11
57.850000000000001
 21
-87.510000000000005
 31
0.0
  0
LINE
  5
B6
100
AcDbEntity
  8
0
  6
CONTINUOUS
 62
               7
100
AcDbLine
 10
54.859999999999999
 20
-87.510000000000005
 30
0.0
 11
56.07
 21
-62.200000000000003
 31
0.0
  0
LINE
  5
B7
100
AcDbEntity
  8
0
  6
CONTINUOUS
 62
               7
100
AcDbLine
 10
54.159999999999997
 20
-88.200000000000003
 30
0.0
 11
54.859999999999999
 21
-87.510000000000005
 31
0.0
  0
LINE
  5
B8
100
AcDbEntity
  8
0
  6
CONTINUOUS
 62
               7
100
AcDbLine
 10
54.159999999999997
 20
-88.200000000000003
 30
0.0
 11
47.990000000000002
 21
-88.200000000000003
 31
0.0
  0
LINE
  5
B9
100
AcDbEntity
  8
0
  6
CONTINUOUS
 62
               7
100
AcDbLine
 10
54.859999999999999
 20
-87.510000000000005
 30
0.0
 11
49.200000000000003
 21
-87.510000000000005
 31
0.0
  0
LINE
  5
BA
100
AcDbEntity
  8
0
  6
CONTINUOUS
 62
               7
100
AcDbLine
 10
49.170000000000002
 20
-62.200000000000003
 30
0.0
 11
42.880000000000003
 21
-62.200000000000003
 31
0.0
  0
LINE
  5
BB
100
AcDbEntity
  8
0
  6
CONTINUOUS
 62
               7
100
AcDbLine
 10
47.93
 20
-62.850000000000001
 30
0.0
 11
43.240000000000002
 21
-62.850000000000001
 31
0.0
  0
LINE
  5
BC
100
AcDbEntity
  8
0
  6
CONTINUOUS
 62
               7
100
AcDbLine
 10
49.200000000000003
 20
-87.510000000000005
 30
0.0
 11
49.170000000000002
 21
-62.200000000000003
 31
0.0
  0
LINE
  5
BD
100
AcDbEntity
  8
0
  6
CONTINUOUS
 62
               7
100
AcDbLine
 10
47.990000000000002
 20
-88.200000000000003
 30
0.0
 11
47.93
 21
-62.850000000000001
 31
0.0
  0
LINE
  5
BE
100
AcDbEntity
  8
0
  6
CONTINUOUS
 62
               7
100
AcDbLine
 10
49.200000000000003
 20
-87.510000000000005
 30
0.0
 11
47.990000000000002
 21
-88.200000000000003
 31
0.0
  0
LINE
  5
BF
100
AcDbEntity
  8
0
  6
CONTINUOUS
 62
               7
100
AcDbLine
 10
57.289999999999999
 20
-62.850000000000001
 30
0.0
 11
56.039999999999999
 21
-62.850000000000001
 31
0.0
  0
LINE
  5
C0
100
AcDbEntity
  8
0
  6
CONTINUOUS
 62
               7
100
AcDbLine
 10
59.25
 20
-58.700000000000003
 30
0.0
 11
58.25
 21
-87.510000000000005
 31
0.0
  0
LINE
  5
C1
100
AcDbEntity
  8
0
  6
CONTINUOUS
 62
               7
100
AcDbLine
 10
58.25
 20
-87.510000000000005
 30
0.0
 11
57.07
 21
-88.200000000000003
 31
0.0
  0
LINE
  5
C2
100
AcDbEntity
  8
0
  6
CONTINUOUS
 62
               7
100
AcDbLine
 10
58.68
 20
-62.200000000000003
 30
0.0
 11
56.07
 21
-62.200000000000003
 31
0.0
  0
LINE
  5
C3
100
AcDbEntity
  8
0
  6
CONTINUOUS
 62
               7
100
AcDbLine
 10
57.07
 20
-88.200000000000003
 30
0.0
 11
57.030000000000001
 21
-89.230000000000004
 31
0.0
  0
LINE
  5
C4
100
AcDbEntity
  8
0
  6
CONTINUOUS
 62
               7
100
AcDbLine
 10
42.880000000000003
 20
-62.200000000000003
 30
0.0
 11
43.240000000000002
 21
-62.850000000000001
 31
0.0
  0
LINE
  5
C5
100
AcDbEntity
  8
0
  6
CONTINUOUS
 62
               7
100
AcDbLine
 10
32.75
 20
-62.850000000000001
 30
0.0
 11
33.109999999999999
 21
-62.200000000000003
 31
0.0
  0
LINE
  5
C6
100
AcDbEntity
  8
0
  6
CONTINUOUS
 62
               7
100
AcDbLine
 10
26.829999999999998
 20
-62.200000000000003
 30
0.0
 11
28.059999999999999
 21
-62.850000000000001
 31
0.0
  0
LINE
  5
C7
100
AcDbEntity
  8
0
  6
CONTINUOUS
 62
               7
100
AcDbLine
 10
18.699999999999999
 20
-62.850000000000001
 30
0.0
 11
17.309999999999999
 21
-62.200000000000003
 31
0.0
  0
LINE
  5
C8
100
AcDbEntity
  8
0
  6
CONTINUOUS
 62
               7
100
AcDbLine
 10
18.140000000000001
 20
-87.510000000000005
 30
0.0
 11
17.309999999999999
 21
-62.200000000000003
 31
0.0
  0
LINE
  5
C9
100
AcDbEntity
  8
0
  6
CONTINUOUS
 62
               7
100
AcDbLine
 10
19.5
 20
-88.200000000000003
 30
0.0
 11
18.699999999999999
 21
-62.850000000000001
 31
0.0
  0
LINE
  5
CA
100
AcDbEntity
  8
0
  6
CONTINUOUS
 62
               7
100
AcDbLine
 10
19.5
 20
-88.200000000000003
 30
0.0
 11
18.93
 21
-88.200000000000003
 31
0.0
  0
LINE
  5
CB
100
AcDbEntity
  8
0
  6
CONTINUOUS
 62
               7
100
AcDbLine
 10
18.140000000000001
 20
-87.510000000000005
 30
0.0
 11
19.5
 21
-88.200000000000003
 31
0.0
  0
LINE
  5
CC
100
AcDbEntity
  8
0
  6
CONTINUOUS
 62
               7
100
AcDbLine
 10
17.75
 20
-87.510000000000005
 30
0.0
 11
18.140000000000001
 21
-87.510000000000005
 31
0.0
  0
LINE
  5
CD
100
AcDbEntity
  8
0
  6
CONTINUOUS
 62
               7
100
AcDbLine
 10
21.129999999999999
 20
-87.510000000000005
 30
0.0
 11
19.920000000000002
 21
-62.200000000000003
 31
0.0
  0
LINE
  5
CE
100
AcDbEntity
  8
0
  6
CONTINUOUS
 62
               7
100
AcDbLine
 10
21.829999999999998
 20
-88.200000000000003
 30
0.0
 11
21.129999999999999
 21
-87.510000000000005
 31
0.0
  0
LINE
  5
CF
100
AcDbEntity
  8
0
  6
CONTINUOUS
 62
               7
100
AcDbLine
 10
21.829999999999998
 20
-88.200000000000003
 30
0.0
 11
28.010000000000002
 21
-88.200000000000003
 31
0.0
  0
LINE
  5
D0
100
AcDbEntity
  8
0
  6
CONTINUOUS
 62
               7
100
AcDbLine
 10
21.129999999999999
 20
-87.510000000000005
 30
0.0
 11
26.789999999999999
 21
-87.510000000000005
 31
0.0
  0
LINE
  5
D1
100
AcDbEntity
  8
0
  6
CONTINUOUS
 62
               7
100
AcDbLine
 10
26.829999999999998
 20
-62.200000000000003
 30
0.0
 11
33.109999999999999
 21
-62.200000000000003
 31
0.0
  0
LINE
  5
D2
100
AcDbEntity
  8
0
  6
CONTINUOUS
 62
               7
100
AcDbLine
 10
28.059999999999999
 20
-62.850000000000001
 30
0.0
 11
32.75
 21
-62.850000000000001
 31
0.0
  0
LINE
  5
D3
100
AcDbEntity
  8
0
  6
CONTINUOUS
 62
               7
100
AcDbLine
 10
26.789999999999999
 20
-87.510000000000005
 30
0.0
 11
26.829999999999998
 21
-62.200000000000003
 31
0.0
  0
LINE
  5
D4
100
AcDbEntity
  8
0
  6
CONTINUOUS
 62
               7
100
AcDbLine
 10
28.010000000000002
 20
-88.200000000000003
 30
0.0
 11
28.059999999999999
 21
-62.850000000000001
 31
0.0
  0
LINE
  5
D5
100
AcDbEntity
  8
0
  6
CONTINUOUS
 62
               7
100
AcDbLine
 10
26.789999999999999
 20
-87.510000000000005
 30
0.0
 11
28.010000000000002
 21
-88.200000000000003
 31
0.0
  0
LINE
  5
D6
100
AcDbEntity
  8
0
  6
CONTINUOUS
 62
               7
100
AcDbLine
 10
18.699999999999999
 20
-62.850000000000001
 30
0.0
 11
19.949999999999999
 21
-62.850000000000001
 31
0.0
  0
LINE
  5
D7
100
AcDbEntity
  8
0
  6
CONTINUOUS
 62
               7
100
AcDbLine
 10
42.359999999999999
 20
-88.200000000000003
 30
0.0
 11
43.240000000000002
 21
-62.850000000000001
 31
0.0
  0
LINE
  5
D8
100
AcDbEntity
  8
0
  6
CONTINUOUS
 62
               7
100
AcDbLine
 10
32.75
 20
-62.850000000000001
 30
0.0
 11
33.630000000000003
 21
-88.200000000000003
 31
0.0
  0
LINE
  5
D9
100
AcDbEntity
  8
0
  6
CONTINUOUS
 62
               7
100
AcDbLine
 10
42.0
 20
-87.510000000000005
 30
0.0
 11
42.880000000000003
 21
-62.200000000000003
 31
0.0
  0
LINE
  5
DA
100
AcDbEntity
  8
0
  6
CONTINUOUS
 62
               7
100
AcDbLine
 10
33.109999999999999
 20
-62.200000000000003
 30
0.0
 11
34.0
 21
-87.510000000000005
 31
0.0
  0
LINE
  5
DB
100
AcDbEntity
  8
0
  6
CONTINUOUS
 62
               7
100
AcDbLine
 10
34.0
 20
-87.510000000000005
 30
0.0
 11
42.0
 21
-87.510000000000005
 31
0.0
  0
LINE
  5
DC
100
AcDbEntity
  8
0
  6
CONTINUOUS
 62
               7
100
AcDbLine
 10
58.770000000000003
 20
-58.200000000000003
 30
0.0
 11
59.25
 21
-58.68
 31
0.0
  0
LINE
  5
DD
100
AcDbEntity
  8
0
  6
CONTINUOUS
 62
               7
100
AcDbLine
 10
16.739999999999998
 20
-58.700000000000003
 30
0.0
 11
17.210000000000001
 21
-58.200000000000003
 31
0.0
  0
LINE
  5
DE
100
AcDbEntity
  8
0
  6
CONTINUOUS
 62
               7
100
AcDbLine
 10
16.739999999999998
 20
-58.700000000000003
 30
0.0
 11
17.75
 21
-87.510000000000005
 31
0.0
  0
LINE
  5
DF
100
AcDbEntity
  8
0
  6
CONTINUOUS
 62
               7
100
AcDbLine
 10
17.75
 20
-87.510000000000005
 30
0.0
 11
18.93
 21
-88.200000000000003
 31
0.0
  0
LINE
  5
E0
100
AcDbEntity
  8
0
  6
CONTINUOUS
 62
               7
100
AcDbLine
 10
17.309999999999999
 20
-62.200000000000003
 30
0.0
 11
19.920000000000002
 21
-62.200000000000003
 31
0.0
  0
LINE
  5
E1
100
AcDbEntity
  8
0
  6
CONTINUOUS
 62
               7
100
AcDbLine
 10
33.630000000000003
 20
-88.200000000000003
 30
0.0
 11
42.359999999999999
 21
-88.200000000000003
 31
0.0
  0
LINE
  5
E2
100
AcDbEntity
  8
0
  6
CONTINUOUS
 62
               7
100
AcDbLine
 10
17.210000000000001
 20
-58.200000000000003
 30
0.0
 11
58.770000000000003
 21
-58.200000000000003
 31
0.0
  0
LINE
  5
E3
100
AcDbEntity
  8
0
  6
CONTINUOUS
 62
               7
100
AcDbLine
 10
18.93
 20
-88.200000000000003
 30
0.0
 11
18.960000000000001
 21
-89.230000000000004
 31
0.0
  0
LINE
  5
E4
100
AcDbEntity
  8
0
  6
CONTINUOUS
 62
               7
100
AcDbLine
 10
19.960000000000001
 20
-90.200000000000003
 30
0.0
 11
56.030000000000001
 21
-90.200000000000003
 31
0.0
  0
LINE
  5
E5
100
AcDbEntity
  8
0
  6
CONTINUOUS
 62
               7
100
AcDbLine
 10
66.280000000000001
 20
-34.200000000000003
 30
0.0
 11
65.230000000000004
 21
-35.200000000000003
 31
0.0
  0
LINE
  5
E6
100
AcDbEntity
  8
0
  6
CONTINUOUS
 62
               7
100
AcDbLine
 10
66.280000000000001
 20
-41.200000000000003
 30
0.0
 11
65.230000000000004
 21
-42.200000000000003
 31
0.0
  0
LINE
  5
E7
100
AcDbEntity
  8
0
  6
CONTINUOUS
 62
               7
100
AcDbLine
 10
66.5
 20
-41.200000000000003
 30
0.0
 11
66.280000000000001
 21
-41.200000000000003
 31
0.0
  0
LINE
  5
E8
100
AcDbEntity
  8
0
  6
CONTINUOUS
 62
               7
100
AcDbLine
 10
65.230000000000004
 20
-35.200000000000003
 30
0.0
 11
64.239999999999995
 21
-35.200000000000003
 31
0.0
  0
LINE
  5
E9
100
AcDbEntity
  8
0
  6
CONTINUOUS
 62
               7
100
AcDbLine
 10
66.280000000000001
 20
-34.200000000000003
 30
0.0
 11
66.280000000000001
 21
-41.200000000000003
 31
0.0
  0
LINE
  5
EA
100
AcDbEntity
  8
0
  6
CONTINUOUS
 62
               7
100
AcDbLine
 10
65.230000000000004
 20
-35.200000000000003
 30
0.0
 11
65.230000000000004
 21
-42.200000000000003
 31
0.0
  0
LINE
  5
EB
100
AcDbEntity
  8
0
  6
CONTINUOUS
 62
               7
100
AcDbLine
 10
60.740000000000002
 20
-34.200000000000003
 30
0.0
 11
55.170000000000002
 21
-34.200000000000003
 31
0.0
  0
LINE
  5
EC
100
AcDbEntity
  8
0
  6
CONTINUOUS
 62
               7
100
AcDbLine
 10
63.479999999999997
 20
-42.200000000000003
 30
0.0
 11
64.239999999999995
 21
-41.200000000000003
 31
0.0
  0
LINE
  5
ED
100
AcDbEntity
  8
0
  6
CONTINUOUS
 62
               7
100
AcDbLine
 10
64.239999999999995
 20
-34.200000000000003
 30
0.0
 11
64.239999999999995
 21
-41.200000000000003
 31
0.0
  0
LINE
  5
EE
100
AcDbEntity
  8
0
  6
CONTINUOUS
 62
               7
100
AcDbLine
 10
60.740000000000002
 20
-34.200000000000003
 30
0.0
 11
59.700000000000003
 21
-35.200000000000003
 31
0.0
  0
LINE
  5
EF
100
AcDbEntity
  8
0
  6
CONTINUOUS
 62
               7
100
AcDbLine
 10
55.170000000000002
 20
-41.200000000000003
 30
0.0
 11
48.479999999999997
 21
-41.200000000000003
 31
0.0
  0
LINE
  5
F0
100
AcDbEntity
  8
0
  6
CONTINUOUS
 62
               7
100
AcDbLine
 10
60.740000000000002
 20
-41.200000000000003
 30
0.0
 11
59.700000000000003
 21
-42.200000000000003
 31
0.0
  0
LINE
  5
F1
100
AcDbEntity
  8
0
  6
CONTINUOUS
 62
               7
100
AcDbLine
 10
60.740000000000002
 20
-34.200000000000003
 30
0.0
 11
60.740000000000002
 21
-41.200000000000003
 31
0.0
  0
LINE
  5
F2
100
AcDbEntity
  8
0
  6
CONTINUOUS
 62
               7
100
AcDbLine
 10
59.700000000000003
 20
-35.200000000000003
 30
0.0
 11
59.700000000000003
 21
-42.200000000000003
 31
0.0
  0
LINE
  5
F3
100
AcDbEntity
  8
0
  6
CONTINUOUS
 62
               7
100
AcDbLine
 10
55.170000000000002
 20
-41.200000000000003
 30
0.0
 11
54.890000000000001
 21
-42.200000000000003
 31
0.0
  0
LINE
  5
F4
100
AcDbEntity
  8
0
  6
CONTINUOUS
 62
               7
100
AcDbLine
 10
55.170000000000002
 20
-34.200000000000003
 30
0.0
 11
55.170000000000002
 21
-41.200000000000003
 31
0.0
  0
LINE
  5
F5
100
AcDbEntity
  8
0
  6
CONTINUOUS
 62
               7
100
AcDbLine
 10
66.280000000000001
 20
-34.200000000000003
 30
0.0
 11
64.239999999999995
 21
-34.200000000000003
 31
0.0
  0
LINE
  5
F6
100
AcDbEntity
  8
0
  6
CONTINUOUS
 62
               7
100
AcDbLine
 10
59.700000000000003
 20
-35.200000000000003
 30
0.0
 11
55.170000000000002
 21
-35.200000000000003
 31
0.0
  0
LINE
  5
F7
100
AcDbEntity
  8
0
  6
CONTINUOUS
 62
               7
100
AcDbLine
 10
64.239999999999995
 20
-41.200000000000003
 30
0.0
 11
60.740000000000002
 21
-41.200000000000003
 31
0.0
  0
LINE
  5
F8
100
AcDbEntity
  8
0
  6
CONTINUOUS
 62
               7
100
AcDbLine
 10
48.479999999999997
 20
-32.200000000000003
 30
0.0
 11
48.479999999999997
 21
-41.200000000000003
 31
0.0
  0
LINE
  5
F9
100
AcDbEntity
  8
0
  6
CONTINUOUS
 62
               7
100
AcDbLine
 10
66.5
 20
-41.200000000000003
 30
0.0
 11
65.5
 21
-42.200000000000003
 31
0.0
  0
LINE
  5
FA
100
AcDbEntity
  8
0
  6
CONTINUOUS
 62
               7
100
AcDbLine
 10
66.5
 20
-32.200000000000003
 30
0.0
 11
66.5
 21
-41.200000000000003
 31
0.0
  0
LINE
  5
FB
100
AcDbEntity
  8
0
  6
CONTINUOUS
 62
               7
100
AcDbLine
 10
9.7100000000000009
 20
-34.200000000000003
 30
0.0
 11
10.76
 21
-35.200000000000003
 31
0.0
  0
LINE
  5
FC
100
AcDbEntity
  8
0
  6
CONTINUOUS
 62
               7
100
AcDbLine
 10
9.7100000000000009
 20
-41.200000000000003
 30
0.0
 11
10.76
 21
-42.200000000000003
 31
0.0
  0
LINE
  5
FD
100
AcDbEntity
  8
0
  6
CONTINUOUS
 62
               7
100
AcDbLine
 10
9.5
 20
-41.200000000000003
 30
0.0
 11
9.7100000000000009
 21
-41.200000000000003
 31
0.0
  0
LINE
  5
FE
100
AcDbEntity
  8
0
  6
CONTINUOUS
 62
               7
100
AcDbLine
 10
10.76
 20
-35.200000000000003
 30
0.0
 11
11.75
 21
-35.200000000000003
 31
0.0
  0
LINE
  5
FF
100
AcDbEntity
  8
0
  6
CONTINUOUS
 62
               7
100
AcDbLine
 10
9.7100000000000009
 20
-34.200000000000003
 30
0.0
 11
9.7100000000000009
 21
-41.200000000000003
 31
0.0
  0
LINE
  5
100
100
AcDbEntity
  8
0
  6
CONTINUOUS
 62
               7
100
AcDbLine
 10
10.76
 20
-35.200000000000003
 30
0.0
 11
10.76
 21
-42.200000000000003
 31
0.0
  0
LINE
  5
101
100
AcDbEntity
  8
0
  6
CONTINUOUS
 62
               7
100
AcDbLine
 10
15.25
 20
-34.200000000000003
 30
0.0
 11
20.82
 21
-34.200000000000003
 31
0.0
  0
LINE
  5
102
100
AcDbEntity
  8
0
  6
CONTINUOUS
 62
               7
100
AcDbLine
 10
12.52
 20
-42.200000000000003
 30
0.0
 11
11.75
 21
-41.200000000000003
 31
0.0
  0
LINE
  5
103
100
AcDbEntity
  8
0
  6
CONTINUOUS
 62
               7
100
AcDbLine
 10
11.75
 20
-34.200000000000003
 30
0.0
 11
11.75
 21
-41.200000000000003
 31
0.0
  0
LINE
  5
104
100
AcDbEntity
  8
0
  6
CONTINUOUS
 62
               7
100
AcDbLine
 10
15.25
 20
-34.200000000000003
 30
0.0
 11
16.300000000000001
 21
-35.200000000000003
 31
0.0
  0
LINE
  5
105
100
AcDbEntity
  8
0
  6
CONTINUOUS
 62
               7
100
AcDbLine
 10
20.82
 20
-41.200000000000003
 30
0.0
 11
27.510000000000002
 21
-41.200000000000003
 31
0.0
  0
LINE
  5
106
100
AcDbEntity
  8
0
  6
CONTINUOUS
 62
               7
100
AcDbLine
 10
15.25
 20
-41.200000000000003
 30
0.0
 11
16.300000000000001
 21
-42.200000000000003
 31
0.0
  0
LINE
  5
107
100
AcDbEntity
  8
0
  6
CONTINUOUS
 62
               7
100
AcDbLine
 10
15.25
 20
-34.200000000000003
 30
0.0
 11
15.25
 21
-41.200000000000003
 31
0.0
  0
LINE
  5
108
100
AcDbEntity
  8
0
  6
CONTINUOUS
 62
               7
100
AcDbLine
 10
16.300000000000001
 20
-35.200000000000003
 30
0.0
 11
16.300000000000001
 21
-42.200000000000003
 31
0.0
  0
LINE
  5
109
100
AcDbEntity
  8
0
  6
CONTINUOUS
 62
               7
100
AcDbLine
 10
20.82
 20
-41.200000000000003
 30
0.0
 11
21.100000000000001
 21
-42.200000000000003
 31
0.0
  0
LINE
  5
10A
100
AcDbEntity
  8
0
  6
CONTINUOUS
 62
               7
100
AcDbLine
 10
20.82
 20
-34.200000000000003
 30
0.0
 11
20.82
 21
-41.200000000000003
 31
0.0
  0
LINE
  5
10B
100
AcDbEntity
  8
0
  6
CONTINUOUS
 62
               7
100
AcDbLine
 10
9.7100000000000009
 20
-34.200000000000003
 30
0.0
 11
11.75
 21
-34.200000000000003
 31
0.0
  0
LINE
  5
10C
100
AcDbEntity
  8
0
  6
CONTINUOUS
 62
               7
100
AcDbLine
 10
16.300000000000001
 20
-35.200000000000003
 30
0.0
 11
20.82
 21
-35.200000000000003
 31
0.0
  0
LINE
  5
10D
100
AcDbEntity
  8
0
  6
CONTINUOUS
 62
               7
100
AcDbLine
 10
11.75
 20
-41.200000000000003
 30
0.0
 11
15.25
 21
-41.200000000000003
 31
0.0
  0
LINE
  5
10E
100
AcDbEntity
  8
0
  6
CONTINUOUS
 62
               7
100
AcDbLine
 10
27.510000000000002
 20
-32.200000000000003
 30
0.0
 11
27.510000000000002
 21
-41.200000000000003
 31
0.0
  0
LINE
  5
10F
100
AcDbEntity
  8
0
  6
CONTINUOUS
 62
               7
100
AcDbLine
 10
9.5
 20
-41.200000000000003
 30
0.0
 11
10.5
 21
-42.200000000000003
 31
0.0
  0
LINE
  5
110
100
AcDbEntity
  8
0
  6
CONTINUOUS
 62
               7
100
AcDbLine
 10
9.5
 20
-32.200000000000003
 30
0.0
 11
9.5
 21
-41.200000000000003
 31
0.0
  0
LINE
  5
111
100
AcDbEntity
  8
0
  6
CONTINUOUS
 62
               7
100
AcDbLine
 10
10.5
 20
-42.200000000000003
 30
0.0
 11
65.5
 21
-42.200000000000003
 31
0.0
  0
LINE
  5
112
100
AcDbEntity
  8
0
  6
CONTINUOUS
 62
               7
100
AcDbLine
 10
73.0
 20
-29.0
 30
0.0
 11
73.0
 21
-56.0
 31
0.0
  0
LINE
  5
113
100
AcDbEntity
  8
0
  6
CONTINUOUS
 62
               4
100
AcDbLine
 10
3.0
 20
-29.0
 30
0.0
 11
3.0
 21
-56.0
 31
0.0
  0
LINE
  5
114
100
AcDbEntity
  8
0
  6
CONTINUOUS
 62
               4
100
AcDbLine
 10
3.0
 20
-32.200000000000003
 30
0.0
 11
9.5
 21
-32.200000000000003
 31
0.0
  0
LINE
  5
115
100
AcDbEntity
  8
0
  6
CONTINUOUS
 62
               7
100
AcDbLine
 10
57.590000000000003
 20
-16.0
 30
0.0
 11
75.0
 21
-16.0
 31
0.0
  0
LINE
  5
116
100
AcDbEntity
  8
0
  6
CONTINUOUS
 62
               7
100
AcDbLine
 10
57.590000000000003
 20
-15.0
 30
0.0
 11
76.0
 21
-15.0
 31
0.0
  0
LINE
  5
117
100
AcDbEntity
  8
0
  6
CONTINUOUS
 62
               7
100
AcDbLine
 10
10.0
 20
-28.0
 30
0.0
 11
66.0
 21
-28.0
 31
0.0
  0
LINE
  5
118
100
AcDbEntity
  8
0
  6
CONTINUOUS
 62
               7
100
AcDbLine
 10
18.399999999999999
 20
-12.0
 30
0.0
 11
57.590000000000003
 21
-12.0
 31
0.0
  0
LINE
  5
119
100
AcDbEntity
  8
0
  6
CONTINUOUS
 62
               7
100
AcDbLine
 10
56.590000000000003
 20
-11.0
 30
0.0
 11
57.590000000000003
 21
-12.0
 31
0.0
  0
LINE
  5
11A
100
AcDbEntity
  8
0
  6
CONTINUOUS
 62
               7
100
AcDbLine
 10
18.399999999999999
 20
-12.0
 30
0.0
 11
19.399999999999999
 21
-11.0
 31
0.0
  0
LINE
  5
11B
100
AcDbEntity
  8
0
  6
CONTINUOUS
 62
               7
100
AcDbLine
 10
57.590000000000003
 20
-12.0
 30
0.0
 11
57.590000000000003
 21
-16.0
 31
0.0
  0
LINE
  5
11C
100
AcDbEntity
  8
0
  6
CONTINUOUS
 62
               7
100
AcDbLine
 10
18.399999999999999
 20
-12.0
 30
0.0
 11
18.399999999999999
 21
-16.0
 31
0.0
  0
LINE
  5
11D
100
AcDbEntity
  8
0
  6
CONTINUOUS
 62
               7
100
AcDbLine
 10
65.0
 20
-29.0
 30
0.0
 11
66.0
 21
-28.0
 31
0.0
  0
LINE
  5
11E
100
AcDbEntity
  8
0
  6
CONTINUOUS
 62
               7
100
AcDbLine
 10
10.0
 20
-28.0
 30
0.0
 11
11.0
 21
-29.0
 31
0.0
  0
LINE
  5
11F
100
AcDbEntity
  8
0
  6
CONTINUOUS
 62
               7
100
AcDbLine
 10
66.0
 20
-16.0
 30
0.0
 11
66.0
 21
-28.0
 31
0.0
  0
LINE
  5
120
100
AcDbEntity
  8
0
  6
CONTINUOUS
 62
               7
100
AcDbLine
 10
10.0
 20
-16.0
 30
0.0
 11
10.0
 21
-28.0
 31
0.0
  0
LINE
  5
121
100
AcDbEntity
  8
0
  6
CONTINUOUS
 62
               4
100
AcDbLine
 10
3.0
 20
-29.0
 30
0.0
 11
11.0
 21
-29.0
 31
0.0
  0
LINE
  5
122
100
AcDbEntity
  8
0
  6
CONTINUOUS
 62
               7
100
AcDbLine
 10
19.399999999999999
 20
-11.0
 30
0.0
 11
56.590000000000003
 21
-11.0
 31
0.0
  0
LINE
  5
123
100
AcDbEntity
  8
0
  6
CONTINUOUS
 62
               7
100
AcDbLine
 10
18.25
 20
22.0
 30
0.0
 11
18.25
 21
16.0
 31
0.0
  0
LINE
  5
124
100
AcDbEntity
  8
0
  6
CONTINUOUS
 62
               7
100
AcDbLine
 10
57.75
 20
22.0
 30
0.0
 11
57.75
 21
16.0
 31
0.0
  0
LINE
  5
125
100
AcDbEntity
  8
0
  6
CONTINUOUS
 62
               7
100
AcDbLine
 10
18.0
 20
22.0
 30
0.0
 11
58.0
 21
22.0
 31
0.0
  0
LINE
  5
126
100
AcDbEntity
  8
0
  6
CONTINUOUS
 62
               7
100
AcDbLine
 10
0.0
 20
-15.0
 30
0.0
 11
18.399999999999999
 21
-15.0
 31
0.0
  0
LINE
  5
127
100
AcDbEntity
  8
0
  6
CONTINUOUS
 62
               7
100
AcDbLine
 10
0.0
 20
15.0
 30
0.0
 11
76.0
 21
15.0
 31
0.0
  0
LINE
  5
128
100
AcDbEntity
  8
0
  6
CONTINUOUS
 62
               7
100
AcDbLine
 10
75.0
 20
16.0
 30
0.0
 11
75.0
 21
-16.0
 31
0.0
  0
LINE
  5
129
100
AcDbEntity
  8
0
  6
CONTINUOUS
 62
               7
100
AcDbLine
 10
1.0
 20
16.0
 30
0.0
 11
1.0
 21
-16.0
 31
0.0
  0
LINE
  5
12A
100
AcDbEntity
  8
0
  6
CONTINUOUS
 62
               7
100
AcDbLine
 10
13.24
 20
16.699999999999999
 30
0.0
 11
13.24
 21
16.0
 31
0.0
  0
LINE
  5
12B
100
AcDbEntity
  8
0
  6
CONTINUOUS
 62
               7
100
AcDbLine
 10
5.0
 20
16.699999999999999
 30
0.0
 11
5.0
 21
16.0
 31
0.0
  0
LINE
  5
12C
100
AcDbEntity
  8
0
  6
CONTINUOUS
 62
               7
100
AcDbLine
 10
5.0
 20
16.699999999999999
 30
0.0
 11
13.24
 21
16.699999999999999
 31
0.0
  0
LINE
  5
12D
100
AcDbEntity
  8
0
  6
CENTER
 62
               2
100
AcDbLine
 10
55.0
 20
30.329999999999998
 30
0.0
 11
55.0
 21
-31.0
 31
0.0
  0
LINE
  5
12E
100
AcDbEntity
  8
0
  6
CONTINUOUS
 62
               7
100
AcDbLine
 10
75.0
 20
16.0
 30
0.0
 11
76.0
 21
15.0
 31
0.0
  0
LINE
  5
12F
100
AcDbEntity
  8
0
  6
CONTINUOUS
 62
               7
100
AcDbLine
 10
75.0
 20
-16.0
 30
0.0
 11
76.0
 21
-15.0
 31
0.0
  0
LINE
  5
130
100
AcDbEntity
  8
0
  6
CONTINUOUS
 62
               7
100
AcDbLine
 10
0.0
 20
-15.0
 30
0.0
 11
1.0
 21
-16.0
 31
0.0
  0
LINE
  5
131
100
AcDbEntity
  8
0
  6
CONTINUOUS
 62
               7
100
AcDbLine
 10
0.0
 20
15.0
 30
0.0
 11
1.0
 21
16.0
 31
0.0
  0
LINE
  5
132
100
AcDbEntity
  8
0
  6
CONTINUOUS
 62
               7
100
AcDbLine
 10
76.0
 20
15.0
 30
0.0
 11
76.0
 21
-15.0
 31
0.0
  0
LINE
  5
133
100
AcDbEntity
  8
0
  6
CONTINUOUS
 62
               7
100
AcDbLine
 10
0.0
 20
15.0
 30
0.0
 11
0.0
 21
-15.0
 31
0.0
  0
LINE
  5
134
100
AcDbEntity
  8
0
  6
CONTINUOUS
 62
               7
100
AcDbLine
 10
1.0
 20
16.0
 30
0.0
 11
75.0
 21
16.0
 31
0.0
  0
LINE
  5
135
100
AcDbEntity
  8
0
  6
CONTINUOUS
 62
               7
100
AcDbLine
 10
1.0
 20
-16.0
 30
0.0
 11
18.399999999999999
 21
-16.0
 31
0.0
  0
LINE
  5
136
100
AcDbEntity
  8
0
  6
CENTER
 62
               2
100
AcDbLine
 10
-3.0699999999999998
 20
0.0
 30
0.0
 11
83.730000000000004
 21
0.0
 31
0.0
  0
ENDBLK
  5
137
100
AcDbEntity
  8
0
100
AcDbBlockEnd
  0
BLOCK
  5
138
100
AcDbEntity
  8
0
100
AcDbBlockBegin
  2
MS_2
 70
               0
 10
0.0
 20
0.0
 30
0.0
  3
MS_2
  1

  0
ARC
  5
139
100
AcDbEntity
  8
0
  6
CONTINUOUS
 62
               7
100
AcDbCircle
 10
33.495000000000005
 20
-18.499997532597593
 30
0.0
 40
4.5015824705569205
100
AcDbArc
 50
242.69496947024649
 51
297.30503052975217
  0
ARC
  5
13A
100
AcDbEntity
  8
0
  6
CONTINUOUS
 62
               7
100
AcDbCircle
 10
33.49999753259759
 20
-18.494999999999997
 30
0.0
 40
4.5015824705569205
100
AcDbArc
 50
332.69496947024635
 51
27.305030529752795
  0
ARC
  5
13B
100
AcDbEntity
  8
0
  6
CONTINUOUS
 62
               7
100
AcDbCircle
 10
33.495000000000005
 20
-18.500002467402407
 30
0.0
 40
4.5015824705569205
100
AcDbArc
 50
62.694969470246996
 51
117.3050305297527
  0
CIRCLE
  5
13C
100
AcDbEntity
  8
0
  6
CONTINUOUS
 62
               2
100
AcDbCircle
 10
0.0
 20
0.0
 30
0.0
 40
8.3310003280639648
  0
CIRCLE
  5
13D
100
AcDbEntity
  8
0
  6
CONTINUOUS
 62
               7
100
AcDbCircle
 10
0.0
 20
0.0
 30
0.0
 40
7.4749994277954102
  0
ARC
  5
13E
100
AcDbEntity
  8
0
  6
CONTINUOUS
 62
               4
100
AcDbCircle
 10
40.299995422357085
 20
-33.700004577642915
 30
0.0
 40
4.7000045776451405
100
AcDbArc
 50
0.0000558041198968
 51
89.999944195879905
  0
ARC
  5
13F
100
AcDbEntity
  8
0
  6
CONTINUOUS
 62
               7
100
AcDbCircle
 10
-41.500007629400351
 20
20.999992370599649
 30
0.0
 40
5.0000076294061726
100
AcDbArc
 50
0.0000874263546587
 51
89.999912573645148
  0
ARC
  5
140
100
AcDbEntity
  8
0
  6
CONTINUOUS
 62
               7
100
AcDbCircle
 10
-41.499992370611288
 20
-21.000007629388712
 30
0.0
 40
4.9999923706171101
100
AcDbArc
 50
269.99991257351127
 51
0.0000874264880711
  0
ARC
  5
141
100
AcDbEntity
  8
0
  6
CONTINUOUS
 62
               4
100
AcDbCircle
 10
40.299995422343876
 20
-33.700004577656124
 30
0.0
 40
1.5000045776631035
100
AcDbArc
 50
0.0001748530502452
 51
89.999825146949561
  0
CIRCLE
  5
142
100
AcDbEntity
  8
0
  6
CONTINUOUS
 62
               7
100
AcDbCircle
 10
0.0
 20
0.0
 30
0.0
 40
13.5
  0
ARC
  5
143
100
AcDbEntity
  8
0
  6
CONTINUOUS
 62
               7
100
AcDbCircle
 10
18.032336203123261
 20
-89.201944539302332
 30
0.0
 40
0.9980581949332781
100
AcDbArc
 50
269.86588487328459
 51
358.38920088090981
  0
ARC
  5
144
100
AcDbEntity
  8
0
  6
CONTINUOUS
 62
               7
100
AcDbCircle
 10
-18.032321439246861
 20
-89.201929318811196
 30
0.0
 40
0.998073380933918
100
AcDbArc
 50
181.61164870269889
 51
270.13326554310436
  0
LINE
  5
145
100
AcDbEntity
  8
0
  6
CENTER
 62
               2
100
AcDbLine
 10
33.5
 20
-14.5
 30
0.0
 11
33.5
 21
-22.5
 31
0.0
  0
LINE
  5
146
100
AcDbEntity
  8
0
  6
CENTER
 62
               2
100
AcDbLine
 10
37.5
 20
-18.5
 30
0.0
 11
29.5
 21
-18.5
 31
0.0
  0
LINE
  5
147
100
AcDbEntity
  8
0
  6
CONTINUOUS
 62
               7
100
AcDbLine
 10
29.5
 20
-14.5
 30
0.0
 11
29.5
 21
-22.5
 31
0.0
  0
LINE
  5
148
100
AcDbEntity
  8
0
  6
CONTINUOUS
 62
               7
100
AcDbLine
 10
37.5
 20
-22.5
 30
0.0
 11
29.5
 21
-22.5
 31
0.0
  0
LINE
  5
149
100
AcDbEntity
  8
0
  6
CONTINUOUS
 62
               7
100
AcDbLine
 10
37.5
 20
-14.5
 30
0.0
 11
37.5
 21
-22.5
 31
0.0
  0
LINE
  5
14A
100
AcDbEntity
  8
0
  6
CONTINUOUS
 62
               7
100
AcDbLine
 10
37.5
 20
-14.5
 30
0.0
 11
29.5
 21
-14.5
 31
0.0
  0
LINE
  5
14B
100
AcDbEntity
  8
0
  6
CONTINUOUS
 62
               7
100
AcDbLine
 10
29.5
 20
-22.25
 30
0.0
 11
28.0
 21
-22.25
 31
0.0
  0
LINE
  5
14C
100
AcDbEntity
  8
0
  6
CONTINUOUS
 62
               7
100
AcDbLine
 10
29.5
 20
-14.75
 30
0.0
 11
28.0
 21
-14.75
 31
0.0
  0
LINE
  5
14D
100
AcDbEntity
  8
0
  6
CONTINUOUS
 62
               7
100
AcDbLine
 10
-36.5
 20
-7.0
 30
0.0
 11
-30.0
 21
7.0
 31
0.0
  0
LINE
  5
14E
100
AcDbEntity
  8
0
  6
CONTINUOUS
 62
               7
100
AcDbLine
 10
-36.5
 20
7.0
 30
0.0
 11
-30.0
 21
-7.0
 31
0.0
  0
LINE
  5
14F
100
AcDbEntity
  8
0
  6
CONTINUOUS
 62
               2
100
AcDbLine
 10
-28.0
 20
-5.8200000000000003
 30
0.0
 11
-29.550000000000001
 21
-6.7199999999999998
 31
0.0
  0
LINE
  5
150
100
AcDbEntity
  8
0
  6
CONTINUOUS
 62
               2
100
AcDbLine
 10
-28.0
 20
5.8200000000000003
 30
0.0
 11
-29.550000000000001
 21
6.7199999999999998
 31
0.0
  0
LINE
  5
151
100
AcDbEntity
  8
0
  6
CONTINUOUS
 62
               7
100
AcDbLine
 10
-28.0
 20
6.6799999999999997
 30
0.0
 11
-28.0
 21
-6.6799999999999997
 31
0.0
  0
LINE
  5
152
100
AcDbEntity
  8
0
  6
CONTINUOUS
 62
               7
100
AcDbLine
 10
-27.5
 20
-6.6699999999999999
 30
0.0
 11
-30.0
 21
-6.7300000000000004
 31
0.0
  0
LINE
  5
153
100
AcDbEntity
  8
0
  6
CONTINUOUS
 62
               2
100
AcDbLine
 10
-27.5
 20
-5.8099999999999996
 30
0.0
 11
-28.0
 21
-5.8300000000000001
 31
0.0
  0
LINE
  5
154
100
AcDbEntity
  8
0
  6
CONTINUOUS
 62
               7
100
AcDbLine
 10
-27.5
 20
6.6699999999999999
 30
0.0
 11
-30.0
 21
6.7300000000000004
 31
0.0
  0
LINE
  5
155
100
AcDbEntity
  8
0
  6
CONTINUOUS
 62
               2
100
AcDbLine
 10
-27.5
 20
5.8099999999999996
 30
0.0
 11
-28.0
 21
5.8300000000000001
 31
0.0
  0
LINE
  5
156
100
AcDbEntity
  8
0
  6
CONTINUOUS
 62
               7
100
AcDbLine
 10
-36.5
 20
-7.0
 30
0.0
 11
-30.0
 21
-7.0
 31
0.0
  0
LINE
  5
157
100
AcDbEntity
  8
0
  6
CONTINUOUS
 62
               7
100
AcDbLine
 10
-36.5
 20
7.0
 30
0.0
 11
-30.0
 21
7.0
 31
0.0
  0
LINE
  5
158
100
AcDbEntity
  8
0
  6
CONTINUOUS
 62
               7
100
AcDbLine
 10
-30.0
 20
7.0
 30
0.0
 11
-30.0
 21
-7.0
 31
0.0
  0
LINE
  5
159
100
AcDbEntity
  8
0
  6
CONTINUOUS
 62
               7
100
AcDbLine
 10
-61.0
 20
-26.0
 30
0.0
 11
-41.5
 21
-26.0
 31
0.0
  0
LINE
  5
15A
100
AcDbEntity
  8
0
  6
CONTINUOUS
 62
               7
100
AcDbLine
 10
-61.0
 20
26.0
 30
0.0
 11
-41.5
 21
26.0
 31
0.0
  0
LINE
  5
15B
100
AcDbEntity
  8
0
  6
CONTINUOUS
 62
               7
100
AcDbLine
 10
-36.5
 20
21.0
 30
0.0
 11
-36.5
 21
-21.0
 31
0.0
  0
LINE
  5
15C
100
AcDbEntity
  8
0
  6
CONTINUOUS
 62
               7
100
AcDbLine
 10
-61.0
 20
26.25
 30
0.0
 11
-61.0
 21
-26.25
 31
0.0
  0
LINE
  5
15D
100
AcDbEntity
  8
0
  6
CONTINUOUS
 62
               7
100
AcDbLine
 10
-64.0
 20
-26.25
 30
0.0
 11
-61.0
 21
-26.25
 31
0.0
  0
LINE
  5
15E
100
AcDbEntity
  8
0
  6
CONTINUOUS
 62
               7
100
AcDbLine
 10
-64.0
 20
26.25
 30
0.0
 11
-61.0
 21
26.25
 31
0.0
  0
LINE
  5
15F
100
AcDbEntity
  8
0
  6
CONTINUOUS
 62
               7
100
AcDbLine
 10
-64.0
 20
26.25
 30
0.0
 11
-64.0
 21
-26.25
 31
0.0
  0
LINE
  5
160
100
AcDbEntity
  8
0
  6
CONTINUOUS
 62
               7
100
AcDbLine
 10
27.5
 20
-6.5700000000000003
 30
0.0
 11
28.469999999999999
 21
-6.5999999999999996
 31
0.0
  0
LINE
  5
161
100
AcDbEntity
  8
0
  6
CONTINUOUS
 62
               2
100
AcDbLine
 10
27.5
 20
-5.7199999999999998
 30
0.0
 11
28.949999999999999
 21
-5.7599999999999998
 31
0.0
  0
LINE
  5
162
100
AcDbEntity
  8
0
  6
CONTINUOUS
 62
               7
100
AcDbLine
 10
28.469999999999999
 20
-6.5999999999999996
 30
0.0
 11
29.170000000000002
 21
-5.3899999999999997
 31
0.0
  0
LINE
  5
163
100
AcDbEntity
  8
0
  6
CONTINUOUS
 62
               7
100
AcDbLine
 10
28.469999999999999
 20
6.5999999999999996
 30
0.0
 11
29.170000000000002
 21
5.3899999999999997
 31
0.0
  0
LINE
  5
164
100
AcDbEntity
  8
0
  6
CONTINUOUS
 62
               7
100
AcDbLine
 10
27.5
 20
6.5700000000000003
 30
0.0
 11
28.469999999999999
 21
6.5999999999999996
 31
0.0
  0
LINE
  5
165
100
AcDbEntity
  8
0
  6
CONTINUOUS
 62
               2
100
AcDbLine
 10
27.5
 20
5.7199999999999998
 30
0.0
 11
28.949999999999999
 21
5.7599999999999998
 31
0.0
  0
LINE
  5
166
100
AcDbEntity
  8
0
  6
CONTINUOUS
 62
               7
100
AcDbLine
 10
28.469999999999999
 20
6.5999999999999996
 30
0.0
 11
28.469999999999999
 21
-6.5999999999999996
 31
0.0
  0
LINE
  5
167
100
AcDbEntity
  8
0
  6
CONTINUOUS
 62
               7
100
AcDbLine
 10
29.170000000000002
 20
5.3899999999999997
 30
0.0
 11
29.170000000000002
 21
-5.3899999999999997
 31
0.0
  0
LINE
  5
168
100
AcDbEntity
  8
0
  6
CONTINUOUS
 62
               4
100
AcDbLine
 10
41.799999999999997
 20
-38.32
 30
0.0
 11
35.670000000000002
 21
-32.200000000000003
 31
0.0
  0
LINE
  5
169
100
AcDbEntity
  8
0
  6
CONTINUOUS
 62
               2
100
AcDbLine
 10
21.5
 20
-29.0
 30
0.0
 11
21.5
 21
-32.200000000000003
 31
0.0
  0
LINE
  5
16A
100
AcDbEntity
  8
0
  6
CONTINUOUS
 62
               2
100
AcDbLine
 10
-21.5
 20
-29.0
 30
0.0
 11
-21.5
 21
-32.200000000000003
 31
0.0
  0
LINE
  5
16B
100
AcDbEntity
  8
0
  6
CONTINUOUS
 62
               7
100
AcDbLine
 10
22.5
 20
-29.0
 30
0.0
 11
22.5
 21
-32.200000000000003
 31
0.0
  0
LINE
  5
16C
100
AcDbEntity
  8
0
  6
CONTINUOUS
 62
               7
100
AcDbLine
 10
-22.5
 20
-29.0
 30
0.0
 11
-22.5
 21
-32.200000000000003
 31
0.0
  0
LINE
  5
16D
100
AcDbEntity
  8
0
  6
CONTINUOUS
 62
               4
100
AcDbLine
 10
-27.5
 20
-29.0
 30
0.0
 11
-27.5
 21
-32.200000000000003
 31
0.0
  0
LINE
  5
16E
100
AcDbEntity
  8
0
  6
CONTINUOUS
 62
               4
100
AcDbLine
 10
41.799999999999997
 20
-56.0
 30
0.0
 11
45.0
 21
-56.0
 31
0.0
  0
LINE
  5
16F
100
AcDbEntity
  8
0
  6
CONTINUOUS
 62
               4
100
AcDbLine
 10
41.799999999999997
 20
-33.700000000000003
 30
0.0
 11
41.799999999999997
 21
-59.0
 31
0.0
  0
LINE
  5
170
100
AcDbEntity
  8
0
  6
CONTINUOUS
 62
               4
100
AcDbLine
 10
45.0
 20
-33.700000000000003
 30
0.0
 11
45.0
 21
-59.0
 31
0.0
  0
LINE
  5
171
100
AcDbEntity
  8
0
  6
CONTINUOUS
 62
               7
100
AcDbLine
 10
-28.0
 20
-12.0
 30
0.0
 11
-28.0
 21
-28.0
 31
0.0
  0
LINE
  5
172
100
AcDbEntity
  8
0
  6
CONTINUOUS
 62
               7
100
AcDbLine
 10
20.0
 20
-12.0
 30
0.0
 11
28.0
 21
-12.0
 31
0.0
  0
LINE
  5
173
100
AcDbEntity
  8
0
  6
CONTINUOUS
 62
               7
100
AcDbLine
 10
20.0
 20
-11.0
 30
0.0
 11
27.0
 21
-11.0
 31
0.0
  0
LINE
  5
174
100
AcDbEntity
  8
0
  6
CONTINUOUS
 62
               7
100
AcDbLine
 10
27.0
 20
-11.0
 30
0.0
 11
28.0
 21
-12.0
 31
0.0
  0
LINE
  5
175
100
AcDbEntity
  8
0
  6
CONTINUOUS
 62
               7
100
AcDbLine
 10
-27.0
 20
-11.0
 30
0.0
 11
-20.0
 21
-11.0
 31
0.0
  0
LINE
  5
176
100
AcDbEntity
  8
0
  6
CONTINUOUS
 62
               7
100
AcDbLine
 10
-28.0
 20
-12.0
 30
0.0
 11
-27.0
 21
-11.0
 31
0.0
  0
LINE
  5
177
100
AcDbEntity
  8
0
  6
CONTINUOUS
 62
               7
100
AcDbLine
 10
-28.0
 20
-12.0
 30
0.0
 11
-20.0
 21
-12.0
 31
0.0
  0
LINE
  5
178
100
AcDbEntity
  8
0
  6
CONTINUOUS
 62
               7
100
AcDbLine
 10
21.699999999999999
 20
-35.200000000000003
 30
0.0
 11
22.739999999999998
 21
-34.200000000000003
 31
0.0
  0
LINE
  5
179
100
AcDbEntity
  8
0
  6
CONTINUOUS
 62
               7
100
AcDbLine
 10
17.170000000000002
 20
-42.200000000000003
 30
0.0
 11
16.890000000000001
 21
-41.200000000000003
 31
0.0
  0
LINE
  5
17A
100
AcDbEntity
  8
0
  6
CONTINUOUS
 62
               7
100
AcDbLine
 10
17.170000000000002
 20
-35.200000000000003
 30
0.0
 11
16.890000000000001
 21
-34.200000000000003
 31
0.0
  0
LINE
  5
17B
100
AcDbEntity
  8
0
  6
CONTINUOUS
 62
               7
100
AcDbLine
 10
11.109999999999999
 20
-34.200000000000003
 30
0.0
 11
10.34
 21
-35.200000000000003
 31
0.0
  0
LINE
  5
17C
100
AcDbEntity
  8
0
  6
CONTINUOUS
 62
               7
100
AcDbLine
 10
11.109999999999999
 20
-41.200000000000003
 30
0.0
 11
10.34
 21
-42.200000000000003
 31
0.0
  0
LINE
  5
17D
100
AcDbEntity
  8
0
  6
CONTINUOUS
 62
               7
100
AcDbLine
 10
3.5
 20
-41.200000000000003
 30
0.0
 11
3.7799999999999998
 21
-42.200000000000003
 31
0.0
  0
LINE
  5
17E
100
AcDbEntity
  8
0
  6
CONTINUOUS
 62
               7
100
AcDbLine
 10
3.7799999999999998
 20
-35.200000000000003
 30
0.0
 11
3.5
 21
-34.200000000000003
 31
0.0
  0
LINE
  5
17F
100
AcDbEntity
  8
0
  6
CONTINUOUS
 62
               7
100
AcDbLine
 10
-3.5
 20
-41.200000000000003
 30
0.0
 11
-3.7799999999999998
 21
-42.200000000000003
 31
0.0
  0
LINE
  5
180
100
AcDbEntity
  8
0
  6
CONTINUOUS
 62
               7
100
AcDbLine
 10
-3.7799999999999998
 20
-35.200000000000003
 30
0.0
 11
-3.5
 21
-34.200000000000003
 31
0.0
  0
LINE
  5
181
100
AcDbEntity
  8
0
  6
CONTINUOUS
 62
               7
100
AcDbLine
 10
-11.109999999999999
 20
-34.200000000000003
 30
0.0
 11
-10.34
 21
-35.200000000000003
 31
0.0
  0
LINE
  5
182
100
AcDbEntity
  8
0
  6
CONTINUOUS
 62
               7
100
AcDbLine
 10
-11.109999999999999
 20
-41.200000000000003
 30
0.0
 11
-10.34
 21
-42.200000000000003
 31
0.0
  0
LINE
  5
183
100
AcDbEntity
  8
0
  6
CONTINUOUS
 62
               7
100
AcDbLine
 10
-17.170000000000002
 20
-42.200000000000003
 30
0.0
 11
-16.890000000000001
 21
-41.200000000000003
 31
0.0
  0
LINE
  5
184
100
AcDbEntity
  8
0
  6
CONTINUOUS
 62
               7
100
AcDbLine
 10
-17.170000000000002
 20
-35.200000000000003
 30
0.0
 11
-16.890000000000001
 21
-34.200000000000003
 31
0.0
  0
LINE
  5
185
100
AcDbEntity
  8
0
  6
CONTINUOUS
 62
               7
100
AcDbLine
 10
-21.690000000000001
 20
-35.200000000000003
 30
0.0
 11
-22.739999999999998
 21
-34.200000000000003
 31
0.0
  0
LINE
  5
186
100
AcDbEntity
  8
0
  6
CONTINUOUS
 62
               7
100
AcDbLine
 10
-22.739999999999998
 20
-41.200000000000003
 30
0.0
 11
-21.690000000000001
 21
-42.200000000000003
 31
0.0
  0
LINE
  5
187
100
AcDbEntity
  8
0
  6
CONTINUOUS
 62
               7
100
AcDbLine
 10
27.23
 20
-35.200000000000003
 30
0.0
 11
28.280000000000001
 21
-34.200000000000003
 31
0.0
  0
LINE
  5
188
100
AcDbEntity
  8
0
  6
CONTINUOUS
 62
               7
100
AcDbLine
 10
27.23
 20
-42.200000000000003
 30
0.0
 11
28.280000000000001
 21
-41.200000000000003
 31
0.0
  0
LINE
  5
189
100
AcDbEntity
  8
0
  6
CONTINUOUS
 62
               7
100
AcDbLine
 10
-28.280000000000001
 20
-34.200000000000003
 30
0.0
 11
-27.23
 21
-35.200000000000003
 31
0.0
  0
LINE
  5
18A
100
AcDbEntity
  8
0
  6
CONTINUOUS
 62
               7
100
AcDbLine
 10
-28.280000000000001
 20
-41.200000000000003
 30
0.0
 11
-27.23
 21
-42.200000000000003
 31
0.0
  0
LINE
  5
18B
100
AcDbEntity
  8
0
  6
CONTINUOUS
 62
               7
100
AcDbLine
 10
-28.280000000000001
 20
-34.200000000000003
 30
0.0
 11
-28.280000000000001
 21
-41.200000000000003
 31
0.0
  0
LINE
  5
18C
100
AcDbEntity
  8
0
  6
CONTINUOUS
 62
               7
100
AcDbLine
 10
-27.23
 20
-35.200000000000003
 30
0.0
 11
-27.23
 21
-42.200000000000003
 31
0.0
  0
LINE
  5
18D
100
AcDbEntity
  8
0
  6
CONTINUOUS
 62
               7
100
AcDbLine
 10
28.280000000000001
 20
-34.200000000000003
 30
0.0
 11
28.280000000000001
 21
-41.200000000000003
 31
0.0
  0
LINE
  5
18E
100
AcDbEntity
  8
0
  6
CONTINUOUS
 62
               7
100
AcDbLine
 10
27.23
 20
-35.200000000000003
 30
0.0
 11
27.23
 21
-42.200000000000003
 31
0.0
  0
LINE
  5
18F
100
AcDbEntity
  8
0
  6
CONTINUOUS
 62
               7
100
AcDbLine
 10
26.239999999999998
 20
-41.200000000000003
 30
0.0
 11
25.469999999999999
 21
-42.200000000000003
 31
0.0
  0
LINE
  5
190
100
AcDbEntity
  8
0
  6
CONTINUOUS
 62
               7
100
AcDbLine
 10
-26.239999999999998
 20
-41.200000000000003
 30
0.0
 11
-25.48
 21
-42.200000000000003
 31
0.0
  0
LINE
  5
191
100
AcDbEntity
  8
0
  6
CONTINUOUS
 62
               7
100
AcDbLine
 10
28.280000000000001
 20
-41.200000000000003
 30
0.0
 11
28.5
 21
-41.200000000000003
 31
0.0
  0
LINE
  5
192
100
AcDbEntity
  8
0
  6
CONTINUOUS
 62
               7
100
AcDbLine
 10
-26.239999999999998
 20
-41.200000000000003
 30
0.0
 11
-22.739999999999998
 21
-41.200000000000003
 31
0.0
  0
LINE
  5
193
100
AcDbEntity
  8
0
  6
CONTINUOUS
 62
               7
100
AcDbLine
 10
-27.23
 20
-35.200000000000003
 30
0.0
 11
-26.239999999999998
 21
-35.200000000000003
 31
0.0
  0
LINE
  5
194
100
AcDbEntity
  8
0
  6
CONTINUOUS
 62
               7
100
AcDbLine
 10
-28.280000000000001
 20
-34.200000000000003
 30
0.0
 11
-26.239999999999998
 21
-34.200000000000003
 31
0.0
  0
LINE
  5
195
100
AcDbEntity
  8
0
  6
CONTINUOUS
 62
               7
100
AcDbLine
 10
-26.239999999999998
 20
-34.200000000000003
 30
0.0
 11
-26.239999999999998
 21
-41.200000000000003
 31
0.0
  0
LINE
  5
196
100
AcDbEntity
  8
0
  6
CONTINUOUS
 62
               7
100
AcDbLine
 10
26.239999999999998
 20
-34.200000000000003
 30
0.0
 11
26.239999999999998
 21
-41.200000000000003
 31
0.0
  0
LINE
  5
197
100
AcDbEntity
  8
0
  6
CONTINUOUS
 62
               7
100
AcDbLine
 10
26.239999999999998
 20
-35.200000000000003
 30
0.0
 11
27.23
 21
-35.200000000000003
 31
0.0
  0
LINE
  5
198
100
AcDbEntity
  8
0
  6
CONTINUOUS
 62
               7
100
AcDbLine
 10
26.239999999999998
 20
-34.200000000000003
 30
0.0
 11
28.280000000000001
 21
-34.200000000000003
 31
0.0
  0
LINE
  5
199
100
AcDbEntity
  8
0
  6
CONTINUOUS
 62
               7
100
AcDbLine
 10
-21.690000000000001
 20
-35.200000000000003
 30
0.0
 11
-17.170000000000002
 21
-35.200000000000003
 31
0.0
  0
LINE
  5
19A
100
AcDbEntity
  8
0
  6
CONTINUOUS
 62
               7
100
AcDbLine
 10
-22.739999999999998
 20
-34.200000000000003
 30
0.0
 11
-16.890000000000001
 21
-34.200000000000003
 31
0.0
  0
LINE
  5
19B
100
AcDbEntity
  8
0
  6
CONTINUOUS
 62
               7
100
AcDbLine
 10
-21.690000000000001
 20
-35.200000000000003
 30
0.0
 11
-21.690000000000001
 21
-42.200000000000003
 31
0.0
  0
LINE
  5
19C
100
AcDbEntity
  8
0
  6
CONTINUOUS
 62
               7
100
AcDbLine
 10
-22.739999999999998
 20
-34.200000000000003
 30
0.0
 11
-22.739999999999998
 21
-41.200000000000003
 31
0.0
  0
LINE
  5
19D
100
AcDbEntity
  8
0
  6
CONTINUOUS
 62
               7
100
AcDbLine
 10
22.739999999999998
 20
-34.200000000000003
 30
0.0
 11
22.739999999999998
 21
-41.200000000000003
 31
0.0
  0
LINE
  5
19E
100
AcDbEntity
  8
0
  6
CONTINUOUS
 62
               7
100
AcDbLine
 10
21.699999999999999
 20
-35.200000000000003
 30
0.0
 11
21.699999999999999
 21
-42.200000000000003
 31
0.0
  0
LINE
  5
19F
100
AcDbEntity
  8
0
  6
CONTINUOUS
 62
               7
100
AcDbLine
 10
22.739999999999998
 20
-41.200000000000003
 30
0.0
 11
26.239999999999998
 21
-41.200000000000003
 31
0.0
  0
LINE
  5
1A0
100
AcDbEntity
  8
0
  6
CONTINUOUS
 62
               7
100
AcDbLine
 10
-16.890000000000001
 20
-41.200000000000003
 30
0.0
 11
-11.109999999999999
 21
-41.200000000000003
 31
0.0
  0
LINE
  5
1A1
100
AcDbEntity
  8
0
  6
CONTINUOUS
 62
               7
100
AcDbLine
 10
-16.890000000000001
 20
-34.200000000000003
 30
0.0
 11
-16.890000000000001
 21
-41.200000000000003
 31
0.0
  0
LINE
  5
1A2
100
AcDbEntity
  8
0
  6
CONTINUOUS
 62
               7
100
AcDbLine
 10
-17.170000000000002
 20
-35.200000000000003
 30
0.0
 11
-17.170000000000002
 21
-42.200000000000003
 31
0.0
  0
LINE
  5
1A3
100
AcDbEntity
  8
0
  6
CONTINUOUS
 62
               7
100
AcDbLine
 10
16.890000000000001
 20
-34.200000000000003
 30
0.0
 11
16.890000000000001
 21
-41.200000000000003
 31
0.0
  0
LINE
  5
1A4
100
AcDbEntity
  8
0
  6
CONTINUOUS
 62
               7
100
AcDbLine
 10
17.170000000000002
 20
-35.200000000000003
 30
0.0
 11
17.170000000000002
 21
-42.200000000000003
 31
0.0
  0
LINE
  5
1A5
100
AcDbEntity
  8
0
  6
CONTINUOUS
 62
               7
100
AcDbLine
 10
10.34
 20
-35.200000000000003
 30
0.0
 11
10.34
 21
-42.200000000000003
 31
0.0
  0
LINE
  5
1A6
100
AcDbEntity
  8
0
  6
CONTINUOUS
 62
               7
100
AcDbLine
 10
11.109999999999999
 20
-34.200000000000003
 30
0.0
 11
11.109999999999999
 21
-41.200000000000003
 31
0.0
  0
LINE
  5
1A7
100
AcDbEntity
  8
0
  6
CONTINUOUS
 62
               7
100
AcDbLine
 10
-10.34
 20
-35.200000000000003
 30
0.0
 11
-10.34
 21
-42.200000000000003
 31
0.0
  0
LINE
  5
1A8
100
AcDbEntity
  8
0
  6
CONTINUOUS
 62
               7
100
AcDbLine
 10
-11.109999999999999
 20
-34.200000000000003
 30
0.0
 11
-11.109999999999999
 21
-41.200000000000003
 31
0.0
  0
LINE
  5
1A9
100
AcDbEntity
  8
0
  6
CONTINUOUS
 62
               7
100
AcDbLine
 10
-3.7799999999999998
 20
-35.200000000000003
 30
0.0
 11
-3.7799999999999998
 21
-42.200000000000003
 31
0.0
  0
LINE
  5
1AA
100
AcDbEntity
  8
0
  6
CONTINUOUS
 62
               7
100
AcDbLine
 10
3.7799999999999998
 20
-35.200000000000003
 30
0.0
 11
3.7799999999999998
 21
-42.200000000000003
 31
0.0
  0
LINE
  5
1AB
100
AcDbEntity
  8
0
  6
CONTINUOUS
 62
               7
100
AcDbLine
 10
3.5
 20
-34.200000000000003
 30
0.0
 11
3.5
 21
-41.200000000000003
 31
0.0
  0
LINE
  5
1AC
100
AcDbEntity
  8
0
  6
CONTINUOUS
 62
               7
100
AcDbLine
 10
-3.5
 20
-34.200000000000003
 30
0.0
 11
-3.5
 21
-41.200000000000003
 31
0.0
  0
LINE
  5
1AD
100
AcDbEntity
  8
0
  6
CONTINUOUS
 62
               7
100
AcDbLine
 10
17.170000000000002
 20
-35.200000000000003
 30
0.0
 11
21.699999999999999
 21
-35.200000000000003
 31
0.0
  0
LINE
  5
1AE
100
AcDbEntity
  8
0
  6
CONTINUOUS
 62
               7
100
AcDbLine
 10
16.890000000000001
 20
-34.200000000000003
 30
0.0
 11
22.739999999999998
 21
-34.200000000000003
 31
0.0
  0
LINE
  5
1AF
100
AcDbEntity
  8
0
  6
CONTINUOUS
 62
               7
100
AcDbLine
 10
-10.34
 20
-35.200000000000003
 30
0.0
 11
-3.7799999999999998
 21
-35.200000000000003
 31
0.0
  0
LINE
  5
1B0
100
AcDbEntity
  8
0
  6
CONTINUOUS
 62
               7
100
AcDbLine
 10
-11.109999999999999
 20
-34.200000000000003
 30
0.0
 11
-3.5
 21
-34.200000000000003
 31
0.0
  0
LINE
  5
1B1
100
AcDbEntity
  8
0
  6
CONTINUOUS
 62
               7
100
AcDbLine
 10
3.7799999999999998
 20
-35.200000000000003
 30
0.0
 11
10.34
 21
-35.200000000000003
 31
0.0
  0
LINE
  5
1B2
100
AcDbEntity
  8
0
  6
CONTINUOUS
 62
               7
100
AcDbLine
 10
3.5
 20
-34.200000000000003
 30
0.0
 11
11.109999999999999
 21
-34.200000000000003
 31
0.0
  0
LINE
  5
1B3
100
AcDbEntity
  8
0
  6
CONTINUOUS
 62
               7
100
AcDbLine
 10
11.109999999999999
 20
-41.200000000000003
 30
0.0
 11
16.890000000000001
 21
-41.200000000000003
 31
0.0
  0
LINE
  5
1B4
100
AcDbEntity
  8
0
  6
CONTINUOUS
 62
               7
100
AcDbLine
 10
-3.5
 20
-41.200000000000003
 30
0.0
 11
3.5
 21
-41.200000000000003
 31
0.0
  0
LINE
  5
1B5
100
AcDbEntity
  8
0
  6
CONTINUOUS
 62
               7
100
AcDbLine
 10
-28.5
 20
-41.200000000000003
 30
0.0
 11
-28.280000000000001
 21
-41.200000000000003
 31
0.0
  0
LINE
  5
1B6
100
AcDbEntity
  8
0
  6
CONTINUOUS
 62
               7
100
AcDbLine
 10
28.5
 20
-41.200000000000003
 30
0.0
 11
27.5
 21
-42.200000000000003
 31
0.0
  0
LINE
  5
1B7
100
AcDbEntity
  8
0
  6
CONTINUOUS
 62
               7
100
AcDbLine
 10
-28.5
 20
-41.200000000000003
 30
0.0
 11
-27.5
 21
-42.200000000000003
 31
0.0
  0
LINE
  5
1B8
100
AcDbEntity
  8
0
  6
CONTINUOUS
 62
               7
100
AcDbLine
 10
-27.5
 20
-42.200000000000003
 30
0.0
 11
27.5
 21
-42.200000000000003
 31
0.0
  0
LINE
  5
1B9
100
AcDbEntity
  8
0
  6
CONTINUOUS
 62
               7
100
AcDbLine
 10
28.5
 20
-32.200000000000003
 30
0.0
 11
28.5
 21
-41.200000000000003
 31
0.0
  0
LINE
  5
1BA
100
AcDbEntity
  8
0
  6
CONTINUOUS
 62
               7
100
AcDbLine
 10
-28.5
 20
-32.200000000000003
 30
0.0
 11
-28.5
 21
-41.200000000000003
 31
0.0
  0
LINE
  5
1BB
100
AcDbEntity
  8
0
  6
CONTINUOUS
 62
               7
100
AcDbLine
 10
-28.5
 20
-32.200000000000003
 30
0.0
 11
28.5
 21
-32.200000000000003
 31
0.0
  0
LINE
  5
1BC
100
AcDbEntity
  8
0
  6
CONTINUOUS
 62
               7
100
AcDbLine
 10
22.739999999999998
 20
-41.200000000000003
 30
0.0
 11
21.690000000000001
 21
-42.200000000000003
 31
0.0
  0
LINE
  5
1BD
100
AcDbEntity
  8
0
  6
CONTINUOUS
 62
               7
100
AcDbLine
 10
27.5
 20
9.0
 30
0.0
 11
26.5
 21
10.0
 31
0.0
  0
LINE
  5
1BE
100
AcDbEntity
  8
0
  6
CONTINUOUS
 62
               7
100
AcDbLine
 10
26.5
 20
10.0
 30
0.0
 11
26.5
 21
-10.0
 31
0.0
  0
LINE
  5
1BF
100
AcDbEntity
  8
0
  6
CONTINUOUS
 62
               7
100
AcDbLine
 10
27.5
 20
9.0
 30
0.0
 11
27.5
 21
-9.0
 31
0.0
  0
LINE
  5
1C0
100
AcDbEntity
  8
0
  6
CONTINUOUS
 62
               7
100
AcDbLine
 10
26.5
 20
-10.0
 30
0.0
 11
20.0
 21
-10.0
 31
0.0
  0
LINE
  5
1C1
100
AcDbEntity
  8
0
  6
CONTINUOUS
 62
               7
100
AcDbLine
 10
26.5
 20
10.0
 30
0.0
 11
20.0
 21
10.0
 31
0.0
  0
LINE
  5
1C2
100
AcDbEntity
  8
0
  6
CONTINUOUS
 62
               7
100
AcDbLine
 10
27.5
 20
-9.0
 30
0.0
 11
26.5
 21
-10.0
 31
0.0
  0
LINE
  5
1C3
100
AcDbEntity
  8
0
  6
CONTINUOUS
 62
               7
100
AcDbLine
 10
-27.5
 20
-9.0
 30
0.0
 11
-26.5
 21
-10.0
 31
0.0
  0
LINE
  5
1C4
100
AcDbEntity
  8
0
  6
CONTINUOUS
 62
               7
100
AcDbLine
 10
-27.5
 20
9.0
 30
0.0
 11
-26.5
 21
10.0
 31
0.0
  0
LINE
  5
1C5
100
AcDbEntity
  8
0
  6
CONTINUOUS
 62
               7
100
AcDbLine
 10
-26.5
 20
10.0
 30
0.0
 11
-26.5
 21
-10.0
 31
0.0
  0
LINE
  5
1C6
100
AcDbEntity
  8
0
  6
CONTINUOUS
 62
               7
100
AcDbLine
 10
-27.5
 20
9.0
 30
0.0
 11
-27.5
 21
-9.0
 31
0.0
  0
LINE
  5
1C7
100
AcDbEntity
  8
0
  6
CONTINUOUS
 62
               7
100
AcDbLine
 10
4.0
 20
-16.699999999999999
 30
0.0
 11
4.0
 21
-16.0
 31
0.0
  0
LINE
  5
1C8
100
AcDbEntity
  8
0
  6
CONTINUOUS
 62
               7
100
AcDbLine
 10
-4.0
 20
-16.699999999999999
 30
0.0
 11
-4.0
 21
-16.0
 31
0.0
  0
LINE
  5
1C9
100
AcDbEntity
  8
0
  6
CONTINUOUS
 62
               7
100
AcDbLine
 10
-4.0
 20
-16.699999999999999
 30
0.0
 11
4.0
 21
-16.699999999999999
 31
0.0
  0
LINE
  5
1CA
100
AcDbEntity
  8
0
  6
CONTINUOUS
 62
               7
100
AcDbLine
 10
-4.0
 20
16.699999999999999
 30
0.0
 11
4.0
 21
16.699999999999999
 31
0.0
  0
LINE
  5
1CB
100
AcDbEntity
  8
0
  6
CONTINUOUS
 62
               7
100
AcDbLine
 10
-4.0
 20
16.699999999999999
 30
0.0
 11
-4.0
 21
16.0
 31
0.0
  0
LINE
  5
1CC
100
AcDbEntity
  8
0
  6
CONTINUOUS
 62
               7
100
AcDbLine
 10
4.0
 20
16.699999999999999
 30
0.0
 11
4.0
 21
16.0
 31
0.0
  0
LINE
  5
1CD
100
AcDbEntity
  8
0
  6
CONTINUOUS
 62
               7
100
AcDbLine
 10
11.02
 20
31.0
 30
0.0
 11
16.68
 21
31.0
 31
0.0
  0
LINE
  5
1CE
100
AcDbEntity
  8
0
  6
CONTINUOUS
 62
               7
100
AcDbLine
 10
18.5
 20
25.0
 30
0.0
 11
19.59
 21
24.420000000000002
 31
0.0
  0
LINE
  5
1CF
100
AcDbEntity
  8
0
  6
CONTINUOUS
 62
               7
100
AcDbLine
 10
18.5
 20
32.0
 30
0.0
 11
19.59
 21
31.0
 31
0.0
  0
LINE
  5
1D0
100
AcDbEntity
  8
0
  6
CONTINUOUS
 62
               7
100
AcDbLine
 10
4.29
 20
32.0
 30
0.0
 11
4.0
 21
31.0
 31
0.0
  0
LINE
  5
1D1
100
AcDbEntity
  8
0
  6
CONTINUOUS
 62
               7
100
AcDbLine
 10
11.02
 20
31.0
 30
0.0
 11
10.050000000000001
 21
32.0
 31
0.0
  0
LINE
  5
1D2
100
AcDbEntity
  8
0
  6
CONTINUOUS
 62
               7
100
AcDbLine
 10
11.02
 20
24.420000000000002
 30
0.0
 11
10.050000000000001
 21
25.0
 31
0.0
  0
LINE
  5
1D3
100
AcDbEntity
  8
0
  6
CONTINUOUS
 62
               7
100
AcDbLine
 10
4.29
 20
25.0
 30
0.0
 11
4.0
 21
24.420000000000002
 31
0.0
  0
LINE
  5
1D4
100
AcDbEntity
  8
0
  6
CONTINUOUS
 62
               7
100
AcDbLine
 10
16.68
 20
31.0
 30
0.0
 11
16.120000000000001
 21
32.0
 31
0.0
  0
LINE
  5
1D5
100
AcDbEntity
  8
0
  6
CONTINUOUS
 62
               7
100
AcDbLine
 10
11.02
 20
24.420000000000002
 30
0.0
 11
4.0
 21
24.420000000000002
 31
0.0
  0
LINE
  5
1D6
100
AcDbEntity
  8
0
  6
CONTINUOUS
 62
               7
100
AcDbLine
 10
10.050000000000001
 20
25.0
 30
0.0
 11
4.29
 21
25.0
 31
0.0
  0
LINE
  5
1D7
100
AcDbEntity
  8
0
  6
CONTINUOUS
 62
               7
100
AcDbLine
 10
19.59
 20
31.0
 30
0.0
 11
19.59
 21
24.420000000000002
 31
0.0
  0
LINE
  5
1D8
100
AcDbEntity
  8
0
  6
CONTINUOUS
 62
               7
100
AcDbLine
 10
18.5
 20
32.0
 30
0.0
 11
18.5
 21
25.0
 31
0.0
  0
LINE
  5
1D9
100
AcDbEntity
  8
0
  6
CONTINUOUS
 62
               7
100
AcDbLine
 10
16.68
 20
31.0
 30
0.0
 11
16.68
 21
24.420000000000002
 31
0.0
  0
LINE
  5
1DA
100
AcDbEntity
  8
0
  6
CONTINUOUS
 62
               7
100
AcDbLine
 10
11.02
 20
31.0
 30
0.0
 11
11.02
 21
24.420000000000002
 31
0.0
  0
LINE
  5
1DB
100
AcDbEntity
  8
0
  6
CONTINUOUS
 62
               7
100
AcDbLine
 10
10.050000000000001
 20
32.0
 30
0.0
 11
10.050000000000001
 21
25.0
 31
0.0
  0
LINE
  5
1DC
100
AcDbEntity
  8
0
  6
CONTINUOUS
 62
               7
100
AcDbLine
 10
4.29
 20
32.0
 30
0.0
 11
4.29
 21
25.0
 31
0.0
  0
LINE
  5
1DD
100
AcDbEntity
  8
0
  6
CONTINUOUS
 62
               7
100
AcDbLine
 10
4.0
 20
31.0
 30
0.0
 11
4.0
 21
24.420000000000002
 31
0.0
  0
LINE
  5
1DE
100
AcDbEntity
  8
0
  6
CONTINUOUS
 62
               7
100
AcDbLine
 10
19.59
 20
24.420000000000002
 30
0.0
 11
16.68
 21
24.420000000000002
 31
0.0
  0
LINE
  5
1DF
100
AcDbEntity
  8
0
  6
CONTINUOUS
 62
               7
100
AcDbLine
 10
18.5
 20
25.0
 30
0.0
 11
16.68
 21
25.0
 31
0.0
  0
LINE
  5
1E0
100
AcDbEntity
  8
0
  6
CONTINUOUS
 62
               7
100
AcDbLine
 10
20.0
 20
31.0
 30
0.0
 11
19.59
 21
31.0
 31
0.0
  0
LINE
  5
1E1
100
AcDbEntity
  8
0
  6
CONTINUOUS
 62
               7
100
AcDbLine
 10
20.0
 20
31.0
 30
0.0
 11
19.0
 21
32.0
 31
0.0
  0
LINE
  5
1E2
100
AcDbEntity
  8
0
  6
CONTINUOUS
 62
               7
100
AcDbLine
 10
20.0
 20
31.0
 30
0.0
 11
20.0
 21
22.0
 31
0.0
  0
LINE
  5
1E3
100
AcDbEntity
  8
0
  6
CONTINUOUS
 62
               7
100
AcDbLine
 10
-16.68
 20
31.0
 30
0.0
 11
-16.120000000000001
 21
32.0
 31
0.0
  0
LINE
  5
1E4
100
AcDbEntity
  8
0
  6
CONTINUOUS
 62
               7
100
AcDbLine
 10
-18.5
 20
25.0
 30
0.0
 11
-19.59
 21
24.420000000000002
 31
0.0
  0
LINE
  5
1E5
100
AcDbEntity
  8
0
  6
CONTINUOUS
 62
               7
100
AcDbLine
 10
-18.5
 20
32.0
 30
0.0
 11
-19.59
 21
31.0
 31
0.0
  0
LINE
  5
1E6
100
AcDbEntity
  8
0
  6
CONTINUOUS
 62
               7
100
AcDbLine
 10
-4.29
 20
32.0
 30
0.0
 11
-4.0
 21
31.0
 31
0.0
  0
LINE
  5
1E7
100
AcDbEntity
  8
0
  6
CONTINUOUS
 62
               7
100
AcDbLine
 10
-11.02
 20
31.0
 30
0.0
 11
-10.050000000000001
 21
32.0
 31
0.0
  0
LINE
  5
1E8
100
AcDbEntity
  8
0
  6
CONTINUOUS
 62
               7
100
AcDbLine
 10
-11.02
 20
24.420000000000002
 30
0.0
 11
-10.050000000000001
 21
25.0
 31
0.0
  0
LINE
  5
1E9
100
AcDbEntity
  8
0
  6
CONTINUOUS
 62
               7
100
AcDbLine
 10
-4.29
 20
25.0
 30
0.0
 11
-4.0
 21
24.420000000000002
 31
0.0
  0
LINE
  5
1EA
100
AcDbEntity
  8
0
  6
CONTINUOUS
 62
               7
100
AcDbLine
 10
-16.68
 20
31.0
 30
0.0
 11
-11.02
 21
31.0
 31
0.0
  0
LINE
  5
1EB
100
AcDbEntity
  8
0
  6
CONTINUOUS
 62
               7
100
AcDbLine
 10
-4.0
 20
31.0
 30
0.0
 11
4.0
 21
31.0
 31
0.0
  0
LINE
  5
1EC
100
AcDbEntity
  8
0
  6
CONTINUOUS
 62
               7
100
AcDbLine
 10
-11.02
 20
24.420000000000002
 30
0.0
 11
-4.0
 21
24.420000000000002
 31
0.0
  0
LINE
  5
1ED
100
AcDbEntity
  8
0
  6
CONTINUOUS
 62
               7
100
AcDbLine
 10
-10.050000000000001
 20
25.0
 30
0.0
 11
-4.29
 21
25.0
 31
0.0
  0
LINE
  5
1EE
100
AcDbEntity
  8
0
  6
CONTINUOUS
 62
               7
100
AcDbLine
 10
-19.59
 20
31.0
 30
0.0
 11
-19.59
 21
24.420000000000002
 31
0.0
  0
LINE
  5
1EF
100
AcDbEntity
  8
0
  6
CONTINUOUS
 62
               7
100
AcDbLine
 10
-18.5
 20
32.0
 30
0.0
 11
-18.5
 21
25.0
 31
0.0
  0
LINE
  5
1F0
100
AcDbEntity
  8
0
  6
CONTINUOUS
 62
               7
100
AcDbLine
 10
-16.68
 20
31.0
 30
0.0
 11
-16.68
 21
24.420000000000002
 31
0.0
  0
LINE
  5
1F1
100
AcDbEntity
  8
0
  6
CONTINUOUS
 62
               7
100
AcDbLine
 10
-11.02
 20
31.0
 30
0.0
 11
-11.02
 21
24.420000000000002
 31
0.0
  0
LINE
  5
1F2
100
AcDbEntity
  8
0
  6
CONTINUOUS
 62
               7
100
AcDbLine
 10
-10.050000000000001
 20
32.0
 30
0.0
 11
-10.050000000000001
 21
25.0
 31
0.0
  0
LINE
  5
1F3
100
AcDbEntity
  8
0
  6
CONTINUOUS
 62
               7
100
AcDbLine
 10
-4.29
 20
32.0
 30
0.0
 11
-4.29
 21
25.0
 31
0.0
  0
LINE
  5
1F4
100
AcDbEntity
  8
0
  6
CONTINUOUS
 62
               7
100
AcDbLine
 10
-4.0
 20
31.0
 30
0.0
 11
-4.0
 21
24.420000000000002
 31
0.0
  0
LINE
  5
1F5
100
AcDbEntity
  8
0
  6
CONTINUOUS
 62
               7
100
AcDbLine
 10
-19.59
 20
24.420000000000002
 30
0.0
 11
-16.68
 21
24.420000000000002
 31
0.0
  0
LINE
  5
1F6
100
AcDbEntity
  8
0
  6
CONTINUOUS
 62
               7
100
AcDbLine
 10
-18.5
 20
25.0
 30
0.0
 11
-16.68
 21
25.0
 31
0.0
  0
LINE
  5
1F7
100
AcDbEntity
  8
0
  6
CONTINUOUS
 62
               7
100
AcDbLine
 10
-20.0
 20
31.0
 30
0.0
 11
-19.59
 21
31.0
 31
0.0
  0
LINE
  5
1F8
100
AcDbEntity
  8
0
  6
CONTINUOUS
 62
               7
100
AcDbLine
 10
-20.0
 20
31.0
 30
0.0
 11
-19.0
 21
32.0
 31
0.0
  0
LINE
  5
1F9
100
AcDbEntity
  8
0
  6
CONTINUOUS
 62
               7
100
AcDbLine
 10
-20.0
 20
31.0
 30
0.0
 11
-20.0
 21
22.0
 31
0.0
  0
LINE
  5
1FA
100
AcDbEntity
  8
0
  6
CONTINUOUS
 62
               7
100
AcDbLine
 10
-19.0
 20
32.0
 30
0.0
 11
19.0
 21
32.0
 31
0.0
  0
LINE
  5
1FB
100
AcDbEntity
  8
0
  6
CONTINUOUS
 62
               7
100
AcDbLine
 10
-26.5
 20
-10.0
 30
0.0
 11
-20.0
 21
-10.0
 31
0.0
  0
LINE
  5
1FC
100
AcDbEntity
  8
0
  6
CONTINUOUS
 62
               7
100
AcDbLine
 10
-26.5
 20
10.0
 30
0.0
 11
-20.0
 21
10.0
 31
0.0
  0
LINE
  5
1FD
100
AcDbEntity
  8
0
  6
CENTER
 62
             200
100
AcDbLine
 10
47.119999999999997
 20
-49.0
 30
0.0
 11
39.289999999999999
 21
-49.0
 31
0.0
  0
LINE
  5
1FE
100
AcDbEntity
  8
0
  6
CONTINUOUS
 62
               4
100
AcDbLine
 10
41.799999999999997
 20
-59.0
 30
0.0
 11
45.0
 21
-59.0
 31
0.0
  0
LINE
  5
1FF
100
AcDbEntity
  8
0
  6
CONTINUOUS
 62
               4
100
AcDbLine
 10
28.5
 20
-32.200000000000003
 30
0.0
 11
40.299999999999997
 21
-32.200000000000003
 31
0.0
  0
LINE
  5
200
100
AcDbEntity
  8
0
  6
CONTINUOUS
 62
               4
100
AcDbLine
 10
27.0
 20
-29.0
 30
0.0
 11
40.299999999999997
 21
-29.0
 31
0.0
  0
LINE
  5
201
100
AcDbEntity
  8
0
  6
CONTINUOUS
 62
               7
100
AcDbLine
 10
-27.0
 20
-29.0
 30
0.0
 11
27.0
 21
-29.0
 31
0.0
  0
LINE
  5
202
100
AcDbEntity
  8
0
  6
CONTINUOUS
 62
               7
100
AcDbLine
 10
-21.25
 20
-58.700000000000003
 30
0.0
 11
21.25
 21
-58.700000000000003
 31
0.0
  0
LINE
  5
203
100
AcDbEntity
  8
0
  6
CONTINUOUS
 62
               7
100
AcDbLine
 10
15.06
 20
-58.200000000000003
 30
0.0
 11
15.619999999999999
 21
-42.200000000000003
 31
0.0
  0
LINE
  5
204
100
AcDbEntity
  8
0
  6
CONTINUOUS
 62
               7
100
AcDbLine
 10
4.6100000000000003
 20
-58.200000000000003
 30
0.0
 11
5.1699999999999999
 21
-42.200000000000003
 31
0.0
  0
LINE
  5
205
100
AcDbEntity
  8
0
  6
CONTINUOUS
 62
               7
100
AcDbLine
 10
-5.1699999999999999
 20
-42.200000000000003
 30
0.0
 11
-4.6100000000000003
 21
-58.200000000000003
 31
0.0
  0
LINE
  5
206
100
AcDbEntity
  8
0
  6
CONTINUOUS
 62
               7
100
AcDbLine
 10
-15.619999999999999
 20
-42.200000000000003
 30
0.0
 11
-15.06
 21
-58.200000000000003
 31
0.0
  0
LINE
  5
207
100
AcDbEntity
  8
0
  6
CONTINUOUS
 62
               7
100
AcDbLine
 10
18.57
 20
-58.200000000000003
 30
0.0
 11
19.129999999999999
 21
-42.200000000000003
 31
0.0
  0
LINE
  5
208
100
AcDbEntity
  8
0
  6
CONTINUOUS
 62
               7
100
AcDbLine
 10
-19.120000000000001
 20
-42.200000000000003
 30
0.0
 11
-18.57
 21
-58.200000000000003
 31
0.0
  0
LINE
  5
209
100
AcDbEntity
  8
0
  6
CONTINUOUS
 62
               7
100
AcDbLine
 10
11.17
 20
-62.200000000000003
 30
0.0
 11
9.9299999999999997
 21
-62.850000000000001
 31
0.0
  0
LINE
  5
20A
100
AcDbEntity
  8
0
  6
CONTINUOUS
 62
               7
100
AcDbLine
 10
19.289999999999999
 20
-62.850000000000001
 30
0.0
 11
20.68
 21
-62.200000000000003
 31
0.0
  0
LINE
  5
20B
100
AcDbEntity
  8
0
  6
CONTINUOUS
 62
               7
100
AcDbLine
 10
19.850000000000001
 20
-87.510000000000005
 30
0.0
 11
20.68
 21
-62.200000000000003
 31
0.0
  0
LINE
  5
20C
100
AcDbEntity
  8
0
  6
CONTINUOUS
 62
               7
100
AcDbLine
 10
18.489999999999998
 20
-88.200000000000003
 30
0.0
 11
19.289999999999999
 21
-62.850000000000001
 31
0.0
  0
LINE
  5
20D
100
AcDbEntity
  8
0
  6
CONTINUOUS
 62
               7
100
AcDbLine
 10
18.489999999999998
 20
-88.200000000000003
 30
0.0
 11
19.07
 21
-88.200000000000003
 31
0.0
  0
LINE
  5
20E
100
AcDbEntity
  8
0
  6
CONTINUOUS
 62
               7
100
AcDbLine
 10
19.850000000000001
 20
-87.510000000000005
 30
0.0
 11
18.489999999999998
 21
-88.200000000000003
 31
0.0
  0
LINE
  5
20F
100
AcDbEntity
  8
0
  6
CONTINUOUS
 62
               7
100
AcDbLine
 10
20.25
 20
-87.510000000000005
 30
0.0
 11
19.850000000000001
 21
-87.510000000000005
 31
0.0
  0
LINE
  5
210
100
AcDbEntity
  8
0
  6
CONTINUOUS
 62
               7
100
AcDbLine
 10
16.859999999999999
 20
-87.510000000000005
 30
0.0
 11
18.07
 21
-62.200000000000003
 31
0.0
  0
LINE
  5
211
100
AcDbEntity
  8
0
  6
CONTINUOUS
 62
               7
100
AcDbLine
 10
16.16
 20
-88.200000000000003
 30
0.0
 11
16.859999999999999
 21
-87.510000000000005
 31
0.0
  0
LINE
  5
212
100
AcDbEntity
  8
0
  6
CONTINUOUS
 62
               7
100
AcDbLine
 10
16.16
 20
-88.200000000000003
 30
0.0
 11
9.9900000000000002
 21
-88.200000000000003
 31
0.0
  0
LINE
  5
213
100
AcDbEntity
  8
0
  6
CONTINUOUS
 62
               7
100
AcDbLine
 10
16.859999999999999
 20
-87.510000000000005
 30
0.0
 11
11.199999999999999
 21
-87.510000000000005
 31
0.0
  0
LINE
  5
214
100
AcDbEntity
  8
0
  6
CONTINUOUS
 62
               7
100
AcDbLine
 10
11.17
 20
-62.200000000000003
 30
0.0
 11
4.8799999999999999
 21
-62.200000000000003
 31
0.0
  0
LINE
  5
215
100
AcDbEntity
  8
0
  6
CONTINUOUS
 62
               7
100
AcDbLine
 10
9.9299999999999997
 20
-62.850000000000001
 30
0.0
 11
5.2400000000000002
 21
-62.850000000000001
 31
0.0
  0
LINE
  5
216
100
AcDbEntity
  8
0
  6
CONTINUOUS
 62
               7
100
AcDbLine
 10
11.199999999999999
 20
-87.510000000000005
 30
0.0
 11
11.17
 21
-62.200000000000003
 31
0.0
  0
LINE
  5
217
100
AcDbEntity
  8
0
  6
CONTINUOUS
 62
               7
100
AcDbLine
 10
9.9900000000000002
 20
-88.200000000000003
 30
0.0
 11
9.9299999999999997
 21
-62.850000000000001
 31
0.0
  0
LINE
  5
218
100
AcDbEntity
  8
0
  6
CONTINUOUS
 62
               7
100
AcDbLine
 10
11.199999999999999
 20
-87.510000000000005
 30
0.0
 11
9.9900000000000002
 21
-88.200000000000003
 31
0.0
  0
LINE
  5
219
100
AcDbEntity
  8
0
  6
CONTINUOUS
 62
               7
100
AcDbLine
 10
19.289999999999999
 20
-62.850000000000001
 30
0.0
 11
18.039999999999999
 21
-62.850000000000001
 31
0.0
  0
LINE
  5
21A
100
AcDbEntity
  8
0
  6
CONTINUOUS
 62
               7
100
AcDbLine
 10
21.25
 20
-58.700000000000003
 30
0.0
 11
20.25
 21
-87.510000000000005
 31
0.0
  0
LINE
  5
21B
100
AcDbEntity
  8
0
  6
CONTINUOUS
 62
               7
100
AcDbLine
 10
20.25
 20
-87.510000000000005
 30
0.0
 11
19.07
 21
-88.200000000000003
 31
0.0
  0
LINE
  5
21C
100
AcDbEntity
  8
0
  6
CONTINUOUS
 62
               7
100
AcDbLine
 10
20.68
 20
-62.200000000000003
 30
0.0
 11
18.07
 21
-62.200000000000003
 31
0.0
  0
LINE
  5
21D
100
AcDbEntity
  8
0
  6
CONTINUOUS
 62
               7
100
AcDbLine
 10
19.07
 20
-88.200000000000003
 30
0.0
 11
19.030000000000001
 21
-89.230000000000004
 31
0.0
  0
LINE
  5
21E
100
AcDbEntity
  8
0
  6
CONTINUOUS
 62
               7
100
AcDbLine
 10
4.8799999999999999
 20
-62.200000000000003
 30
0.0
 11
5.2400000000000002
 21
-62.850000000000001
 31
0.0
  0
LINE
  5
21F
100
AcDbEntity
  8
0
  6
CONTINUOUS
 62
               7
100
AcDbLine
 10
-5.2400000000000002
 20
-62.850000000000001
 30
0.0
 11
-4.8799999999999999
 21
-62.200000000000003
 31
0.0
  0
LINE
  5
220
100
AcDbEntity
  8
0
  6
CONTINUOUS
 62
               7
100
AcDbLine
 10
-11.17
 20
-62.200000000000003
 30
0.0
 11
-9.9299999999999997
 21
-62.850000000000001
 31
0.0
  0
LINE
  5
221
100
AcDbEntity
  8
0
  6
CONTINUOUS
 62
               7
100
AcDbLine
 10
-19.289999999999999
 20
-62.850000000000001
 30
0.0
 11
-20.68
 21
-62.200000000000003
 31
0.0
  0
LINE
  5
222
100
AcDbEntity
  8
0
  6
CONTINUOUS
 62
               7
100
AcDbLine
 10
-19.850000000000001
 20
-87.510000000000005
 30
0.0
 11
-20.68
 21
-62.200000000000003
 31
0.0
  0
LINE
  5
223
100
AcDbEntity
  8
0
  6
CONTINUOUS
 62
               7
100
AcDbLine
 10
-18.489999999999998
 20
-88.200000000000003
 30
0.0
 11
-19.289999999999999
 21
-62.850000000000001
 31
0.0
  0
LINE
  5
224
100
AcDbEntity
  8
0
  6
CONTINUOUS
 62
               7
100
AcDbLine
 10
-18.489999999999998
 20
-88.200000000000003
 30
0.0
 11
-19.07
 21
-88.200000000000003
 31
0.0
  0
LINE
  5
225
100
AcDbEntity
  8
0
  6
CONTINUOUS
 62
               7
100
AcDbLine
 10
-19.850000000000001
 20
-87.510000000000005
 30
0.0
 11
-18.489999999999998
 21
-88.200000000000003
 31
0.0
  0
LINE
  5
226
100
AcDbEntity
  8
0
  6
CONTINUOUS
 62
               7
100
AcDbLine
 10
-20.25
 20
-87.510000000000005
 30
0.0
 11
-19.850000000000001
 21
-87.510000000000005
 31
0.0
  0
LINE
  5
227
100
AcDbEntity
  8
0
  6
CONTINUOUS
 62
               7
100
AcDbLine
 10
-16.859999999999999
 20
-87.510000000000005
 30
0.0
 11
-18.07
 21
-62.200000000000003
 31
0.0
  0
LINE
  5
228
100
AcDbEntity
  8
0
  6
CONTINUOUS
 62
               7
100
AcDbLine
 10
-16.16
 20
-88.200000000000003
 30
0.0
 11
-16.859999999999999
 21
-87.510000000000005
 31
0.0
  0
LINE
  5
229
100
AcDbEntity
  8
0
  6
CONTINUOUS
 62
               7
100
AcDbLine
 10
-16.16
 20
-88.200000000000003
 30
0.0
 11
-9.9900000000000002
 21
-88.200000000000003
 31
0.0
  0
LINE
  5
22A
100
AcDbEntity
  8
0
  6
CONTINUOUS
 62
               7
100
AcDbLine
 10
-16.859999999999999
 20
-87.510000000000005
 30
0.0
 11
-11.199999999999999
 21
-87.510000000000005
 31
0.0
  0
LINE
  5
22B
100
AcDbEntity
  8
0
  6
CONTINUOUS
 62
               7
100
AcDbLine
 10
-11.17
 20
-62.200000000000003
 30
0.0
 11
-4.8799999999999999
 21
-62.200000000000003
 31
0.0
  0
LINE
  5
22C
100
AcDbEntity
  8
0
  6
CONTINUOUS
 62
               7
100
AcDbLine
 10
-9.9299999999999997
 20
-62.850000000000001
 30
0.0
 11
-5.2400000000000002
 21
-62.850000000000001
 31
0.0
  0
LINE
  5
22D
100
AcDbEntity
  8
0
  6
CONTINUOUS
 62
               7
100
AcDbLine
 10
-11.199999999999999
 20
-87.510000000000005
 30
0.0
 11
-11.17
 21
-62.200000000000003
 31
0.0
  0
LINE
  5
22E
100
AcDbEntity
  8
0
  6
CONTINUOUS
 62
               7
100
AcDbLine
 10
-9.9900000000000002
 20
-88.200000000000003
 30
0.0
 11
-9.9299999999999997
 21
-62.850000000000001
 31
0.0
  0
LINE
  5
22F
100
AcDbEntity
  8
0
  6
CONTINUOUS
 62
               7
100
AcDbLine
 10
-11.199999999999999
 20
-87.510000000000005
 30
0.0
 11
-9.9900000000000002
 21
-88.200000000000003
 31
0.0
  0
LINE
  5
230
100
AcDbEntity
  8
0
  6
CONTINUOUS
 62
               7
100
AcDbLine
 10
-19.289999999999999
 20
-62.850000000000001
 30
0.0
 11
-18.039999999999999
 21
-62.850000000000001
 31
0.0
  0
LINE
  5
231
100
AcDbEntity
  8
0
  6
CONTINUOUS
 62
               7
100
AcDbLine
 10
4.3600000000000003
 20
-88.200000000000003
 30
0.0
 11
5.2400000000000002
 21
-62.850000000000001
 31
0.0
  0
LINE
  5
232
100
AcDbEntity
  8
0
  6
CONTINUOUS
 62
               7
100
AcDbLine
 10
-5.2400000000000002
 20
-62.850000000000001
 30
0.0
 11
-4.3600000000000003
 21
-88.200000000000003
 31
0.0
  0
LINE
  5
233
100
AcDbEntity
  8
0
  6
CONTINUOUS
 62
               7
100
AcDbLine
 10
4.0
 20
-87.510000000000005
 30
0.0
 11
4.8799999999999999
 21
-62.200000000000003
 31
0.0
  0
LINE
  5
234
100
AcDbEntity
  8
0
  6
CONTINUOUS
 62
               7
100
AcDbLine
 10
-4.8799999999999999
 20
-62.200000000000003
 30
0.0
 11
-4.0
 21
-87.510000000000005
 31
0.0
  0
LINE
  5
235
100
AcDbEntity
  8
0
  6
CONTINUOUS
 62
               7
100
AcDbLine
 10
-4.0
 20
-87.510000000000005
 30
0.0
 11
4.0
 21
-87.510000000000005
 31
0.0
  0
LINE
  5
236
100
AcDbEntity
  8
0
  6
CONTINUOUS
 62
               7
100
AcDbLine
 10
20.77
 20
-58.200000000000003
 30
0.0
 11
21.25
 21
-58.68
 31
0.0
  0
LINE
  5
237
100
AcDbEntity
  8
0
  6
CONTINUOUS
 62
               7
100
AcDbLine
 10
-21.25
 20
-58.700000000000003
 30
0.0
 11
-20.789999999999999
 21
-58.200000000000003
 31
0.0
  0
LINE
  5
238
100
AcDbEntity
  8
0
  6
CONTINUOUS
 62
               7
100
AcDbLine
 10
-21.25
 20
-58.700000000000003
 30
0.0
 11
-20.25
 21
-87.510000000000005
 31
0.0
  0
LINE
  5
239
100
AcDbEntity
  8
0
  6
CONTINUOUS
 62
               7
100
AcDbLine
 10
-20.25
 20
-87.510000000000005
 30
0.0
 11
-19.07
 21
-88.200000000000003
 31
0.0
  0
LINE
  5
23A
100
AcDbEntity
  8
0
  6
CONTINUOUS
 62
               7
100
AcDbLine
 10
-20.68
 20
-62.200000000000003
 30
0.0
 11
-18.07
 21
-62.200000000000003
 31
0.0
  0
LINE
  5
23B
100
AcDbEntity
  8
0
  6
CONTINUOUS
 62
               7
100
AcDbLine
 10
-4.3600000000000003
 20
-88.200000000000003
 30
0.0
 11
4.3600000000000003
 21
-88.200000000000003
 31
0.0
  0
LINE
  5
23C
100
AcDbEntity
  8
0
  6
CONTINUOUS
 62
               7
100
AcDbLine
 10
-20.789999999999999
 20
-58.200000000000003
 30
0.0
 11
20.77
 21
-58.200000000000003
 31
0.0
  0
LINE
  5
23D
100
AcDbEntity
  8
0
  6
CONTINUOUS
 62
               7
100
AcDbLine
 10
-19.07
 20
-88.200000000000003
 30
0.0
 11
-19.030000000000001
 21
-89.230000000000004
 31
0.0
  0
LINE
  5
23E
100
AcDbEntity
  8
0
  6
CONTINUOUS
 62
               7
100
AcDbLine
 10
-18.030000000000001
 20
-90.200000000000003
 30
0.0
 11
18.030000000000001
 21
-90.200000000000003
 31
0.0
  0
LINE
  5
23F
100
AcDbEntity
  8
0
  6
CONTINUOUS
 62
               7
100
AcDbLine
 10
-28.0
 20
-28.0
 30
0.0
 11
28.0
 21
-28.0
 31
0.0
  0
LINE
  5
240
100
AcDbEntity
  8
0
  6
CONTINUOUS
 62
               7
100
AcDbLine
 10
27.0
 20
-29.0
 30
0.0
 11
28.0
 21
-28.0
 31
0.0
  0
LINE
  5
241
100
AcDbEntity
  8
0
  6
CONTINUOUS
 62
               7
100
AcDbLine
 10
-28.0
 20
-28.0
 30
0.0
 11
-27.0
 21
-29.0
 31
0.0
  0
LINE
  5
242
100
AcDbEntity
  8
0
  6
CONTINUOUS
 62
               7
100
AcDbLine
 10
28.0
 20
-12.0
 30
0.0
 11
28.0
 21
-28.0
 31
0.0
  0
LINE
  5
243
100
AcDbEntity
  8
0
  6
CONTINUOUS
 62
               4
100
AcDbLine
 10
-27.5
 20
-29.0
 30
0.0
 11
-27.0
 21
-29.0
 31
0.0
  0
LINE
  5
244
100
AcDbEntity
  8
0
  6
CONTINUOUS
 62
               7
100
AcDbLine
 10
-19.75
 20
22.0
 30
0.0
 11
-19.75
 21
15.25
 31
0.0
  0
LINE
  5
245
100
AcDbEntity
  8
0
  6
CONTINUOUS
 62
               7
100
AcDbLine
 10
19.75
 20
22.0
 30
0.0
 11
19.75
 21
15.25
 31
0.0
  0
LINE
  5
246
100
AcDbEntity
  8
0
  6
CONTINUOUS
 62
               7
100
AcDbLine
 10
-20.0
 20
22.0
 30
0.0
 11
20.0
 21
22.0
 31
0.0
  0
LINE
  5
247
100
AcDbEntity
  8
0
  6
CONTINUOUS
 62
               7
100
AcDbLine
 10
-20.0
 20
-15.0
 30
0.0
 11
20.0
 21
-15.0
 31
0.0
  0
LINE
  5
248
100
AcDbEntity
  8
0
  6
CONTINUOUS
 62
               7
100
AcDbLine
 10
-20.0
 20
15.0
 30
0.0
 11
20.0
 21
15.0
 31
0.0
  0
LINE
  5
249
100
AcDbEntity
  8
0
  6
CONTINUOUS
 62
               7
100
AcDbLine
 10
19.0
 20
16.0
 30
0.0
 11
19.0
 21
-16.0
 31
0.0
  0
LINE
  5
24A
100
AcDbEntity
  8
0
  6
CONTINUOUS
 62
               7
100
AcDbLine
 10
-19.0
 20
16.0
 30
0.0
 11
-19.0
 21
-16.0
 31
0.0
  0
LINE
  5
24B
100
AcDbEntity
  8
0
  6
CONTINUOUS
 62
               7
100
AcDbLine
 10
19.0
 20
16.0
 30
0.0
 11
20.0
 21
15.0
 31
0.0
  0
LINE
  5
24C
100
AcDbEntity
  8
0
  6
CONTINUOUS
 62
               7
100
AcDbLine
 10
19.0
 20
-16.0
 30
0.0
 11
20.0
 21
-15.0
 31
0.0
  0
LINE
  5
24D
100
AcDbEntity
  8
0
  6
CONTINUOUS
 62
               7
100
AcDbLine
 10
-20.0
 20
-15.0
 30
0.0
 11
-19.0
 21
-16.0
 31
0.0
  0
LINE
  5
24E
100
AcDbEntity
  8
0
  6
CONTINUOUS
 62
               7
100
AcDbLine
 10
-20.0
 20
15.0
 30
0.0
 11
-19.0
 21
16.0
 31
0.0
  0
LINE
  5
24F
100
AcDbEntity
  8
0
  6
CONTINUOUS
 62
               7
100
AcDbLine
 10
20.0
 20
15.0
 30
0.0
 11
20.0
 21
-15.0
 31
0.0
  0
LINE
  5
250
100
AcDbEntity
  8
0
  6
CONTINUOUS
 62
               7
100
AcDbLine
 10
-20.0
 20
15.0
 30
0.0
 11
-20.0
 21
-15.0
 31
0.0
  0
LINE
  5
251
100
AcDbEntity
  8
0
  6
CONTINUOUS
 62
               7
100
AcDbLine
 10
-19.0
 20
16.0
 30
0.0
 11
19.0
 21
16.0
 31
0.0
  0
LINE
  5
252
100
AcDbEntity
  8
0
  6
CONTINUOUS
 62
               7
100
AcDbLine
 10
-19.0
 20
-16.0
 30
0.0
 11
19.0
 21
-16.0
 31
0.0
  0
LINE
  5
253
100
AcDbEntity
  8
0
  6
CENTER
 62
               2
100
AcDbLine
 10
0.0
 20
39.329999999999998
 30
0.0
 11
0.0
 21
-98.269999999999996
 31
0.0
  0
LINE
  5
254
100
AcDbEntity
  8
0
  6
CENTER
 62
               2
100
AcDbLine
 10
-69.829999999999998
 20
0.0
 30
0.0
 11
34.159999999999997
 21
0.0
 31
0.0
  0
ENDBLK
  5
255
100
AcDbEntity
  8
0
100
AcDbBlockEnd
  0
BLOCK
  5
256
100
AcDbEntity
  8
0
100
AcDbBlockBegin
  2
MS_3
 70
               0
 10
0.0
 20
0.0
 30
0.0
  3
MS_3
  1

  0
ARC
  5
257
100
AcDbEntity
  8
0
  6
CONTINUOUS
 62
               7
100
AcDbCircle
 10
22.757261623487388
 20
33.494999999999997
 30
0.0
 40
7.6388024755670658
100
AcDbArc
 50
342.43732548922623
 51
17.562674510772986
  0
ARC
  5
258
100
AcDbEntity
  8
0
  6
CONTINUOUS
 62
               7
100
AcDbCircle
 10
28.353795199322004
 20
36.959167007106956
 30
0.0
 40
2.0462049702302147
100
AcDbArc
 50
325.49375656986223
 51
0.0233246322575414
  0
ARC
  5
259
100
AcDbEntity
  8
0
  6
CONTINUOUS
 62
               7
100
AcDbCircle
 10
29.950248214597419
 20
36.945807650956112
 30
0.0
 40
2.0502973355665501
100
AcDbArc
 50
179.60339011252148
 51
213.97627062984688
  0
ARC
  5
25A
100
AcDbEntity
  8
0
  6
CONTINUOUS
 62
               7
100
AcDbCircle
 10
28.356627646468869
 20
30.031712028214478
 30
0.0
 40
2.0433730707376858
100
AcDbArc
 50
359.95199505955139
 51
34.53092373832763
  0
ARC
  5
25B
100
AcDbEntity
  8
0
  6
CONTINUOUS
 62
               7
100
AcDbCircle
 10
29.947421509471141
 20
30.04504523421129
 30
0.0
 40
2.0474767877848015
100
AcDbArc
 50
145.99931559324676
 51
180.4210236643828
  0
ARC
  5
25C
100
AcDbEntity
  8
0
  6
CONTINUOUS
 62
               7
100
AcDbCircle
 10
35.5427261677331
 20
33.494999999999997
 30
0.0
 40
7.6483253041132553
100
AcDbArc
 50
162.45990275769901
 51
197.54009724230013
  0
ARC
  5
25D
100
AcDbEntity
  8
0
  6
CONTINUOUS
 62
               7
100
AcDbCircle
 10
52.896930630750589
 20
-1.7505591115177033
 30
0.0
 40
0.5006070892086862
100
AcDbArc
 50
90.793254003346448
 51
173.05183519780394
  0
ARC
  5
25E
100
AcDbEntity
  8
0
  6
CONTINUOUS
 62
               7
100
AcDbCircle
 10
54.906470402207418
 20
-1.7464172780333949
 30
0.0
 40
0.496429825847181
100
AcDbArc
 50
353.80364296720154
 51
89.592625683928262
  0
ARC
  5
25F
100
AcDbEntity
  8
0
  6
CONTINUOUS
 62
               7
100
AcDbCircle
 10
52.896930630750589
 20
1.7505591115177033
 30
0.0
 40
0.5006070892086862
100
AcDbArc
 50
186.94816480219527
 51
269.20674599665273
  0
ARC
  5
260
100
AcDbEntity
  8
0
  6
CONTINUOUS
 62
               7
100
AcDbCircle
 10
54.906470402207418
 20
1.7464172780333949
 30
0.0
 40
0.496429825847181
100
AcDbArc
 50
270.4073743160709
 51
6.196357032797656
  0
ARC
  5
261
100
AcDbEntity
  8
0
  6
CONTINUOUS
 62
               7
100
AcDbCircle
 10
36.249991665845876
 20
-14.897558674223173
 30
0.0
 40
0.5000654634941231
100
AcDbArc
 50
0.8660798561420514
 51
84.26062365023752
  0
ARC
  5
262
100
AcDbEntity
  8
0
  6
CONTINUOUS
 62
               7
100
AcDbCircle
 10
36.253021741390071
 20
-16.907024847302939
 30
0.0
 40
0.4969871638830609
100
AcDbArc
 50
262.71484653634286
 51
359.65700379507467
  0
ARC
  5
263
100
AcDbEntity
  8
0
  6
CONTINUOUS
 62
               7
100
AcDbCircle
 10
39.750566707633304
 20
-14.896937451752354
 30
0.0
 40
0.5006147790743513
100
AcDbArc
 50
96.948933360610951
 51
179.20597743823762
  0
ARC
  5
264
100
AcDbEntity
  8
0
  6
CONTINUOUS
 62
               7
100
AcDbCircle
 10
39.746417278033398
 20
-16.906470402207415
 30
0.0
 40
0.4964298258471809
100
AcDbArc
 50
180.40737431607192
 51
276.1963570327963
  0
ARC
  5
265
100
AcDbEntity
  8
0
  6
CONTINUOUS
 62
               7
100
AcDbCircle
 10
23.097498190826006
 20
1.7456270147619473
 30
0.0
 40
0.4956333289953195
100
AcDbArc
 50
270.28921322911793
 51
353.55587597203214
  0
ARC
  5
266
100
AcDbEntity
  8
0
  6
CONTINUOUS
 62
               7
100
AcDbCircle
 10
21.089035619414609
 20
1.7513960176496435
 30
0.0
 40
0.5013969450892528
100
AcDbArc
 50
174.43717596170177
 51
270.11020205048447
  0
ARC
  5
267
100
AcDbEntity
  8
0
  6
CONTINUOUS
 62
               7
100
AcDbCircle
 10
23.097498190826006
 20
-1.7456270147619473
 30
0.0
 40
0.4956333289953195
100
AcDbArc
 50
6.4441240279670442
 51
89.710786770881214
  0
ARC
  5
268
100
AcDbEntity
  8
0
  6
CONTINUOUS
 62
               7
100
AcDbCircle
 10
21.089035619414609
 20
-1.7513960176496435
 30
0.0
 40
0.5013969450892528
100
AcDbArc
 50
89.889797949514673
 51
185.56282403829741
  0
ARC
  5
269
100
AcDbEntity
  8
0
  6
CONTINUOUS
 62
               7
100
AcDbCircle
 10
39.746417278033398
 20
16.906470402207415
 30
0.0
 40
0.4964298258471809
100
AcDbArc
 50
83.803642967202876
 51
179.59262568392728
  0
ARC
  5
26A
100
AcDbEntity
  8
0
  6
CONTINUOUS
 62
               7
100
AcDbCircle
 10
39.750566707633304
 20
14.896937451752354
 30
0.0
 40
0.5006147790743513
100
AcDbArc
 50
180.79402256176158
 51
263.0510666393883
  0
ARC
  5
26B
100
AcDbEntity
  8
0
  6
CONTINUOUS
 62
               7
100
AcDbCircle
 10
36.249991665845876
 20
14.897558674223173
 30
0.0
 40
0.5000654634941231
100
AcDbArc
 50
275.7393763497617
 51
359.13392014385715
  0
ARC
  5
26C
100
AcDbEntity
  8
0
  6
CONTINUOUS
 62
               7
100
AcDbCircle
 10
36.253021741390071
 20
16.907024847302939
 30
0.0
 40
0.4969871638830609
100
AcDbArc
 50
0.3429962049245267
 51
97.285153463656286
  0
ARC
  5
26D
100
AcDbEntity
  8
0
  6
CONTINUOUS
 62
               7
100
AcDbCircle
 10
34.000015258812347
 20
-41.500015258812347
 30
0.0
 40
5.0000152588356288
100
AcDbArc
 50
90.000174852575782
 51
179.99982514742365
  0
ARC
  5
26E
100
AcDbEntity
  8
0
  6
CONTINUOUS
 62
               7
100
AcDbCircle
 10
76.000030517578125
 20
-41.499969482421875
 30
0.0
 40
4.9999694825150076
100
AcDbArc
 50
359.99965029217924
 51
90.000349707819751
  0
ARC
  5
26F
100
AcDbEntity
  8
0
  6
CONTINUOUS
 62
               7
100
AcDbCircle
 10
37.992206769911675
 20
0.0018827340328684
 30
0.0
 40
26.997263477116213
100
AcDbArc
 50
227.80690662759918
 51
285.04479854032661
  0
ARC
  5
270
100
AcDbEntity
  8
0
  6
CONTINUOUS
 62
               7
100
AcDbCircle
 10
37.994993026940691
 20
0.0012909985034355
 30
0.0
 40
28.000274879591256
100
AcDbArc
 50
225.58789208663075
 51
285.50479698226781
  0
ARC
  5
271
100
AcDbEntity
  8
0
  6
CONTINUOUS
 62
               7
100
AcDbCircle
 10
37.992206769911675
 20
-0.0018827340328684
 30
0.0
 40
26.997263477116213
100
AcDbArc
 50
74.955201459672594
 51
132.19309337240003
  0
ARC
  5
272
100
AcDbEntity
  8
0
  6
CONTINUOUS
 62
               7
100
AcDbCircle
 10
37.994993026940691
 20
-0.0012909985034355
 30
0.0
 40
28.000274879591256
100
AcDbArc
 50
74.495203017731356
 51
134.41210791336843
  0
ARC
  5
273
100
AcDbEntity
  8
0
  6
CONTINUOUS
 62
               7
100
AcDbCircle
 10
44.0
 20
21.0
 30
0.0
 40
1.0
100
AcDbArc
 50
269.99999999999937
 51
0.0
  0
ARC
  5
274
100
AcDbEntity
  8
0
  6
CONTINUOUS
 62
               7
100
AcDbCircle
 10
66.0
 20
21.0
 30
0.0
 40
1.0
100
AcDbArc
 50
179.9999999999996
 51
269.99999999999937
  0
ARC
  5
275
100
AcDbEntity
  8
0
  6
CONTINUOUS
 62
               7
100
AcDbCircle
 10
66.0
 20
-21.0
 30
0.0
 40
1.0
100
AcDbArc
 50
89.999999999999801
 51
179.9999999999996
  0
ARC
  5
276
100
AcDbEntity
  8
0
  6
CONTINUOUS
 62
               7
100
AcDbCircle
 10
44.0
 20
-21.0
 30
0.0
 40
1.0
100
AcDbArc
 50
0.0
 51
89.999999999999801
  0
CIRCLE
  5
277
100
AcDbEntity
  8
0
  6
CONTINUOUS
 62
               7
100
AcDbCircle
 10
38.0
 20
0.0
 30
0.0
 40
4.25
  0
CIRCLE
  5
278
100
AcDbEntity
  8
0
  6
CONTINUOUS
 62
               7
100
AcDbCircle
 10
38.0
 20
0.0
 30
0.0
 40
14.5
  0
CIRCLE
  5
279
100
AcDbEntity
  8
0
  6
CONTINUOUS
 62
               7
100
AcDbCircle
 10
38.0
 20
0.0
 30
0.0
 40
17.5
  0
CIRCLE
  5
27A
100
AcDbEntity
  8
0
  6
CONTINUOUS
 62
               7
100
AcDbCircle
 10
38.0
 20
0.0
 30
0.0
 40
19.0
  0
CIRCLE
  5
27B
100
AcDbEntity
  8
0
  6
CONTINUOUS
 62
               7
100
AcDbCircle
 10
38.0
 20
0.0
 30
0.0
 40
20.0
  0
LINE
  5
27C
100
AcDbEntity
  8
0
  6
CENTER
 62
               2
100
AcDbLine
 10
43.729999999999997
 20
33.5
 30
0.0
 11
17.329999999999998
 21
33.5
 31
0.0
  0
LINE
  5
27D
100
AcDbEntity
  8
0
  6
CONTINUOUS
 62
               7
100
AcDbLine
 10
34.25
 20
29.5
 30
0.0
 11
34.25
 21
27.739999999999998
 31
0.0
  0
LINE
  5
27E
100
AcDbEntity
  8
0
  6
CONTINUOUS
 62
               7
100
AcDbLine
 10
41.75
 20
29.5
 30
0.0
 11
41.75
 21
27.739999999999998
 31
0.0
  0
LINE
  5
27F
100
AcDbEntity
  8
0
  6
CONTINUOUS
 62
               7
100
AcDbLine
 10
42.5
 20
37.5
 30
0.0
 11
42.5
 21
29.5
 31
0.0
  0
LINE
  5
280
100
AcDbEntity
  8
0
  6
CONTINUOUS
 62
               7
100
AcDbLine
 10
42.5
 20
29.5
 30
0.0
 11
32.0
 21
29.5
 31
0.0
  0
LINE
  5
281
100
AcDbEntity
  8
0
  6
CONTINUOUS
 62
               7
100
AcDbLine
 10
42.5
 20
37.5
 30
0.0
 11
32.0
 21
37.5
 31
0.0
  0
LINE
  5
282
100
AcDbEntity
  8
0
  6
CONTINUOUS
 62
               7
100
AcDbLine
 10
32.0
 20
37.5
 30
0.0
 11
32.0
 21
29.5
 31
0.0
  0
LINE
  5
283
100
AcDbEntity
  8
0
  6
CONTINUOUS
 62
               7
100
AcDbLine
 10
20.399999999999999
 20
31.260000000000002
 30
0.0
 11
18.899999999999999
 21
31.52
 31
0.0
  0
LINE
  5
284
100
AcDbEntity
  8
0
  6
CONTINUOUS
 62
               7
100
AcDbLine
 10
18.899999999999999
 20
35.469999999999999
 30
0.0
 11
18.899999999999999
 21
31.52
 31
0.0
  0
LINE
  5
285
100
AcDbEntity
  8
0
  6
CONTINUOUS
 62
               7
100
AcDbLine
 10
20.399999999999999
 20
35.729999999999997
 30
0.0
 11
18.899999999999999
 21
35.469999999999999
 31
0.0
  0
LINE
  5
286
100
AcDbEntity
  8
0
  6
CONTINUOUS
 62
               7
100
AcDbLine
 10
32.0
 20
37.5
 30
0.0
 11
30.399999999999999
 21
37.5
 31
0.0
  0
LINE
  5
287
100
AcDbEntity
  8
0
  6
CONTINUOUS
 62
               7
100
AcDbLine
 10
32.0
 20
29.5
 30
0.0
 11
30.399999999999999
 21
29.5
 31
0.0
  0
LINE
  5
288
100
AcDbEntity
  8
0
  6
CONTINUOUS
 62
               7
100
AcDbLine
 10
31.399999999999999
 20
37.5
 30
0.0
 11
31.399999999999999
 21
29.5
 31
0.0
  0
LINE
  5
289
100
AcDbEntity
  8
0
  6
CONTINUOUS
 62
               7
100
AcDbLine
 10
30.039999999999999
 20
38.109999999999999
 30
0.0
 11
28.25
 21
38.109999999999999
 31
0.0
  0
LINE
  5
28A
100
AcDbEntity
  8
0
  6
CONTINUOUS
 62
               7
100
AcDbLine
 10
30.039999999999999
 20
38.109999999999999
 30
0.0
 11
30.399999999999999
 21
37.5
 31
0.0
  0
LINE
  5
28B
100
AcDbEntity
  8
0
  6
CONTINUOUS
 62
               7
100
AcDbLine
 10
28.25
 20
38.109999999999999
 30
0.0
 11
27.899999999999999
 21
37.5
 31
0.0
  0
LINE
  5
28C
100
AcDbEntity
  8
0
  6
CONTINUOUS
 62
               7
100
AcDbLine
 10
30.039999999999999
 20
28.879999999999999
 30
0.0
 11
30.399999999999999
 21
29.5
 31
0.0
  0
LINE
  5
28D
100
AcDbEntity
  8
0
  6
CONTINUOUS
 62
               7
100
AcDbLine
 10
30.039999999999999
 20
35.799999999999997
 30
0.0
 11
28.25
 21
35.799999999999997
 31
0.0
  0
LINE
  5
28E
100
AcDbEntity
  8
0
  6
CONTINUOUS
 62
               7
100
AcDbLine
 10
30.039999999999999
 20
31.190000000000001
 30
0.0
 11
28.25
 21
31.190000000000001
 31
0.0
  0
LINE
  5
28F
100
AcDbEntity
  8
0
  6
CONTINUOUS
 62
               7
100
AcDbLine
 10
30.039999999999999
 20
28.879999999999999
 30
0.0
 11
28.25
 21
28.879999999999999
 31
0.0
  0
LINE
  5
290
100
AcDbEntity
  8
0
  6
CONTINUOUS
 62
               7
100
AcDbLine
 10
28.25
 20
28.879999999999999
 30
0.0
 11
27.899999999999999
 21
29.5
 31
0.0
  0
LINE
  5
291
100
AcDbEntity
  8
0
  6
CONTINUOUS
 62
               7
100
AcDbLine
 10
30.399999999999999
 20
37.5
 30
0.0
 11
30.399999999999999
 21
29.5
 31
0.0
  0
LINE
  5
292
100
AcDbEntity
  8
0
  6
CONTINUOUS
 62
               7
100
AcDbLine
 10
27.899999999999999
 20
29.0
 30
0.0
 11
20.399999999999999
 21
29.0
 31
0.0
  0
LINE
  5
293
100
AcDbEntity
  8
0
  6
CONTINUOUS
 62
               7
100
AcDbLine
 10
27.899999999999999
 20
38.0
 30
0.0
 11
20.399999999999999
 21
38.0
 31
0.0
  0
LINE
  5
294
100
AcDbEntity
  8
0
  6
CONTINUOUS
 62
               7
100
AcDbLine
 10
20.399999999999999
 20
38.0
 30
0.0
 11
20.399999999999999
 21
29.0
 31
0.0
  0
LINE
  5
295
100
AcDbEntity
  8
0
  6
CONTINUOUS
 62
               7
100
AcDbLine
 10
27.899999999999999
 20
38.0
 30
0.0
 11
27.899999999999999
 21
29.0
 31
0.0
  0
LINE
  5
296
100
AcDbEntity
  8
0
  6
CENTER
 62
             200
100
AcDbLine
 10
15.5
 20
49.460000000000001
 30
0.0
 11
15.5
 21
37.560000000000002
 31
0.0
  0
LINE
  5
297
100
AcDbEntity
  8
0
  6
CENTER
 62
             200
100
AcDbLine
 10
60.5
 20
49.460000000000001
 30
0.0
 11
60.5
 21
37.25
 31
0.0
  0
LINE
  5
298
100
AcDbEntity
  8
0
  6
CONTINUOUS
 62
               4
100
AcDbLine
 10
73.0
 20
41.799999999999997
 30
0.0
 11
69.290000000000006
 21
20.0
 31
0.0
  0
LINE
  5
299
100
AcDbEntity
  8
0
  6
CONTINUOUS
 62
               4
100
AcDbLine
 10
3.0
 20
41.799999999999997
 30
0.0
 11
6.7000000000000002
 21
20.0
 31
0.0
  0
LINE
  5
29A
100
AcDbEntity
  8
0
  6
CONTINUOUS
 62
               4
100
AcDbLine
 10
73.0
 20
45.0
 30
0.0
 11
73.0
 21
41.799999999999997
 31
0.0
  0
LINE
  5
29B
100
AcDbEntity
  8
0
  6
CONTINUOUS
 62
               4
100
AcDbLine
 10
3.0
 20
45.0
 30
0.0
 11
3.0
 21
41.799999999999997
 31
0.0
  0
LINE
  5
29C
100
AcDbEntity
  8
0
  6
CONTINUOUS
 62
               4
100
AcDbLine
 10
3.0
 20
45.0
 30
0.0
 11
73.0
 21
45.0
 31
0.0
  0
LINE
  5
29D
100
AcDbEntity
  8
0
  6
CONTINUOUS
 62
               7
100
AcDbLine
 10
61.600000000000001
 20
28.469999999999999
 30
0.0
 11
48.390000000000001
 21
28.469999999999999
 31
0.0
  0
LINE
  5
29E
100
AcDbEntity
  8
0
  6
CONTINUOUS
 62
               7
100
AcDbLine
 10
61.600000000000001
 20
28.469999999999999
 30
0.0
 11
61.57
 21
27.5
 31
0.0
  0
LINE
  5
29F
100
AcDbEntity
  8
0
  6
CONTINUOUS
 62
               2
100
AcDbLine
 10
60.759999999999998
 20
28.949999999999999
 30
0.0
 11
60.719999999999999
 21
27.5
 31
0.0
  0
LINE
  5
2A0
100
AcDbEntity
  8
0
  6
CONTINUOUS
 62
               2
100
AcDbLine
 10
49.229999999999997
 20
28.949999999999999
 30
0.0
 11
49.270000000000003
 21
27.5
 31
0.0
  0
LINE
  5
2A1
100
AcDbEntity
  8
0
  6
CONTINUOUS
 62
               7
100
AcDbLine
 10
48.390000000000001
 20
28.469999999999999
 30
0.0
 11
48.420000000000002
 21
27.5
 31
0.0
  0
LINE
  5
2A2
100
AcDbEntity
  8
0
  6
CONTINUOUS
 62
               7
100
AcDbLine
 10
60.390000000000001
 20
29.170000000000002
 30
0.0
 11
61.600000000000001
 21
28.469999999999999
 31
0.0
  0
LINE
  5
2A3
100
AcDbEntity
  8
0
  6
CONTINUOUS
 62
               7
100
AcDbLine
 10
48.390000000000001
 20
28.469999999999999
 30
0.0
 11
49.600000000000001
 21
29.170000000000002
 31
0.0
  0
LINE
  5
2A4
100
AcDbEntity
  8
0
  6
CONTINUOUS
 62
               7
100
AcDbLine
 10
49.600000000000001
 20
29.170000000000002
 30
0.0
 11
60.390000000000001
 21
29.170000000000002
 31
0.0
  0
LINE
  5
2A5
100
AcDbEntity
  8
0
  6
CONTINUOUS
 62
               7
100
AcDbLine
 10
54.909999999999997
 20
-1.25
 30
0.0
 11
52.890000000000001
 21
-1.25
 31
0.0
  0
LINE
  5
2A6
100
AcDbEntity
  8
0
  6
CONTINUOUS
 62
               7
100
AcDbLine
 10
54.909999999999997
 20
1.25
 30
0.0
 11
52.890000000000001
 21
1.25
 31
0.0
  0
LINE
  5
2A7
100
AcDbEntity
  8
0
  6
CONTINUOUS
 62
               7
100
AcDbLine
 10
36.75
 20
-16.91
 30
0.0
 11
36.75
 21
-14.890000000000001
 31
0.0
  0
LINE
  5
2A8
100
AcDbEntity
  8
0
  6
CONTINUOUS
 62
               7
100
AcDbLine
 10
39.25
 20
-16.91
 30
0.0
 11
39.25
 21
-14.890000000000001
 31
0.0
  0
LINE
  5
2A9
100
AcDbEntity
  8
0
  6
CONTINUOUS
 62
               7
100
AcDbLine
 10
21.09
 20
1.25
 30
0.0
 11
23.100000000000001
 21
1.25
 31
0.0
  0
LINE
  5
2AA
100
AcDbEntity
  8
0
  6
CONTINUOUS
 62
               7
100
AcDbLine
 10
21.09
 20
-1.25
 30
0.0
 11
23.100000000000001
 21
-1.25
 31
0.0
  0
LINE
  5
2AB
100
AcDbEntity
  8
0
  6
CONTINUOUS
 62
               2
100
AcDbLine
 10
60.810000000000002
 20
-27.5
 30
0.0
 11
60.829999999999998
 21
-28.0
 31
0.0
  0
LINE
  5
2AC
100
AcDbEntity
  8
0
  6
CONTINUOUS
 62
               7
100
AcDbLine
 10
62.0
 20
-36.5
 30
0.0
 11
48.0
 21
-30.0
 31
0.0
  0
LINE
  5
2AD
100
AcDbEntity
  8
0
  6
CONTINUOUS
 62
               7
100
AcDbLine
 10
48.0
 20
-36.5
 30
0.0
 11
62.0
 21
-30.0
 31
0.0
  0
LINE
  5
2AE
100
AcDbEntity
  8
0
  6
CONTINUOUS
 62
               2
100
AcDbLine
 10
60.82
 20
-28.0
 30
0.0
 11
61.719999999999999
 21
-29.550000000000001
 31
0.0
  0
LINE
  5
2AF
100
AcDbEntity
  8
0
  6
CONTINUOUS
 62
               2
100
AcDbLine
 10
49.170000000000002
 20
-28.0
 30
0.0
 11
48.270000000000003
 21
-29.550000000000001
 31
0.0
  0
LINE
  5
2B0
100
AcDbEntity
  8
0
  6
CONTINUOUS
 62
               7
100
AcDbLine
 10
48.310000000000002
 20
-28.0
 30
0.0
 11
61.68
 21
-28.0
 31
0.0
  0
LINE
  5
2B1
100
AcDbEntity
  8
0
  6
CONTINUOUS
 62
               7
100
AcDbLine
 10
61.670000000000002
 20
-27.5
 30
0.0
 11
61.729999999999997
 21
-30.0
 31
0.0
  0
LINE
  5
2B2
100
AcDbEntity
  8
0
  6
CONTINUOUS
 62
               7
100
AcDbLine
 10
48.32
 20
-27.5
 30
0.0
 11
48.259999999999998
 21
-30.0
 31
0.0
  0
LINE
  5
2B3
100
AcDbEntity
  8
0
  6
CONTINUOUS
 62
               2
100
AcDbLine
 10
49.18
 20
-27.5
 30
0.0
 11
49.170000000000002
 21
-28.0
 31
0.0
  0
LINE
  5
2B4
100
AcDbEntity
  8
0
  6
CONTINUOUS
 62
               7
100
AcDbLine
 10
62.0
 20
-36.5
 30
0.0
 11
62.0
 21
-30.0
 31
0.0
  0
LINE
  5
2B5
100
AcDbEntity
  8
0
  6
CONTINUOUS
 62
               7
100
AcDbLine
 10
48.0
 20
-36.5
 30
0.0
 11
48.0
 21
-30.0
 31
0.0
  0
LINE
  5
2B6
100
AcDbEntity
  8
0
  6
CONTINUOUS
 62
               7
100
AcDbLine
 10
48.0
 20
-30.0
 30
0.0
 11
62.0
 21
-30.0
 31
0.0
  0
LINE
  5
2B7
100
AcDbEntity
  8
0
  6
CONTINUOUS
 62
               7
100
AcDbLine
 10
81.0
 20
-61.0
 30
0.0
 11
81.0
 21
-41.5
 31
0.0
  0
LINE
  5
2B8
100
AcDbEntity
  8
0
  6
CONTINUOUS
 62
               7
100
AcDbLine
 10
29.0
 20
-61.0
 30
0.0
 11
29.0
 21
-41.5
 31
0.0
  0
LINE
  5
2B9
100
AcDbEntity
  8
0
  6
CONTINUOUS
 62
               7
100
AcDbLine
 10
34.0
 20
-36.5
 30
0.0
 11
76.0
 21
-36.5
 31
0.0
  0
LINE
  5
2BA
100
AcDbEntity
  8
0
  6
CONTINUOUS
 62
               7
100
AcDbLine
 10
28.75
 20
-61.0
 30
0.0
 11
81.25
 21
-61.0
 31
0.0
  0
LINE
  5
2BB
100
AcDbEntity
  8
0
  6
CONTINUOUS
 62
               7
100
AcDbLine
 10
81.25
 20
-64.0
 30
0.0
 11
81.25
 21
-61.0
 31
0.0
  0
LINE
  5
2BC
100
AcDbEntity
  8
0
  6
CONTINUOUS
 62
               7
100
AcDbLine
 10
28.75
 20
-64.0
 30
0.0
 11
28.75
 21
-61.0
 31
0.0
  0
LINE
  5
2BD
100
AcDbEntity
  8
0
  6
CONTINUOUS
 62
               7
100
AcDbLine
 10
28.75
 20
-64.0
 30
0.0
 11
81.25
 21
-64.0
 31
0.0
  0
LINE
  5
2BE
100
AcDbEntity
  8
0
  6
CENTER
 62
               2
100
AcDbLine
 10
55.0
 20
-16.48
 30
0.0
 11
55.0
 21
-67.219999999999999
 31
0.0
  0
LINE
  5
2BF
100
AcDbEntity
  8
0
  6
CONTINUOUS
 62
               7
100
AcDbLine
 10
5.0
 20
-3.0
 30
0.0
 11
13.24
 21
0.0
 31
0.0
  0
LINE
  5
2C0
100
AcDbEntity
  8
0
  6
CONTINUOUS
 62
               7
100
AcDbLine
 10
5.0
 20
3.0
 30
0.0
 11
13.24
 21
0.0
 31
0.0
  0
LINE
  5
2C1
100
AcDbEntity
  8
0
  6
CONTINUOUS
 62
               7
100
AcDbLine
 10
5.0
 20
3.0
 30
0.0
 11
5.0
 21
-3.0
 31
0.0
  0
LINE
  5
2C2
100
AcDbEntity
  8
0
  6
CONTINUOUS
 62
               7
100
AcDbLine
 10
75.0
 20
-20.0
 30
0.0
 11
75.0
 21
20.0
 31
0.0
  0
LINE
  5
2C3
100
AcDbEntity
  8
0
  6
CONTINUOUS
 62
               7
100
AcDbLine
 10
1.0
 20
20.0
 30
0.0
 11
1.0
 21
-20.0
 31
0.0
  0
LINE
  5
2C4
100
AcDbEntity
  8
0
  6
CONTINUOUS
 62
               7
100
AcDbLine
 10
45.0
 20
26.5
 30
0.0
 11
65.0
 21
26.5
 31
0.0
  0
LINE
  5
2C5
100
AcDbEntity
  8
0
  6
CONTINUOUS
 62
               7
100
AcDbLine
 10
45.0
 20
-26.5
 30
0.0
 11
65.0
 21
-26.5
 31
0.0
  0
LINE
  5
2C6
100
AcDbEntity
  8
0
  6
CONTINUOUS
 62
               7
100
AcDbLine
 10
76.0
 20
-19.0
 30
0.0
 11
44.240000000000002
 21
-19.0
 31
0.0
  0
LINE
  5
2C7
100
AcDbEntity
  8
0
  6
CONTINUOUS
 62
               7
100
AcDbLine
 10
0.0
 20
-19.0
 30
0.0
 11
31.75
 21
-19.0
 31
0.0
  0
LINE
  5
2C8
100
AcDbEntity
  8
0
  6
CONTINUOUS
 62
               7
100
AcDbLine
 10
76.0
 20
19.0
 30
0.0
 11
44.240000000000002
 21
19.0
 31
0.0
  0
LINE
  5
2C9
100
AcDbEntity
  8
0
  6
CONTINUOUS
 62
               7
100
AcDbLine
 10
0.0
 20
19.0
 30
0.0
 11
31.75
 21
19.0
 31
0.0
  0
LINE
  5
2CA
100
AcDbEntity
  8
0
  6
CONTINUOUS
 62
               7
100
AcDbLine
 10
65.0
 20
-21.0
 30
0.0
 11
65.0
 21
-26.5
 31
0.0
  0
LINE
  5
2CB
100
AcDbEntity
  8
0
  6
CONTINUOUS
 62
               7
100
AcDbLine
 10
45.0
 20
-21.0
 30
0.0
 11
45.0
 21
-26.5
 31
0.0
  0
LINE
  5
2CC
100
AcDbEntity
  8
0
  6
CONTINUOUS
 62
               7
100
AcDbLine
 10
64.0
 20
-27.5
 30
0.0
 11
65.0
 21
-26.5
 31
0.0
  0
LINE
  5
2CD
100
AcDbEntity
  8
0
  6
CONTINUOUS
 62
               7
100
AcDbLine
 10
45.0
 20
-26.5
 30
0.0
 11
46.0
 21
-27.5
 31
0.0
  0
LINE
  5
2CE
100
AcDbEntity
  8
0
  6
CONTINUOUS
 62
               7
100
AcDbLine
 10
64.0
 20
27.5
 30
0.0
 11
65.0
 21
26.5
 31
0.0
  0
LINE
  5
2CF
100
AcDbEntity
  8
0
  6
CONTINUOUS
 62
               7
100
AcDbLine
 10
45.0
 20
26.5
 30
0.0
 11
46.0
 21
27.5
 31
0.0
  0
LINE
  5
2D0
100
AcDbEntity
  8
0
  6
CONTINUOUS
 62
               7
100
AcDbLine
 10
46.0
 20
27.5
 30
0.0
 11
64.0
 21
27.5
 31
0.0
  0
LINE
  5
2D1
100
AcDbEntity
  8
0
  6
CONTINUOUS
 62
               7
100
AcDbLine
 10
46.0
 20
-27.5
 30
0.0
 11
64.0
 21
-27.5
 31
0.0
  0
LINE
  5
2D2
100
AcDbEntity
  8
0
  6
CONTINUOUS
 62
               7
100
AcDbLine
 10
45.0
 20
26.5
 30
0.0
 11
45.0
 21
21.0
 31
0.0
  0
LINE
  5
2D3
100
AcDbEntity
  8
0
  6
CONTINUOUS
 62
               7
100
AcDbLine
 10
65.0
 20
26.5
 30
0.0
 11
65.0
 21
21.0
 31
0.0
  0
LINE
  5
2D4
100
AcDbEntity
  8
0
  6
CENTER
 62
               2
100
AcDbLine
 10
55.0
 20
32.829999999999998
 30
0.0
 11
55.0
 21
13.91
 31
0.0
  0
LINE
  5
2D5
100
AcDbEntity
  8
0
  6
CONTINUOUS
 62
               7
100
AcDbLine
 10
75.0
 20
20.0
 30
0.0
 11
76.0
 21
19.0
 31
0.0
  0
LINE
  5
2D6
100
AcDbEntity
  8
0
  6
CONTINUOUS
 62
               7
100
AcDbLine
 10
75.0
 20
-20.0
 30
0.0
 11
76.0
 21
-19.0
 31
0.0
  0
LINE
  5
2D7
100
AcDbEntity
  8
0
  6
CONTINUOUS
 62
               7
100
AcDbLine
 10
0.0
 20
-19.0
 30
0.0
 11
1.0
 21
-20.0
 31
0.0
  0
LINE
  5
2D8
100
AcDbEntity
  8
0
  6
CONTINUOUS
 62
               7
100
AcDbLine
 10
0.0
 20
19.0
 30
0.0
 11
1.0
 21
20.0
 31
0.0
  0
LINE
  5
2D9
100
AcDbEntity
  8
0
  6
CONTINUOUS
 62
               7
100
AcDbLine
 10
0.0
 20
19.0
 30
0.0
 11
0.0
 21
-19.0
 31
0.0
  0
LINE
  5
2DA
100
AcDbEntity
  8
0
  6
CONTINUOUS
 62
               7
100
AcDbLine
 10
76.0
 20
19.0
 30
0.0
 11
76.0
 21
-19.0
 31
0.0
  0
LINE
  5
2DB
100
AcDbEntity
  8
0
  6
CONTINUOUS
 62
               7
100
AcDbLine
 10
1.0
 20
20.0
 30
0.0
 11
75.0
 21
20.0
 31
0.0
  0
LINE
  5
2DC
100
AcDbEntity
  8
0
  6
CONTINUOUS
 62
               7
100
AcDbLine
 10
1.0
 20
-20.0
 30
0.0
 11
75.0
 21
-20.0
 31
0.0
  0
LINE
  5
2DD
100
AcDbEntity
  8
0
  6
CONTINUOUS
 62
               7
100
AcDbLine
 10
36.75
 20
16.91
 30
0.0
 11
36.75
 21
14.890000000000001
 31
0.0
  0
LINE
  5
2DE
100
AcDbEntity
  8
0
  6
CONTINUOUS
 62
               7
100
AcDbLine
 10
39.25
 20
16.91
 30
0.0
 11
39.25
 21
14.890000000000001
 31
0.0
  0
LINE
  5
2DF
100
AcDbEntity
  8
0
  6
CENTER
 62
               2
100
AcDbLine
 10
-4.9800000000000004
 20
0.0
 30
0.0
 11
81.430000000000007
 21
0.0
 31
0.0
  0
LINE
  5
2E0
100
AcDbEntity
  8
0
  6
CENTER
 62
               2
100
AcDbLine
 10
38.0
 20
49.460000000000001
 30
0.0
 11
38.0
 21
-31.510000000000002
 31
0.0
  0
ENDBLK
  5
2E1
100
AcDbEntity
  8
0
100
AcDbBlockEnd
  0
ENDSEC
  0
SECTION
  2
ENTITIES
  0
MTEXT
  5
2E2
100
AcDbEntity
  8
0
  6
CONTINUOUS
 62
               2
100
AcDbMText
 10
-120.18154850769042
 20
-33.352374076843262
 30
0.0
 40
3.1999998092651367
 41
0.0
 71
               7
 72
               1
  1
\W1.200;\A1;IN
  7
MX_NOTE_STANDARD
  0
MTEXT
  5
2E3
100
AcDbEntity
  8
0
  6
CONTINUOUS
 62
               2
100
AcDbMText
 10
-4.288215160369873
 20
-33.352328300476074
 30
0.0
 40
3.1999998092651367
 41
0.0
 71
               7
 72
               1
  1
\A1;OUT
  7
MX_NOTE_STANDARD
  0
INSERT
  5
2E4
100
AcDbEntity
  8
0
100
AcDbBlockReference
  2
MS_3
 10
-97.919876098632812
 20
75.858062744140625
 30
0.0
  0
INSERT
  5
2E5
100
AcDbEntity
  8
0
100
AcDbBlockReference
  2
MS_2
 10
87.66717529296875
 20
-34.152297973632813
 30
0.0
  0
INSERT
  5
2E6
100
AcDbEntity
  8
0
100
AcDbBlockReference
  2
MS_1
 10
-95.919891357421875
 20
-34.15228271484375
 30
0.0
  0
MTEXT
  5
2E7
100
AcDbEntity
  8
0
  6
CONTINUOUS
 62
               7
100
AcDbMText
 10
-176.24999888737997
 20
125.10000610351562
 30
0.0
 40
4.1999998092651367
 41
0.0
 71
               4
 72
               1
  1
\A1;CS-REGULATOR
  7
MX_NOTE_STANDARD
  0
MTEXT
  5
2E8
100
AcDbEntity
  8
0
  6
CONTINUOUS
 62
               7
100
AcDbMText
 10
-185.59494375661833
 20
107.60000610351562
 30
0.0
 40
4.1999998092651367
 41
0.0
 71
               4
 72
               1
  1
\W1.079;\A1;MODEL:CS-R600-03
  7
MX_NOTE_STANDARD
  0
MTEXT
  5
2E9
100
AcDbEntity
  8
0
  6
CONTINUOUS
 62
               7
100
AcDbMText
 10
115.5267259825148
 20
-126.0
 30
0.0
 40
6.3000001907348633
 41
0.0
 71
               4
 72
               1
  1
\W1.121;\A1;KOGANEI CORP.
  7
MX_NOTE_STANDARD
  0
MTEXT
  5
2EA
100
AcDbEntity
  8
0
  6
CONTINUOUS
 62
               7
100
AcDbMText
 10
137.50455163152421
 20
125.10000610351562
 30
0.0
 40
4.5
 41
0.0
 71
               4
 72
               1
  1
\W1.273;\A1;Ver.1.0
  7
MX_NOTE_STANDARD
  0
LINE
  5
2EB
100
AcDbEntity
  8
0
  6
CONTINUOUS
 62
               7
100
AcDbLine
 10
-194.25
 20
-133.5
 30
0.0
 11
194.80000000000001
 21
-133.5
 31
0.0
  0
LINE
  5
2EC
100
AcDbEntity
  8
0
  6
CONTINUOUS
 62
               7
100
AcDbLine
 10
-109.25
 20
132.59999999999999
 30
0.0
 11
-109.25
 21
117.59999999999999
 31
0.0
  0
LINE
  5
2ED
100
AcDbEntity
  8
0
  6
CONTINUOUS
 62
               7
100
AcDbLine
 10
-194.25
 20
117.59999999999999
 30
0.0
 11
-109.25
 21
117.59999999999999
 31
0.0
  0
LINE
  5
2EE
100
AcDbEntity
  8
0
  6
CONTINUOUS
 62
               7
100
AcDbLine
 10
109.8
 20
117.59999999999999
 30
0.0
 11
194.80000000000001
 21
117.59999999999999
 31
0.0
  0
LINE
  5
2EF
100
AcDbEntity
  8
0
  6
CONTINUOUS
 62
               7
100
AcDbLine
 10
109.8
 20
132.59999999999999
 30
0.0
 11
109.8
 21
117.59999999999999
 31
0.0
  0
LINE
  5
2F0
100
AcDbEntity
  8
0
  6
CONTINUOUS
 62
               7
100
AcDbLine
 10
109.8
 20
-118.5
 30
0.0
 11
194.80000000000001
 21
-118.5
 31
0.0
  0
LINE
  5
2F1
100
AcDbEntity
  8
0
  6
CONTINUOUS
 62
               7
100
AcDbLine
 10
109.8
 20
-118.5
 30
0.0
 11
109.8
 21
-133.5
 31
0.0
  0
LINE
  5
2F2
100
AcDbEntity
  8
0
  6
CONTINUOUS
 62
               7
100
AcDbLine
 10
-194.25
 20
132.59999999999999
 30
0.0
 11
-194.25
 21
-133.5
 31
0.0
  0
LINE
  5
2F3
100
AcDbEntity
  8
0
  6
CONTINUOUS
 62
               7
100
AcDbLine
 10
194.80000000000001
 20
132.59999999999999
 30
0.0
 11
194.80000000000001
 21
-133.5
 31
0.0
  0
LINE
  5
2F4
100
AcDbEntity
  8
0
  6
CONTINUOUS
 62
               7
100
AcDbLine
 10
-194.25
 20
132.59999999999999
 30
0.0
 11
194.80000000000001
 21
132.59999999999999
 31
0.0
  0
ENDSEC
  0
SECTION
  2
OBJECTS
  0
DICTIONARY
  5
19
100
AcDbDictionary
  3
ACAD_GROUP
350
1A
  3
ACAD_MLINESTYLE
350
1B
  0
DICTIONARY
  5
1A
102
{ACAD_REACTORS
330
19
102
}
100
AcDbDictionary
  0
DICTIONARY
  5
1B
102
{ACAD_REACTORS
330
19
102
}
100
AcDbDictionary
  3
STANDARD
350
1C
  0
MLINESTYLE
  5
1C
102
{ACAD_REACTORS
330
1B
102
}
100
AcDbMlineStyle
  2
Standard
 70
               0
  3

 62
               0
 51
90.0
 52
90.0
 71
               2
 49
0.5
 62
             256
  6
ByLayer
 49
-0.5
 62
             256
  6
ByLayer
  0
ENDSEC
  0
EOF
