  0
SECTION
  2
HEADER
  9
$ACADVER
  1
AC1015
  9
$ACADMAINTVER
 70
    20
  9
$DWGCODEPAGE
  3
ANSI_932
  9
$INSBASE
 10
0.0
 20
0.0
 30
0.0
  9
$EXTMIN
 10
-281.25
 20
-195.0
 30
0.0
  9
$EXTMAX
 10
283.9503980228688
 20
195.5
 30
0.0
  9
$LIMMIN
 10
-281.25
 20
-195.0
  9
$LIMMAX
 10
285.5999879837036
 20
195.5
  9
$ORTHOMODE
 70
     0
  9
$REGENMODE
 70
     1
  9
$FILLMODE
 70
     1
  9
$QTEXTMODE
 70
     0
  9
$MIRRTEXT
 70
     1
  9
$LTSCALE
 40
1.0
  9
$ATTMODE
 70
     1
  9
$TEXTSIZE
 40
3.200000047683715
  9
$TRACEWID
 40
0.05
  9
$TEXTSTYLE
  7
MX_NOTE_STANDARD
  9
$CLAYER
  8
0
  9
$CELTYPE
  6
CONTINUOUS
  9
$CECOLOR
 62
   256
  9
$CELTSCALE
 40
1.0
  9
$DISPSILH
 70
     0
  9
$DIMSCALE
 40
1.0
  9
$DIMASZ
 40
2.5
  9
$DIMEXO
 40
1.5
  9
$DIMDLI
 40
3.75
  9
$DIMRND
 40
0.0
  9
$DIMDLE
 40
0.0
  9
$DIMEXE
 40
1.5
  9
$DIMTP
 40
0.0
  9
$DIMTM
 40
0.0
  9
$DIMTXT
 40
3.200000047683715
  9
$DIMCEN
 40
2.5
  9
$DIMTSZ
 40
0.0
  9
$DIMTOL
 70
     0
  9
$DIMLIM
 70
     0
  9
$DIMTIH
 70
     0
  9
$DIMTOH
 70
     0
  9
$DIMSE1
 70
     0
  9
$DIMSE2
 70
     0
  9
$DIMTAD
 70
     1
  9
$DIMZIN
 70
     8
  9
$DIMBLK
  1

  9
$DIMASO
 70
     1
  9
$DIMSHO
 70
     1
  9
$DIMPOST
  1

  9
$DIMAPOST
  1

  9
$DIMALT
 70
     0
  9
$DIMALTD
 70
     4
  9
$DIMALTF
 40
0.03937007874016
  9
$DIMLFAC
 40
1.0
  9
$DIMTOFL
 70
     1
  9
$DIMTVP
 40
0.0
  9
$DIMTIX
 70
     0
  9
$DIMSOXD
 70
     0
  9
$DIMSAH
 70
     0
  9
$DIMBLK1
  1

  9
$DIMBLK2
  1

  9
$DIMSTYLE
  2
MXDIMSTYLE
  9
$DIMCLRD
 70
     0
  9
$DIMCLRE
 70
     0
  9
$DIMCLRT
 70
     0
  9
$DIMTFAC
 40
1.0
  9
$DIMGAP
 40
1.0
  9
$DIMJUST
 70
     0
  9
$DIMSD1
 70
     0
  9
$DIMSD2
 70
     0
  9
$DIMTOLJ
 70
     1
  9
$DIMTZIN
 70
     0
  9
$DIMALTZ
 70
     0
  9
$DIMALTTZ
 70
     0
  9
$DIMUPT
 70
     1
  9
$DIMDEC
 70
     4
  9
$DIMTDEC
 70
     4
  9
$DIMALTU
 70
     2
  9
$DIMALTTD
 70
     4
  9
$DIMTXSTY
  7
MX_NOTE_STANDARD
  9
$DIMAUNIT
 70
     0
  9
$DIMADEC
 70
     0
  9
$DIMALTRND
 40
0.0
  9
$DIMAZIN
 70
     0
  9
$DIMDSEP
 70
    46
  9
$DIMATFIT
 70
     3
  9
$DIMFRAC
 70
     0
  9
$DIMLDRBLK
  1

  9
$DIMLUNIT
 70
     2
  9
$DIMLWD
 70
    -2
  9
$DIMLWE
 70
    -2
  9
$DIMTMOVE
 70
     0
  9
$LUNITS
 70
     2
  9
$LUPREC
 70
     4
  9
$SKETCHINC
 40
0.1
  9
$FILLETRAD
 40
0.0
  9
$AUNITS
 70
     0
  9
$AUPREC
 70
     0
  9
$MENU
  1
acad
  9
$ELEVATION
 40
0.0
  9
$PELEVATION
 40
0.0
  9
$THICKNESS
 40
0.0
  9
$LIMCHECK
 70
     0
  9
$CHAMFERA
 40
0.0
  9
$CHAMFERB
 40
0.0
  9
$CHAMFERC
 40
0.0
  9
$CHAMFERD
 40
0.0
  9
$SKPOLY
 70
     0
  9
$TDCREATE
 40
2453510.799872685
  9
$TDUCREATE
 40
2453510.424872686
  9
$TDUPDATE
 40
2454034.808316157
  9
$TDUUPDATE
 40
2454034.433316157
  9
$TDINDWG
 40
0.0002875694
  9
$TDUSRTIMER
 40
0.0002854051
  9
$USRTIMER
 70
     1
  9
$ANGBASE
 50
0.0
  9
$ANGDIR
 70
     0
  9
$PDMODE
 70
     0
  9
$PDSIZE
 40
0.0
  9
$PLINEWID
 40
0.0
  9
$SPLFRAME
 70
     0
  9
$SPLINETYPE
 70
     6
  9
$SPLINESEGS
 70
     8
  9
$HANDSEED
  5
253
  9
$SURFTAB1
 70
     6
  9
$SURFTAB2
 70
     6
  9
$SURFTYPE
 70
     6
  9
$SURFU
 70
     6
  9
$SURFV
 70
     6
  9
$UCSBASE
  2

  9
$UCSNAME
  2

  9
$UCSORG
 10
0.0
 20
0.0
 30
0.0
  9
$UCSXDIR
 10
1.0
 20
0.0
 30
0.0
  9
$UCSYDIR
 10
0.0
 20
1.0
 30
0.0
  9
$UCSORTHOREF
  2

  9
$UCSORTHOVIEW
 70
     0
  9
$UCSORGTOP
 10
0.0
 20
0.0
 30
0.0
  9
$UCSORGBOTTOM
 10
0.0
 20
0.0
 30
0.0
  9
$UCSORGLEFT
 10
0.0
 20
0.0
 30
0.0
  9
$UCSORGRIGHT
 10
0.0
 20
0.0
 30
0.0
  9
$UCSORGFRONT
 10
0.0
 20
0.0
 30
0.0
  9
$UCSORGBACK
 10
0.0
 20
0.0
 30
0.0
  9
$PUCSBASE
  2

  9
$PUCSNAME
  2

  9
$PUCSORG
 10
0.0
 20
0.0
 30
0.0
  9
$PUCSXDIR
 10
1.0
 20
0.0
 30
0.0
  9
$PUCSYDIR
 10
0.0
 20
1.0
 30
0.0
  9
$PUCSORTHOREF
  2

  9
$PUCSORTHOVIEW
 70
     0
  9
$PUCSORGTOP
 10
0.0
 20
0.0
 30
0.0
  9
$PUCSORGBOTTOM
 10
0.0
 20
0.0
 30
0.0
  9
$PUCSORGLEFT
 10
0.0
 20
0.0
 30
0.0
  9
$PUCSORGRIGHT
 10
0.0
 20
0.0
 30
0.0
  9
$PUCSORGFRONT
 10
0.0
 20
0.0
 30
0.0
  9
$PUCSORGBACK
 10
0.0
 20
0.0
 30
0.0
  9
$USERI1
 70
     0
  9
$USERI2
 70
     0
  9
$USERI3
 70
     0
  9
$USERI4
 70
     0
  9
$USERI5
 70
     0
  9
$USERR1
 40
0.0
  9
$USERR2
 40
0.0
  9
$USERR3
 40
0.0
  9
$USERR4
 40
0.0
  9
$USERR5
 40
0.0
  9
$WORLDVIEW
 70
     1
  9
$SHADEDGE
 70
     3
  9
$SHADEDIF
 70
    70
  9
$TILEMODE
 70
     1
  9
$MAXACTVP
 70
    16
  9
$PINSBASE
 10
0.0
 20
0.0
 30
0.0
  9
$PLIMCHECK
 70
     0
  9
$PEXTMIN
 10
1.000000000000000E+20
 20
1.000000000000000E+20
 30
1.000000000000000E+20
  9
$PEXTMAX
 10
-1.000000000000000E+20
 20
-1.000000000000000E+20
 30
-1.000000000000000E+20
  9
$PLIMMIN
 10
0.0
 20
0.0
  9
$PLIMMAX
 10
12.0
 20
9.0
  9
$UNITMODE
 70
     0
  9
$VISRETAIN
 70
     0
  9
$PLINEGEN
 70
     1
  9
$PSLTSCALE
 70
     0
  9
$TREEDEPTH
 70
  3020
  9
$CMLSTYLE
  2
STANDARD
  9
$CMLJUST
 70
     0
  9
$CMLSCALE
 40
1.0
  9
$PROXYGRAPHICS
 70
     1
  9
$MEASUREMENT
 70
     0
  9
$CELWEIGHT
370
    -1
  9
$ENDCAPS
280
     0
  9
$JOINSTYLE
280
     0
  9
$LWDISPLAY
290
     0
  9
$INSUNITS
 70
     0
  9
$HYPERLINKBASE
  1

  9
$STYLESHEET
  1

  9
$XEDIT
290
     1
  9
$CEPSNTYPE
380
     0
  9
$PSTYLEMODE
290
     1
  9
$FINGERPRINTGUID
  2
{E17A68EE-A08D-437F-A6E4-BF98F3E4196C}
  9
$VERSIONGUID
  2
{A2A04BBC-D57C-430E-B90C-9E40EC874E97}
  9
$EXTNAMES
290
     1
  9
$PSVPSCALE
 40
0.0
  9
$OLESTARTUP
290
     0
  0
ENDSEC
  0
SECTION
  2
CLASSES
  0
CLASS
  1
IMAGE
  2
AcDbRasterImage
  3
ISM
 90
    32895
280
     0
281
     1
  0
CLASS
  1
DICTIONARYVAR
  2
AcDbDictionaryVar
  3
ObjectDBX Classes
 90
        0
280
     0
281
     0
  0
CLASS
  1
RASTERVARIABLES
  2
AcDbRasterVariables
  3
ISM
 90
    32768
280
     0
281
     0
  0
CLASS
  1
IMAGEDEF
  2
AcDbRasterImageDef
  3
ISM
 90
    32768
280
     0
281
     0
  0
CLASS
  1
IMAGEDEF_REACTOR
  2
AcDbRasterImageDefReactor
  3
ISM
 90
    32769
280
     0
281
     0
  0
CLASS
  1
IDBUFFER
  2
AcDbIdBuffer
  3
ObjectDBX Classes
 90
    32768
280
     0
281
     0
  0
CLASS
  1
SPATIAL_FILTER
  2
AcDbSpatialFilter
  3
ObjectDBX Classes
 90
    32768
280
     0
281
     0
  0
CLASS
  1
SORTENTSTABLE
  2
AcDbSortentsTable
  3
ObjectDBX Classes
 90
    32768
280
     0
281
     0
  0
CLASS
  1
LAYER_INDEX
  2
AcDbLayerIndex
  3
ObjectDBX Classes
 90
    32768
280
     0
281
     0
  0
CLASS
  1
SPATIAL_INDEX
  2
AcDbSpatialIndex
  3
ObjectDBX Classes
 90
    32768
280
     0
281
     0
  0
CLASS
  1
OBJECT_PTR
  2
CAseDLPNTableRecord
  3
"ASE-LPNTableRecord"
 90
    32768
280
     0
281
     0
  0
CLASS
  1
LAYOUT
  2
AcDbLayout
  3
ObjectDBX Classes
 90
        0
280
     0
281
     0
  0
CLASS
  1
PLOTSETTINGS
  2
AcDbPlotSettings
  3
ObjectDBX Classes
 90
    32768
280
     0
281
     0
  0
CLASS
  1
ACDBDICTIONARYWDFLT
  2
AcDbDictionaryWithDefault
  3
ObjectDBX Classes
 90
        0
280
     0
281
     0
  0
CLASS
  1
ACDBPLACEHOLDER
  2
AcDbPlaceHolder
  3
ObjectDBX Classes
 90
        0
280
     0
281
     0
  0
CLASS
  1
TABLESTYLE
  2
AcDbTableStyle
  3
ObjectDBX Classes
 90
     2047
280
     0
281
     0
  0
ENDSEC
  0
SECTION
  2
TABLES
  0
TABLE
  2
VPORT
  5
7
330
0
100
AcDbSymbolTable
 70
     2
  0
VPORT
  5
24D
330
7
100
AcDbSymbolTableRecord
100
AcDbViewportTableRecord
  2
*Active
 70
     0
 10
0.0
 20
0.0
 11
1.0
 21
1.0
 12
2.174993991851863
 22
64.08617879894894
 13
0.0
 23
0.0
 14
1.0
 24
1.0
 15
0.0
 25
0.0
 16
0.0
 26
0.0
 36
1.0
 17
0.0
 27
0.0
 37
0.0
 40
522.0773575978978
 41
1.308483290488431
 42
50.0
 43
0.0
 44
0.0
 50
0.0
 51
0.0
 71
     0
 72
   100
 73
     1
 74
     1
 75
     0
 76
     0
 77
     0
 78
     0
281
     0
 65
     1
110
0.0
120
0.0
130
0.0
111
1.0
121
0.0
131
0.0
112
0.0
122
1.0
132
0.0
 79
     0
146
0.0
  0
ENDTAB
  0
TABLE
  2
LTYPE
  5
4
330
0
100
AcDbSymbolTable
 70
     3
  0
LTYPE
  5
11
330
4
100
AcDbSymbolTableRecord
100
AcDbLinetypeTableRecord
  2
BYBLOCK
 70
     0
  3

 72
    65
 73
     0
 40
0.0
  0
LTYPE
  5
12
330
4
100
AcDbSymbolTableRecord
100
AcDbLinetypeTableRecord
  2
BYLAYER
 70
     0
  3

 72
    65
 73
     0
 40
0.0
  0
LTYPE
  5
13
330
4
100
AcDbSymbolTableRecord
100
AcDbLinetypeTableRecord
  2
CONTINUOUS
 70
     0
  3
Solid line
 72
    65
 73
     0
 40
0.0
  0
LTYPE
  5
6B
330
4
100
AcDbSymbolTableRecord
100
AcDbLinetypeTableRecord
  2
PHANTOM
 70
     0
  3
Phantom ______  __  __  ______  __  __  ______
 72
    65
 73
     6
 40
30.0
 49
20.0
 74
     0
 49
-2.0
 74
     0
 49
2.0
 74
     0
 49
-2.0
 74
     0
 49
2.0
 74
     0
 49
-2.0
 74
     0
  0
LTYPE
  5
1CF
330
4
100
AcDbSymbolTableRecord
100
AcDbLinetypeTableRecord
  2
CENTER
 70
     0
  3
Center ____ _ ____ _ ____ _ ____ _ ____ _ ____
 72
    65
 73
     4
 40
26.0
 49
20.0
 74
     0
 49
-2.0
 74
     0
 49
2.0
 74
     0
 49
-2.0
 74
     0
  0
ENDTAB
  0
TABLE
  2
LAYER
  5
2
330
0
100
AcDbSymbolTable
 70
     2
  0
LAYER
  5
14
330
2
100
AcDbSymbolTableRecord
100
AcDbLayerTableRecord
  2
0
 70
     0
 62
     7
  6
CONTINUOUS
370
    -3
390
23D
  0
LAYER
  5
1D
330
2
100
AcDbSymbolTableRecord
100
AcDbLayerTableRecord
  2
DEFPOINTS
 70
     0
 62
     7
  6
CONTINUOUS
290
     0
370
    -3
390
23D
  0
ENDTAB
  0
TABLE
  2
STYLE
  5
3
330
0
100
AcDbSymbolTable
 70
     2
  0
STYLE
  5
17
330
3
100
AcDbSymbolTableRecord
100
AcDbTextStyleTableRecord
  2
MX_NOTE_STANDARD
 70
     0
 40
0.0
 41
1.0
 50
0.0
 71
     0
 42
3.200000047683715
  3
txt.shx
  4
extfont.shx
  0
STYLE
  5
23B
330
3
100
AcDbSymbolTableRecord
100
AcDbTextStyleTableRecord
  2
Standard
 70
     0
 40
0.0
 41
1.0
 50
0.0
 71
     0
 42
0.2
  3

  4

  0
ENDTAB
  0
TABLE
  2
VIEW
  5
5
330
0
100
AcDbSymbolTable
 70
     0
  0
ENDTAB
  0
TABLE
  2
UCS
  5
6
330
0
100
AcDbSymbolTable
 70
     0
  0
ENDTAB
  0
TABLE
  2
APPID
  5
8
330
0
100
AcDbSymbolTable
 70
     1
  0
APPID
  5
16
330
8
100
AcDbSymbolTableRecord
100
AcDbRegAppTableRecord
  2
ACAD
 70
     0
  0
ENDTAB
  0
TABLE
  2
DIMSTYLE
  5
9
330
0
100
AcDbSymbolTable
 70
     1
100
AcDbDimStyleTable
 71
     0
  0
DIMSTYLE
105
18
330
9
100
AcDbSymbolTableRecord
100
AcDbDimStyleTableRecord
  2
MXDIMSTYLE
 70
     0
 41
2.5
 42
1.5
 43
3.75
 44
1.5
 73
     0
 74
     0
 77
     1
 78
     8
140
3.200000047683715
141
2.5
143
0.03937007874016
147
1.0
171
     4
172
     1
274
     4
288
     1
340
17
  0
ENDTAB
  0
TABLE
  2
BLOCK_RECORD
  5
1
330
0
100
AcDbSymbolTable
 70
     3
  0
BLOCK_RECORD
  5
A
330
1
100
AcDbSymbolTableRecord
100
AcDbBlockTableRecord
  2
*MODEL_SPACE
340
244
  0
BLOCK_RECORD
  5
B
330
1
100
AcDbSymbolTableRecord
100
AcDbBlockTableRecord
  2
*PAPER_SPACE
340
245
  0
BLOCK_RECORD
  5
1E
330
1
100
AcDbSymbolTableRecord
100
AcDbBlockTableRecord
  2
MRVZS28-K2-1
340
0
102
{BLKREFS
331
1F8
102
}
  0
BLOCK_RECORD
  5
1F
330
1
100
AcDbSymbolTableRecord
100
AcDbBlockTableRecord
  2
MRVZS28-K2-2
340
0
102
{BLKREFS
331
1F7
102
}
  0
BLOCK_RECORD
  5
20
330
1
100
AcDbSymbolTableRecord
100
AcDbBlockTableRecord
  2
MRVZS28-K2-3
340
0
102
{BLKREFS
331
1F6
102
}
  0
ENDTAB
  0
ENDSEC
  0
SECTION
  2
BLOCKS
  0
BLOCK
  5
D
330
A
100
AcDbEntity
  8
0
100
AcDbBlockBegin
  2
*MODEL_SPACE
 70
     0
 10
0.0
 20
0.0
 30
0.0
  3
*MODEL_SPACE
  1

  0
ENDBLK
  5
E
330
A
100
AcDbEntity
  8
0
100
AcDbBlockEnd
  0
BLOCK
  5
F
330
B
100
AcDbEntity
 67
     1
  8
0
100
AcDbBlockBegin
  2
*PAPER_SPACE
 70
     0
 10
0.0
 20
0.0
 30
0.0
  3
*PAPER_SPACE
  1

  0
ENDBLK
  5
10
330
B
100
AcDbEntity
 67
     1
  8
0
100
AcDbBlockEnd
  0
BLOCK
  5
21
330
1E
100
AcDbEntity
  8
0
100
AcDbBlockBegin
  2
MRVZS28-K2-1
 70
     0
 10
0.0
 20
0.0
 30
0.0
  3
MRVZS28-K2-1
  1

  0
LINE
  5
22
330
1E
100
AcDbEntity
  8
0
  6
Continuous
 62
     7
100
AcDbLine
 10
190.5
 20
-27.50000000000001
 30
0.0
 11
191.0
 21
-28.00000000000001
 31
0.0
  0
LINE
  5
23
330
1E
100
AcDbEntity
  8
0
  6
Continuous
 62
     7
100
AcDbLine
 10
190.5000006418954
 20
-18.49999935810456
 30
0.0
 11
191.0
 21
-18.0
 31
0.0
  0
LINE
  5
24
330
1E
100
AcDbEntity
  8
0
  6
Continuous
 62
     7
100
AcDbLine
 10
238.5
 20
-27.5
 30
0.0
 11
238.0
 21
-28.0
 31
0.0
  0
LINE
  5
25
330
1E
100
AcDbEntity
  8
0
  6
Continuous
 62
     7
100
AcDbLine
 10
238.5
 20
-18.5
 30
0.0
 11
238.0
 21
-18.0
 31
0.0
  0
LINE
  5
26
330
1E
100
AcDbEntity
  8
0
  6
Continuous
 62
     7
100
AcDbLine
 10
22.5
 20
-27.5
 30
0.0
 11
24.5
 21
-27.5
 31
0.0
  0
LINE
  5
27
330
1E
100
AcDbEntity
  8
0
  6
Continuous
 62
     7
100
AcDbLine
 10
22.5
 20
-27.5
 30
0.0
 11
22.0
 21
-28.0
 31
0.0
  0
LINE
  5
28
330
1E
100
AcDbEntity
  8
0
  6
Continuous
 62
     7
100
AcDbLine
 10
22.5
 20
-18.5
 30
0.0
 11
22.0
 21
-18.0
 31
0.0
  0
LINE
  5
29
330
1E
100
AcDbEntity
  8
0
  6
Continuous
 62
     7
100
AcDbLine
 10
-25.5
 20
-27.5
 30
0.0
 11
-25.0
 21
-28.0
 31
0.0
  0
LINE
  5
2A
330
1E
100
AcDbEntity
  8
0
  6
Continuous
 62
     7
100
AcDbLine
 10
-25.5
 20
-18.5
 30
0.0
 11
-25.0
 21
-18.0
 31
0.0
  0
LINE
  5
2B
330
1E
100
AcDbEntity
  8
0
  6
Continuous
 62
     7
100
AcDbLine
 10
188.5
 20
-27.5
 30
0.0
 11
190.5
 21
-27.5
 31
0.0
  0
LINE
  5
2C
330
1E
100
AcDbEntity
  8
0
  6
Continuous
 62
     7
100
AcDbLine
 10
188.5
 20
-18.5
 30
0.0
 11
190.5
 21
-18.5
 31
0.0
  0
LINE
  5
2D
330
1E
100
AcDbEntity
  8
0
  6
Continuous
 62
     7
100
AcDbLine
 10
196.5
 20
-28.0
 30
0.0
 11
191.0
 21
-28.0
 31
0.0
  0
LINE
  5
2E
330
1E
100
AcDbEntity
  8
0
  6
Continuous
 62
     2
100
AcDbLine
 10
196.5
 20
-27.5
 30
0.0
 11
190.5
 21
-27.5
 31
0.0
  0
LINE
  5
2F
330
1E
100
AcDbEntity
  8
0
  6
Continuous
 62
     7
100
AcDbLine
 10
196.5
 20
-18.0
 30
0.0
 11
191.0
 21
-18.0
 31
0.0
  0
LINE
  5
30
330
1E
100
AcDbEntity
  8
0
  6
Continuous
 62
     2
100
AcDbLine
 10
196.5
 20
-18.5
 30
0.0
 11
190.5
 21
-18.5
 31
0.0
  0
LINE
  5
31
330
1E
100
AcDbEntity
  8
0
  6
Continuous
 62
     7
100
AcDbLine
 10
22.5
 20
-18.5
 30
0.0
 11
24.5
 21
-18.5
 31
0.0
  0
LINE
  5
32
330
1E
100
AcDbEntity
  8
0
  6
Continuous
 62
     7
100
AcDbLine
 10
16.5
 20
-28.0
 30
0.0
 11
22.0
 21
-28.0
 31
0.0
  0
LINE
  5
33
330
1E
100
AcDbEntity
  8
0
  6
Continuous
 62
     2
100
AcDbLine
 10
16.5
 20
-27.5
 30
0.0
 11
22.5
 21
-27.5
 31
0.0
  0
LINE
  5
34
330
1E
100
AcDbEntity
  8
0
  6
Continuous
 62
     2
100
AcDbLine
 10
16.5
 20
-18.5
 30
0.0
 11
22.5
 21
-18.5
 31
0.0
  0
LINE
  5
35
330
1E
100
AcDbEntity
  8
0
  6
Continuous
 62
     7
100
AcDbLine
 10
16.5
 20
-18.0
 30
0.0
 11
22.0
 21
-18.0
 31
0.0
  0
LINE
  5
36
330
1E
100
AcDbEntity
  8
0
  6
Continuous
 62
     7
100
AcDbLine
 10
24.5
 20
-45.49999999999999
 30
0.0
 11
16.5
 21
-45.49999999999999
 31
0.0
  0
LINE
  5
37
330
1E
100
AcDbEntity
  8
0
  6
Continuous
 62
     7
100
AcDbLine
 10
88.49999999999999
 20
-0.5
 30
0.0
 11
196.5
 21
-0.5
 31
0.0
  0
LINE
  5
38
330
1E
100
AcDbEntity
  8
0
  6
Continuous
 62
     7
100
AcDbLine
 10
24.5
 20
12.0
 30
0.0
 11
24.5
 21
-58.0
 31
0.0
  0
LINE
  5
39
330
1E
100
AcDbEntity
  8
0
  6
Continuous
 62
     7
100
AcDbLine
 10
26.10000610351562
 20
12.0
 30
0.0
 11
26.10000610351562
 21
-58.0
 31
0.0
  0
LINE
  5
3A
330
1E
100
AcDbEntity
  8
0
  6
Continuous
 62
     7
100
AcDbLine
 10
24.5
 20
12.0
 30
0.0
 11
88.49999999999999
 21
12.0
 31
0.0
  0
LINE
  5
3B
330
1E
100
AcDbEntity
  8
0
  6
Continuous
 62
     7
100
AcDbLine
 10
26.10000610351562
 20
-3.0
 30
0.0
 11
86.89999389648438
 21
-3.0
 31
0.0
  0
LINE
  5
3C
330
1E
100
AcDbEntity
  8
0
  6
Continuous
 62
     2
100
AcDbLine
 10
34.5
 20
-0.5399932861328125
 30
0.0
 11
34.5
 21
10.54000854492187
 31
0.0
  0
LINE
  5
3D
330
1E
100
AcDbEntity
  8
0
  6
Continuous
 62
     2
100
AcDbLine
 10
72.96000671386718
 20
5.0
 30
0.0
 11
84.03999328613281
 21
5.0
 31
0.0
  0
LINE
  5
3E
330
1E
100
AcDbEntity
  8
0
  6
Continuous
 62
     2
100
AcDbLine
 10
78.5
 20
-0.5399932861328125
 30
0.0
 11
78.5
 21
10.54000854492187
 31
0.0
  0
LINE
  5
3F
330
1E
100
AcDbEntity
  8
0
  6
Continuous
 62
     7
100
AcDbLine
 10
86.89999389648438
 20
-58.0
 30
0.0
 11
86.89999389648438
 21
12.0
 31
0.0
  0
LINE
  5
40
330
1E
100
AcDbEntity
  8
0
  6
Continuous
 62
     7
100
AcDbLine
 10
88.49999999999999
 20
-58.0
 30
0.0
 11
88.49999999999999
 21
12.0
 31
0.0
  0
LINE
  5
41
330
1E
100
AcDbEntity
  8
0
  6
Continuous
 62
     2
100
AcDbLine
 10
40.03999328613281
 20
-51.0
 30
0.0
 11
28.96000671386719
 21
-51.0
 31
0.0
  0
LINE
  5
42
330
1E
100
AcDbEntity
  8
0
  6
Continuous
 62
     2
100
AcDbLine
 10
78.5
 20
-45.46000671386718
 30
0.0
 11
78.5
 21
-56.53999328613281
 31
0.0
  0
LINE
  5
43
330
1E
100
AcDbEntity
  8
0
  6
Continuous
 62
     2
100
AcDbLine
 10
72.96000671386718
 20
-51.0
 30
0.0
 11
84.03999328613281
 21
-51.0
 31
0.0
  0
LINE
  5
44
330
1E
100
AcDbEntity
  8
0
  6
Continuous
 62
     7
100
AcDbLine
 10
24.5
 20
-0.5
 30
0.0
 11
16.5
 21
-0.5
 31
0.0
  0
LINE
  5
45
330
1E
100
AcDbEntity
  8
0
  6
Continuous
 62
     2
100
AcDbLine
 10
34.5
 20
-45.46000671386718
 30
0.0
 11
34.5
 21
-56.53999328613281
 31
0.0
  0
LINE
  5
46
330
1E
100
AcDbEntity
  8
0
  6
Continuous
 62
     7
100
AcDbLine
 10
88.49999999999999
 20
-45.49999999999999
 30
0.0
 11
196.5
 21
-45.49999999999999
 31
0.0
  0
LINE
  5
47
330
1E
100
AcDbEntity
  8
0
  6
Continuous
 62
     2
100
AcDbLine
 10
56.5
 20
15.74615478515625
 30
0.0
 11
56.5
 21
-70.01102273226925
 31
0.0
  0
LINE
  5
48
330
1E
100
AcDbEntity
  8
0
  6
Continuous
 62
     2
100
AcDbLine
 10
40.03999328613281
 20
5.0
 30
0.0
 11
28.96000671386719
 21
5.0
 31
0.0
  0
LINE
  5
49
330
1E
100
AcDbEntity
  8
0
  6
Continuous
 62
     7
100
AcDbLine
 10
24.14999389648437
 20
-50.19999694824218
 30
0.0
 11
24.5
 21
-50.19999694824218
 31
0.0
  0
LINE
  5
4A
330
1E
100
AcDbEntity
  8
0
  6
Continuous
 62
     7
100
AcDbLine
 10
22.30000305175781
 20
10.98150634765625
 30
0.0
 11
22.30000305175781
 21
5.01849365234375
 31
0.0
  0
LINE
  5
4B
330
1E
100
AcDbEntity
  8
0
  6
Continuous
 62
     7
100
AcDbLine
 10
24.14999389648437
 20
11.79998779296875
 30
0.0
 11
24.5
 21
11.79998779296875
 31
0.0
  0
LINE
  5
4C
330
1E
100
AcDbEntity
  8
0
  6
Continuous
 62
     7
100
AcDbLine
 10
24.14999389648437
 20
-57.80000305175781
 30
0.0
 11
24.5
 21
-57.80000305175781
 31
0.0
  0
LINE
  5
4D
330
1E
100
AcDbEntity
  8
0
  6
Continuous
 62
     7
100
AcDbLine
 10
90.69999694824218
 20
10.98150634765625
 30
0.0
 11
90.69999694824218
 21
5.01849365234375
 31
0.0
  0
LINE
  5
4E
330
1E
100
AcDbEntity
  8
0
  6
Continuous
 62
     7
100
AcDbLine
 10
22.30000305175781
 20
-56.98152160644531
 30
0.0
 11
22.30000305175781
 21
-51.01847839355468
 31
0.0
  0
LINE
  5
4F
330
1E
100
AcDbEntity
  8
0
  6
Continuous
 62
     7
100
AcDbLine
 10
88.85000610351562
 20
-50.19999694824218
 30
0.0
 11
88.49999999999999
 21
-50.19999694824218
 31
0.0
  0
LINE
  5
50
330
1E
100
AcDbEntity
  8
0
  6
Continuous
 62
     7
100
AcDbLine
 10
24.14999389648437
 20
4.20001220703125
 30
0.0
 11
24.5
 21
4.20001220703125
 31
0.0
  0
LINE
  5
51
330
1E
100
AcDbEntity
  8
0
  6
Continuous
 62
     7
100
AcDbLine
 10
88.85000610351562
 20
11.79998779296875
 30
0.0
 11
88.49999999999999
 21
11.79998779296875
 31
0.0
  0
LINE
  5
52
330
1E
100
AcDbEntity
  8
0
  6
Continuous
 62
     7
100
AcDbLine
 10
88.85000610351562
 20
-57.80000305175781
 30
0.0
 11
88.49999999999999
 21
-57.80000305175781
 31
0.0
  0
LINE
  5
53
330
1E
100
AcDbEntity
  8
0
  6
Continuous
 62
     7
100
AcDbLine
 10
90.69999694824218
 20
-56.98152160644531
 30
0.0
 11
90.69999694824218
 21
-51.01847839355468
 31
0.0
  0
LINE
  5
54
330
1E
100
AcDbEntity
  8
0
  6
Continuous
 62
     7
100
AcDbLine
 10
88.85000610351562
 20
4.20001220703125
 30
0.0
 11
88.49999999999999
 21
4.20001220703125
 31
0.0
  0
LINE
  5
55
330
1E
100
AcDbEntity
  8
0
  6
Continuous
 62
     7
100
AcDbLine
 10
26.10000610351562
 20
-43.0
 30
0.0
 11
86.89999389648438
 21
-43.0
 31
0.0
  0
LINE
  5
56
330
1E
100
AcDbEntity
  8
0
  6
Continuous
 62
     7
100
AcDbLine
 10
188.5
 20
-21.5
 30
0.0
 11
178.5
 21
-21.5
 31
0.0
  0
LINE
  5
57
330
1E
100
AcDbEntity
  8
0
  6
Continuous
 62
     7
100
AcDbLine
 10
219.5
 20
-59.0
 30
0.0
 11
219.5
 21
13.0
 31
0.0
  0
LINE
  5
58
330
1E
100
AcDbEntity
  8
0
  6
Continuous
 62
     2
100
AcDbLine
 10
221.0399932861328
 20
0.0
 30
0.0
 11
204.9600067138672
 21
0.0
 31
0.0
  0
LINE
  5
59
330
1E
100
AcDbEntity
  8
0
  6
Continuous
 62
     2
100
AcDbLine
 10
213.0
 20
-8.03997802734375
 30
0.0
 11
213.0
 21
8.040008544921875
 31
0.0
  0
LINE
  5
5A
330
1E
100
AcDbEntity
  8
0
  6
Continuous
 62
     2
100
AcDbLine
 10
221.0399932861328
 20
-46.0
 30
0.0
 11
204.9600067138672
 21
-46.0
 31
0.0
  0
LINE
  5
5B
330
1E
100
AcDbEntity
  8
0
  6
Continuous
 62
     2
100
AcDbLine
 10
213.0
 20
-37.96002197265625
 30
0.0
 11
213.0
 21
-54.03997802734375
 31
0.0
  0
LINE
  5
5C
330
1E
100
AcDbEntity
  8
0
  6
Continuous
 62
     7
100
AcDbLine
 10
196.5
 20
-59.0
 30
0.0
 11
219.5
 21
-59.0
 31
0.0
  0
LINE
  5
5D
330
1E
100
AcDbEntity
  8
0
  6
Continuous
 62
     7
100
AcDbLine
 10
196.5
 20
13.0
 30
0.0
 11
219.5
 21
13.0
 31
0.0
  0
LINE
  5
5E
330
1E
100
AcDbEntity
  8
0
  6
Continuous
 62
     7
100
AcDbLine
 10
196.5
 20
-34.0
 30
0.0
 11
219.5
 21
-34.0
 31
0.0
  0
LINE
  5
5F
330
1E
100
AcDbEntity
  8
0
  6
Continuous
 62
     2
100
AcDbLine
 10
205.5
 20
-54.03997802734375
 30
0.0
 11
205.5
 21
-63.0
 31
0.0
  0
LINE
  5
60
330
1E
100
AcDbEntity
  8
0
  6
Continuous
 62
     7
100
AcDbLine
 10
196.5
 20
-59.0
 30
0.0
 11
196.5
 21
13.0
 31
0.0
  0
LINE
  5
61
330
1E
100
AcDbEntity
  8
0
  6
Continuous
 62
     7
100
AcDbLine
 10
190.5
 20
-18.5
 30
0.0
 11
190.5
 21
-27.5
 31
0.0
  0
LINE
  5
62
330
1E
100
AcDbEntity
  8
0
  6
Continuous
 62
     7
100
AcDbLine
 10
196.5
 20
-12.0
 30
0.0
 11
219.5
 21
-12.0
 31
0.0
  0
LINE
  5
63
330
1E
100
AcDbEntity
  8
0
  6
Continuous
 62
     7
100
AcDbLine
 10
238.0
 20
-18.0
 30
0.0
 11
222.5
 21
-18.0
 31
0.0
  0
LINE
  5
64
330
1E
100
AcDbEntity
  8
0
  6
Continuous
 62
     2
100
AcDbLine
 10
238.5
 20
-18.5
 30
0.0
 11
222.5
 21
-18.5
 31
0.0
  0
LINE
  5
65
330
1E
100
AcDbEntity
  8
0
  6
Continuous
 62
     7
100
AcDbLine
 10
238.5
 20
-18.5
 30
0.0
 11
238.5
 21
-27.5
 31
0.0
  0
LINE
  5
66
330
1E
100
AcDbEntity
  8
0
  6
Continuous
 62
     7
100
AcDbLine
 10
238.0
 20
-18.0
 30
0.0
 11
238.0
 21
-28.0
 31
0.0
  0
LINE
  5
67
330
1E
100
AcDbEntity
  8
0
  6
Continuous
 62
     2
100
AcDbLine
 10
238.5
 20
-27.5
 30
0.0
 11
222.5
 21
-27.5
 31
0.0
  0
LINE
  5
68
330
1E
100
AcDbEntity
  8
0
  6
Continuous
 62
     7
100
AcDbLine
 10
222.5
 20
-29.0
 30
0.0
 11
219.5
 21
-29.0
 31
0.0
  0
LINE
  5
69
330
1E
100
AcDbEntity
  8
0
  6
Continuous
 62
     7
100
AcDbLine
 10
222.5
 20
-17.0
 30
0.0
 11
222.5
 21
-29.0
 31
0.0
  0
LINE
  5
6A
330
1E
100
AcDbEntity
  8
0
  6
Continuous
 62
     7
100
AcDbLine
 10
188.5
 20
-18.5
 30
0.0
 11
188.5
 21
-27.5
 31
0.0
  0
LINE
  5
6C
330
1E
100
AcDbEntity
  8
0
  6
PHANTOM
 62
     2
100
AcDbLine
 10
222.5
 20
-23.0
 30
0.0
 11
219.5
 21
-23.0
 31
0.0
  0
LINE
  5
6D
330
1E
100
AcDbEntity
  8
0
  6
Continuous
 62
     7
100
AcDbLine
 10
178.5
 20
-21.5
 30
0.0
 11
178.5
 21
-24.5
 31
0.0
  0
LINE
  5
6E
330
1E
100
AcDbEntity
  8
0
  6
Continuous
 62
     7
100
AcDbLine
 10
222.5
 20
-17.0
 30
0.0
 11
219.5
 21
-17.0
 31
0.0
  0
LINE
  5
6F
330
1E
100
AcDbEntity
  8
0
  6
Continuous
 62
     7
100
AcDbLine
 10
191.0
 20
-18.0
 30
0.0
 11
191.0
 21
-28.0
 31
0.0
  0
LINE
  5
70
330
1E
100
AcDbEntity
  8
0
  6
Continuous
 62
     7
100
AcDbLine
 10
188.5
 20
-24.5
 30
0.0
 11
178.5
 21
-24.5
 31
0.0
  0
LINE
  5
71
330
1E
100
AcDbEntity
  8
0
  6
Continuous
 62
     7
100
AcDbLine
 10
238.0
 20
-28.0
 30
0.0
 11
222.5
 21
-28.0
 31
0.0
  0
LINE
  5
72
330
1E
100
AcDbEntity
  8
0
  6
Continuous
 62
     7
100
AcDbLine
 10
-25.0
 20
-28.0
 30
0.0
 11
-9.5
 21
-28.0
 31
0.0
  0
LINE
  5
73
330
1E
100
AcDbEntity
  8
0
  6
Continuous
 62
     7
100
AcDbLine
 10
22.0
 20
-18.0
 30
0.0
 11
22.0
 21
-28.0
 31
0.0
  0
LINE
  5
74
330
1E
100
AcDbEntity
  8
0
  6
Continuous
 62
     7
100
AcDbLine
 10
-9.5
 20
-17.0
 30
0.0
 11
-6.5
 21
-17.0
 31
0.0
  0
LINE
  5
75
330
1E
100
AcDbEntity
  8
0
  6
PHANTOM
 62
     2
100
AcDbLine
 10
-9.5
 20
-23.0
 30
0.0
 11
-6.5
 21
-23.0
 31
0.0
  0
LINE
  5
76
330
1E
100
AcDbEntity
  8
0
  6
PHANTOM
 62
     2
100
AcDbLine
 10
24.5
 20
-18.5
 30
0.0
 11
24.5
 21
-27.5
 31
0.0
  0
LINE
  5
77
330
1E
100
AcDbEntity
  8
0
  6
Continuous
 62
     7
100
AcDbLine
 10
-9.5
 20
-17.0
 30
0.0
 11
-9.5
 21
-29.0
 31
0.0
  0
LINE
  5
78
330
1E
100
AcDbEntity
  8
0
  6
Continuous
 62
     7
100
AcDbLine
 10
-9.5
 20
-29.0
 30
0.0
 11
-6.5
 21
-29.0
 31
0.0
  0
LINE
  5
79
330
1E
100
AcDbEntity
  8
0
  6
Continuous
 62
     2
100
AcDbLine
 10
-25.5
 20
-27.5
 30
0.0
 11
-9.5
 21
-27.5
 31
0.0
  0
LINE
  5
7A
330
1E
100
AcDbEntity
  8
0
  6
Continuous
 62
     7
100
AcDbLine
 10
-25.0
 20
-18.0
 30
0.0
 11
-25.0
 21
-28.0
 31
0.0
  0
LINE
  5
7B
330
1E
100
AcDbEntity
  8
0
  6
Continuous
 62
     7
100
AcDbLine
 10
-25.5
 20
-18.5
 30
0.0
 11
-25.5
 21
-27.5
 31
0.0
  0
LINE
  5
7C
330
1E
100
AcDbEntity
  8
0
  6
Continuous
 62
     2
100
AcDbLine
 10
-25.5
 20
-18.5
 30
0.0
 11
-9.5
 21
-18.5
 31
0.0
  0
LINE
  5
7D
330
1E
100
AcDbEntity
  8
0
  6
Continuous
 62
     7
100
AcDbLine
 10
-25.0
 20
-18.0
 30
0.0
 11
-9.5
 21
-18.0
 31
0.0
  0
LINE
  5
7E
330
1E
100
AcDbEntity
  8
0
  6
Continuous
 62
     7
100
AcDbLine
 10
16.5
 20
-12.0
 30
0.0
 11
-6.5
 21
-12.0
 31
0.0
  0
LINE
  5
7F
330
1E
100
AcDbEntity
  8
0
  6
Continuous
 62
     7
100
AcDbLine
 10
22.5
 20
-18.5
 30
0.0
 11
22.5
 21
-27.5
 31
0.0
  0
LINE
  5
80
330
1E
100
AcDbEntity
  8
0
  6
Continuous
 62
     7
100
AcDbLine
 10
16.5
 20
-59.0
 30
0.0
 11
16.5
 21
13.0
 31
0.0
  0
LINE
  5
81
330
1E
100
AcDbEntity
  8
0
  6
Continuous
 62
     2
100
AcDbLine
 10
7.5
 20
-54.03997802734375
 30
0.0
 11
7.5
 21
-63.0
 31
0.0
  0
LINE
  5
82
330
1E
100
AcDbEntity
  8
0
  6
Continuous
 62
     7
100
AcDbLine
 10
16.5
 20
-34.0
 30
0.0
 11
-6.5
 21
-34.0
 31
0.0
  0
LINE
  5
83
330
1E
100
AcDbEntity
  8
0
  6
Continuous
 62
     7
100
AcDbLine
 10
16.5
 20
13.0
 30
0.0
 11
-6.5
 21
13.0
 31
0.0
  0
LINE
  5
84
330
1E
100
AcDbEntity
  8
0
  6
Continuous
 62
     7
100
AcDbLine
 10
16.5
 20
-59.0
 30
0.0
 11
-6.5
 21
-59.0
 31
0.0
  0
LINE
  5
85
330
1E
100
AcDbEntity
  8
0
  6
Continuous
 62
     2
100
AcDbLine
 10
0.0
 20
-37.96002197265625
 30
0.0
 11
0.0
 21
-54.03997802734375
 31
0.0
  0
LINE
  5
86
330
1E
100
AcDbEntity
  8
0
  6
Continuous
 62
     2
100
AcDbLine
 10
-8.039993286132812
 20
-46.0
 30
0.0
 11
8.039993286132812
 21
-46.0
 31
0.0
  0
LINE
  5
87
330
1E
100
AcDbEntity
  8
0
  6
Continuous
 62
     2
100
AcDbLine
 10
0.0
 20
-8.03997802734375
 30
0.0
 11
0.0
 21
8.040008544921875
 31
0.0
  0
LINE
  5
88
330
1E
100
AcDbEntity
  8
0
  6
Continuous
 62
     2
100
AcDbLine
 10
-8.039993286132812
 20
0.0
 30
0.0
 11
8.039993286132812
 21
0.0
 31
0.0
  0
LINE
  5
89
330
1E
100
AcDbEntity
  8
0
  6
Continuous
 62
     7
100
AcDbLine
 10
-6.5
 20
-59.0
 30
0.0
 11
-6.5
 21
13.0
 31
0.0
  0
LINE
  5
8A
330
1E
100
AcDbEntity
  8
0
  6
Continuous
 62
     7
100
AcDbLine
 10
16.5
 20
-58.0
 30
0.0
 11
196.5
 21
-58.0
 31
0.0
  0
LINE
  5
8B
330
1E
100
AcDbEntity
  8
0
  6
Continuous
 62
     7
100
AcDbLine
 10
24.14999389648437
 20
-2.20001220703125
 30
0.0
 11
24.5
 21
-2.20001220703125
 31
0.0
  0
LINE
  5
8C
330
1E
100
AcDbEntity
  8
0
  6
Continuous
 62
     7
100
AcDbLine
 10
22.30000305175781
 20
-3.01849365234375
 30
0.0
 11
22.30000305175781
 21
-8.98150634765625
 31
0.0
  0
LINE
  5
8D
330
1E
100
AcDbEntity
  8
0
  6
Continuous
 62
     7
100
AcDbLine
 10
24.14999389648437
 20
-9.79998779296875
 30
0.0
 11
24.5
 21
-9.79998779296875
 31
0.0
  0
LINE
  5
8E
330
1E
100
AcDbEntity
  8
0
  6
Continuous
 62
     7
100
AcDbLine
 10
24.14999389648437
 20
-43.79998779296875
 30
0.0
 11
24.5
 21
-43.79998779296875
 31
0.0
  0
LINE
  5
8F
330
1E
100
AcDbEntity
  8
0
  6
Continuous
 62
     7
100
AcDbLine
 10
22.30000305175781
 20
-42.98150634765625
 30
0.0
 11
22.30000305175781
 21
-37.01849365234375
 31
0.0
  0
LINE
  5
90
330
1E
100
AcDbEntity
  8
0
  6
Continuous
 62
     7
100
AcDbLine
 10
24.14999389648437
 20
-36.20001220703125
 30
0.0
 11
24.5
 21
-36.20001220703125
 31
0.0
  0
LINE
  5
91
330
1E
100
AcDbEntity
  8
0
  6
Continuous
 62
     7
100
AcDbLine
 10
88.85000610351562
 20
-2.20001220703125
 30
0.0
 11
88.49999999999999
 21
-2.20001220703125
 31
0.0
  0
LINE
  5
92
330
1E
100
AcDbEntity
  8
0
  6
Continuous
 62
     7
100
AcDbLine
 10
90.69999694824218
 20
-3.01849365234375
 30
0.0
 11
90.69999694824218
 21
-8.98150634765625
 31
0.0
  0
LINE
  5
93
330
1E
100
AcDbEntity
  8
0
  6
Continuous
 62
     7
100
AcDbLine
 10
88.85000610351562
 20
-9.79998779296875
 30
0.0
 11
88.49999999999999
 21
-9.79998779296875
 31
0.0
  0
LINE
  5
94
330
1E
100
AcDbEntity
  8
0
  6
Continuous
 62
     7
100
AcDbLine
 10
88.85000610351562
 20
-43.79998779296875
 30
0.0
 11
88.49999999999999
 21
-43.79998779296875
 31
0.0
  0
LINE
  5
95
330
1E
100
AcDbEntity
  8
0
  6
Continuous
 62
     7
100
AcDbLine
 10
90.69999694824218
 20
-42.98150634765625
 30
0.0
 11
90.69999694824218
 21
-37.01849365234375
 31
0.0
  0
LINE
  5
96
330
1E
100
AcDbEntity
  8
0
  6
Continuous
 62
     7
100
AcDbLine
 10
88.85000610351562
 20
-36.20001220703125
 30
0.0
 11
88.49999999999999
 21
-36.20001220703125
 31
0.0
  0
LINE
  5
97
330
1E
100
AcDbEntity
  8
0
  6
Continuous
 62
     7
100
AcDbLine
 10
26.10000610351562
 20
-40.69059753417969
 30
0.0
 11
86.89999389648438
 21
-40.69059753417969
 31
0.0
  0
LINE
  5
98
330
1E
100
AcDbEntity
  8
0
  6
Continuous
 62
     7
100
AcDbLine
 10
26.10000610351562
 20
-5.309402465820312
 30
0.0
 11
86.89999389648438
 21
-5.309402465820312
 31
0.0
  0
LINE
  5
99
330
1E
100
AcDbEntity
  8
0
  6
Continuous
 62
     7
100
AcDbLine
 10
211.5
 20
-65.19999694824218
 30
0.0
 11
1.5
 21
-65.19999694824218
 31
0.0
  0
LINE
  5
9A
330
1E
100
AcDbEntity
  8
0
  6
Continuous
 62
     7
100
AcDbLine
 10
1.5
 20
-59.0
 30
0.0
 11
1.5
 21
-65.19999694824218
 31
0.0
  0
LINE
  5
9B
330
1E
100
AcDbEntity
  8
0
  6
Continuous
 62
     7
100
AcDbLine
 10
211.5
 20
-59.0
 30
0.0
 11
211.5
 21
-65.19999694824218
 31
0.0
  0
LINE
  5
9C
330
1E
100
AcDbEntity
  8
0
  6
Continuous
 62
     2
100
AcDbLine
 10
-28.5
 20
-23.0
 30
0.0
 11
241.5
 21
-23.0
 31
0.0
  0
CIRCLE
  5
9D
330
1E
100
AcDbEntity
  8
0
  6
Continuous
 62
     2
100
AcDbCircle
 10
34.5
 20
5.0
 30
0.0
 40
3.0
  0
CIRCLE
  5
9E
330
1E
100
AcDbEntity
  8
0
  6
Continuous
 62
     7
100
AcDbCircle
 10
78.5
 20
5.0
 30
0.0
 40
2.5
  0
CIRCLE
  5
9F
330
1E
100
AcDbEntity
  8
0
  6
Continuous
 62
     2
100
AcDbCircle
 10
78.5
 20
5.0
 30
0.0
 40
3.0
  0
CIRCLE
  5
A0
330
1E
100
AcDbEntity
  8
0
  6
Continuous
 62
     7
100
AcDbCircle
 10
34.5
 20
-51.0
 30
0.0
 40
2.5
  0
CIRCLE
  5
A1
330
1E
100
AcDbEntity
  8
0
  6
Continuous
 62
     2
100
AcDbCircle
 10
78.5
 20
-51.0
 30
0.0
 40
3.0
  0
CIRCLE
  5
A2
330
1E
100
AcDbEntity
  8
0
  6
Continuous
 62
     7
100
AcDbCircle
 10
78.5
 20
-51.0
 30
0.0
 40
2.5
  0
CIRCLE
  5
A3
330
1E
100
AcDbEntity
  8
0
  6
Continuous
 62
     2
100
AcDbCircle
 10
34.5
 20
-51.0
 30
0.0
 40
3.0
  0
CIRCLE
  5
A4
330
1E
100
AcDbEntity
  8
0
  6
Continuous
 62
     7
100
AcDbCircle
 10
34.5
 20
5.0
 30
0.0
 40
2.5
  0
ARC
  5
A5
330
1E
100
AcDbEntity
  8
0
  6
Continuous
 62
     7
100
AcDbCircle
 10
88.85000610351562
 20
9.29998779296875
 30
0.0
 40
2.5
100
AcDbArc
 50
42.26858469748889
 51
90.00000250447817
  0
ARC
  5
A6
330
1E
100
AcDbEntity
  8
0
  6
Continuous
 62
     7
100
AcDbCircle
 10
24.14999389648437
 20
-52.69999694824218
 30
0.0
 40
2.5
100
AcDbArc
 50
90.00000250447817
 51
137.7314203114674
  0
ARC
  5
A7
330
1E
100
AcDbEntity
  8
0
  6
Continuous
 62
     7
100
AcDbCircle
 10
24.14999389648437
 20
-55.30000305175781
 30
0.0
 40
2.5
100
AcDbArc
 50
222.2685796885325
 51
269.9999974955218
  0
ARC
  5
A8
330
1E
100
AcDbEntity
  8
0
  6
Continuous
 62
     7
100
AcDbCircle
 10
24.14999389648437
 20
9.29998779296875
 30
0.0
 40
2.5
100
AcDbArc
 50
90.00000250447817
 51
137.7314203114674
  0
ARC
  5
A9
330
1E
100
AcDbEntity
  8
0
  6
Continuous
 62
     7
100
AcDbCircle
 10
24.14999389648437
 20
6.70001220703125
 30
0.0
 40
2.5
100
AcDbArc
 50
222.2685796885325
 51
269.9999974955218
  0
ARC
  5
AA
330
1E
100
AcDbEntity
  8
0
  6
Continuous
 62
     7
100
AcDbCircle
 10
88.85000610351562
 20
-55.30000305175781
 30
0.0
 40
2.5
100
AcDbArc
 50
269.9999974955218
 51
317.7314153025112
  0
ARC
  5
AB
330
1E
100
AcDbEntity
  8
0
  6
Continuous
 62
     7
100
AcDbCircle
 10
88.85000610351562
 20
6.70001220703125
 30
0.0
 40
2.5
100
AcDbArc
 50
269.9999974955218
 51
317.7314153025112
  0
ARC
  5
AC
330
1E
100
AcDbEntity
  8
0
  6
Continuous
 62
     7
100
AcDbCircle
 10
88.85000610351562
 20
-52.69999694824218
 30
0.0
 40
2.5
100
AcDbArc
 50
42.26858469748889
 51
90.00000250447817
  0
CIRCLE
  5
AD
330
1E
100
AcDbEntity
  8
0
  6
Continuous
 62
     7
100
AcDbCircle
 10
213.0
 20
0.0
 30
0.0
 40
5.5
  0
CIRCLE
  5
AE
330
1E
100
AcDbEntity
  8
0
  6
Continuous
 62
     7
100
AcDbCircle
 10
213.0
 20
-46.0
 30
0.0
 40
5.5
  0
CIRCLE
  5
AF
330
1E
100
AcDbEntity
  8
0
  6
Continuous
 62
     7
100
AcDbCircle
 10
213.0
 20
0.0
 30
0.0
 40
3.5
  0
CIRCLE
  5
B0
330
1E
100
AcDbEntity
  8
0
  6
Continuous
 62
     7
100
AcDbCircle
 10
213.0
 20
-46.0
 30
0.0
 40
3.5
  0
CIRCLE
  5
B1
330
1E
100
AcDbEntity
  8
0
  6
Continuous
 62
     7
100
AcDbCircle
 10
0.0
 20
-46.0
 30
0.0
 40
3.5
  0
CIRCLE
  5
B2
330
1E
100
AcDbEntity
  8
0
  6
Continuous
 62
     7
100
AcDbCircle
 10
0.0
 20
0.0
 30
0.0
 40
3.5
  0
CIRCLE
  5
B3
330
1E
100
AcDbEntity
  8
0
  6
Continuous
 62
     7
100
AcDbCircle
 10
0.0
 20
-46.0
 30
0.0
 40
5.5
  0
CIRCLE
  5
B4
330
1E
100
AcDbEntity
  8
0
  6
Continuous
 62
     7
100
AcDbCircle
 10
0.0
 20
0.0
 30
0.0
 40
5.5
  0
ARC
  5
B5
330
1E
100
AcDbEntity
  8
0
  6
Continuous
 62
     7
100
AcDbCircle
 10
24.14999389648437
 20
-4.70001220703125
 30
0.0
 40
2.5
100
AcDbArc
 50
90.00000250447817
 51
137.7314203114674
  0
ARC
  5
B6
330
1E
100
AcDbEntity
  8
0
  6
Continuous
 62
     7
100
AcDbCircle
 10
24.14999389648437
 20
-7.29998779296875
 30
0.0
 40
2.5
100
AcDbArc
 50
222.2685796885325
 51
269.9999974955218
  0
ARC
  5
B7
330
1E
100
AcDbEntity
  8
0
  6
Continuous
 62
     7
100
AcDbCircle
 10
24.14999389648437
 20
-41.29998779296875
 30
0.0
 40
2.5
100
AcDbArc
 50
222.2685796885325
 51
269.9999974955218
  0
ARC
  5
B8
330
1E
100
AcDbEntity
  8
0
  6
Continuous
 62
     7
100
AcDbCircle
 10
24.14999389648437
 20
-38.70001220703125
 30
0.0
 40
2.5
100
AcDbArc
 50
90.00000250447817
 51
137.7314203114674
  0
ARC
  5
B9
330
1E
100
AcDbEntity
  8
0
  6
Continuous
 62
     7
100
AcDbCircle
 10
88.85000610351562
 20
-4.70001220703125
 30
0.0
 40
2.5
100
AcDbArc
 50
42.2685812823943
 51
89.99999567428899
  0
ARC
  5
BA
330
1E
100
AcDbEntity
  8
0
  6
Continuous
 62
     7
100
AcDbCircle
 10
88.85000610351562
 20
-7.29998779296875
 30
0.0
 40
2.5
100
AcDbArc
 50
270.000004325711
 51
317.7314187176057
  0
ARC
  5
BB
330
1E
100
AcDbEntity
  8
0
  6
Continuous
 62
     7
100
AcDbCircle
 10
88.85000610351562
 20
-41.29998779296875
 30
0.0
 40
2.5
100
AcDbArc
 50
270.000004325711
 51
317.7314187176057
  0
ARC
  5
BC
330
1E
100
AcDbEntity
  8
0
  6
Continuous
 62
     7
100
AcDbCircle
 10
88.85000610351562
 20
-38.70001220703125
 30
0.0
 40
2.5
100
AcDbArc
 50
42.2685812823943
 51
89.99999567428899
  0
LINE
  5
BD
330
1E
100
AcDbEntity
  8
0
  6
PHANTOM
 62
     3
100
AcDbLine
 10
123.5
 20
47.95035087719297
 30
0.0
 11
123.5
 21
-86.32684210526315
 31
0.0
  0
ENDBLK
  5
BE
330
1E
100
AcDbEntity
  8
0
100
AcDbBlockEnd
  0
BLOCK
  5
BF
330
1F
100
AcDbEntity
  8
0
100
AcDbBlockBegin
  2
MRVZS28-K2-2
 70
     0
 10
0.0
 20
0.0
 30
0.0
  3
MRVZS28-K2-2
  1

  0
LINE
  5
C0
330
1F
100
AcDbEntity
  8
0
  6
Continuous
 62
     7
100
AcDbLine
 10
38.77830376831412
 20
-4.750018979504602
 30
0.0
 11
38.05662408081412
 21
-6.000004842609996
 31
0.0
  0
LINE
  5
C1
330
1F
100
AcDbEntity
  8
0
  6
Continuous
 62
     7
100
AcDbLine
 10
47.0
 20
12.0
 30
0.0
 11
35.0
 21
12.0
 31
0.0
  0
LINE
  5
C2
330
1F
100
AcDbEntity
  8
0
  6
Continuous
 62
     7
100
AcDbLine
 10
43.0
 20
-34.0
 30
0.0
 11
38.0
 21
-34.0
 31
0.0
  0
LINE
  5
C3
330
1F
100
AcDbEntity
  8
0
  6
Continuous
 62
     7
100
AcDbLine
 10
38.7783080002439
 20
-38.75001073422753
 30
0.0
 11
38.0566283127439
 21
-39.99999659733294
 31
0.0
  0
LINE
  5
C4
330
1F
100
AcDbEntity
  8
0
  6
Continuous
 62
     7
100
AcDbLine
 10
5.399993896484375
 20
-62.60000610351561
 30
0.0
 11
5.399993896484375
 21
-64.19995436812678
 31
0.0
  0
LINE
  5
C5
330
1F
100
AcDbEntity
  8
0
  6
Continuous
 62
     7
100
AcDbLine
 10
10.5
 20
-65.20001220703125
 30
0.0
 11
9.100006103515623
 21
-65.20001220703125
 31
0.0
  0
LINE
  5
C6
330
1F
100
AcDbEntity
  8
0
  6
Continuous
 62
     7
100
AcDbLine
 10
4.5
 20
-65.20001220703125
 30
0.0
 11
5.899993896484375
 21
-65.20001220703125
 31
0.0
  0
LINE
  5
C7
330
1F
100
AcDbEntity
  8
0
  6
Continuous
 62
     7
100
AcDbLine
 10
9.600006103515623
 20
-62.60000610351561
 30
0.0
 11
9.600006103515623
 21
-64.20001220703125
 31
0.0
  0
LINE
  5
C8
330
1F
100
AcDbEntity
  8
0
  6
Continuous
 62
     7
100
AcDbLine
 10
11.0
 20
-64.70001220703125
 30
0.0
 11
11.0
 21
-58.0
 31
0.0
  0
LINE
  5
C9
330
1F
100
AcDbEntity
  8
0
  6
Continuous
 62
     7
100
AcDbLine
 10
4.0
 20
-64.70001220703125
 30
0.0
 11
4.0
 21
-58.0
 31
0.0
  0
LINE
  5
CA
330
1F
100
AcDbEntity
  8
0
  6
Continuous
 62
     7
100
AcDbLine
 10
9.600020975214647
 20
-64.19998130401836
 30
0.0
 11
9.100006103515628
 21
-64.69999617571739
 31
0.0
  0
LINE
  5
CB
330
1F
100
AcDbEntity
  8
0
  6
Continuous
 62
     7
100
AcDbLine
 10
5.399993896484372
 20
-64.19995436812678
 30
0.0
 11
5.900032152763743
 21
-64.69999262440615
 31
0.0
  0
LINE
  5
CC
330
1F
100
AcDbEntity
  8
0
  6
Continuous
 62
     7
100
AcDbLine
 10
0.3000030517578125
 20
-37.69997848591993
 30
0.0
 11
0.3000030517578125
 21
-8.300013174746709
 31
0.0
  0
LINE
  5
CD
330
1F
100
AcDbEntity
  8
0
  6
Continuous
 62
     7
100
AcDbLine
 10
48.0
 20
-43.57733154296875
 30
0.0
 11
48.0
 21
-57.0
 31
0.0
  0
LINE
  5
CE
330
1F
100
AcDbEntity
  8
0
  6
Continuous
 62
     7
100
AcDbLine
 10
47.4999813319082
 20
-3.288722921806766
 30
0.0
 11
44.49999940305679
 21
-5.020763327080204
 31
0.0
  0
LINE
  5
CF
330
1F
100
AcDbEntity
  8
0
  6
Continuous
 62
     7
100
AcDbLine
 10
44.0
 20
-33.82842712474619
 30
0.0
 11
44.0
 21
-57.0
 31
0.0
  0
LINE
  5
D0
330
1F
100
AcDbEntity
  8
0
  6
Continuous
 62
     7
100
AcDbLine
 10
35.0
 20
-58.0
 30
0.0
 11
35.0
 21
-37.0
 31
0.0
  0
LINE
  5
D1
330
1F
100
AcDbEntity
  8
0
  6
Continuous
 62
     7
100
AcDbLine
 10
34.0
 20
13.0
 30
0.0
 11
11.0
 21
13.0
 31
0.0
  0
LINE
  5
D2
330
1F
100
AcDbEntity
  8
0
  6
Continuous
 62
     2
100
AcDbLine
 10
19.5
 20
16.0
 30
0.0
 11
19.5
 21
-63.0
 31
0.0
  0
LINE
  5
D3
330
1F
100
AcDbEntity
  8
0
  6
Continuous
 62
     2
100
AcDbLine
 10
7.5
 20
-57.19967651367188
 30
0.0
 11
7.5
 21
-67.32257080078125
 31
0.0
  0
LINE
  5
D4
330
1F
100
AcDbEntity
  8
0
  6
Continuous
 62
     7
100
AcDbLine
 10
47.49999922093843
 20
-42.71130141691356
 30
0.0
 11
44.49999747033893
 21
-40.97924956754832
 31
0.0
  0
LINE
  5
D5
330
1F
100
AcDbEntity
  8
0
  6
Continuous
 62
     7
100
AcDbLine
 10
41.96409606933594
 20
-29.0
 30
0.0
 11
35.03590393066407
 21
-29.0
 31
0.0
  0
LINE
  5
D6
330
1F
100
AcDbEntity
  8
0
  6
Continuous
 62
     7
100
AcDbLine
 10
41.96409606933594
 20
-17.0
 30
0.0
 11
35.03590393066407
 21
-17.0
 31
0.0
  0
LINE
  5
D7
330
1F
100
AcDbEntity
  8
0
  6
Continuous
 62
     2
100
AcDbLine
 10
38.5
 20
-14.0
 30
0.0
 11
38.5
 21
-32.0
 31
0.0
  0
LINE
  5
D8
330
1F
100
AcDbEntity
  8
0
  6
Continuous
 62
     7
100
AcDbLine
 10
35.03589799884025
 20
-17.00001523787068
 30
0.0
 11
31.57178667071525
 21
-23.0000319535684
 31
0.0
  0
LINE
  5
D9
330
1F
100
AcDbEntity
  8
0
  6
Continuous
 62
     7
100
AcDbLine
 10
11.0
 20
12.0
 30
0.0
 11
4.0
 21
12.0
 31
0.0
  0
LINE
  5
DA
330
1F
100
AcDbEntity
  8
0
  6
Continuous
 62
     7
100
AcDbLine
 10
12.86601505848011
 20
-24.499987856796
 30
0.0
 11
13.73204289051136
 21
-22.99998367787157
 31
0.0
  0
LINE
  5
DB
330
1F
100
AcDbEntity
  8
0
  6
Continuous
 62
     7
100
AcDbLine
 10
41.96408869936385
 20
-17.00001881414937
 30
0.0
 11
45.42818476869978
 21
-23.00000910084964
 31
0.0
  0
LINE
  5
DC
330
1F
100
AcDbEntity
  8
0
  6
Continuous
 62
     7
100
AcDbLine
 10
0.0
 20
-37.99998153767774
 30
0.0
 11
0.0
 21
-59.0
 31
0.0
  0
LINE
  5
DD
330
1F
100
AcDbEntity
  8
0
  6
Continuous
 62
     7
100
AcDbLine
 10
0.0000000000000002
 20
-8.000010122988896
 30
0.0
 11
0.3000030517578124
 21
-8.300013174746709
 31
0.0
  0
LINE
  5
DE
330
1F
100
AcDbEntity
  8
0
  6
Continuous
 62
     7
100
AcDbLine
 10
-0.0000000000000008
 20
-37.99998153767774
 30
0.0
 11
0.3000030517578124
 21
-37.69997848591993
 31
0.0
  0
LINE
  5
DF
330
1F
100
AcDbEntity
  8
0
  6
Continuous
 62
     7
100
AcDbLine
 10
26.13396263842333
 20
-24.50001483996766
 30
0.0
 11
25.26793480639208
 21
-23.00001066104323
 31
0.0
  0
LINE
  5
E0
330
1F
100
AcDbEntity
  8
0
  6
Continuous
 62
     7
100
AcDbLine
 10
12.86599731445312
 20
-21.5
 30
0.0
 11
11.13394165039062
 21
-21.5
 31
0.0
  0
LINE
  5
E1
330
1F
100
AcDbEntity
  8
0
  6
Continuous
 62
     7
100
AcDbLine
 10
27.8660245343749
 20
-24.50002879952445
 30
0.0
 11
28.73205236640615
 21
-23.00002462060001
 31
0.0
  0
LINE
  5
E2
330
1F
100
AcDbEntity
  8
0
  6
Continuous
 62
     7
100
AcDbLine
 10
26.13397620168371
 20
-21.50002462060001
 30
0.0
 11
25.26794836965245
 21
-23.00002879952445
 31
0.0
  0
LINE
  5
E3
330
1F
100
AcDbEntity
  8
0
  6
Continuous
 62
     2
100
AcDbLine
 10
26.83750915527344
 20
-34.70001220703125
 30
0.0
 11
11.77610778808594
 21
-34.70001220703125
 31
0.0
  0
LINE
  5
E4
330
1F
100
AcDbEntity
  8
0
  6
Continuous
 62
     7
100
AcDbLine
 10
11.13397093998628
 20
-24.50001028021234
 30
0.0
 11
10.26794310795503
 21
-23.00000610128791
 31
0.0
  0
LINE
  5
E5
330
1F
100
AcDbEntity
  8
0
  6
Continuous
 62
     7
100
AcDbLine
 10
0.0
 20
13.0
 30
0.0
 11
0.0
 21
-8.000010122988896
 31
0.0
  0
LINE
  5
E6
330
1F
100
AcDbEntity
  8
0
  6
Continuous
 62
     7
100
AcDbLine
 10
11.13396672578892
 20
-21.49998367787157
 30
0.0
 11
10.26793889375767
 21
-22.999987856796
 31
0.0
  0
LINE
  5
E7
330
1F
100
AcDbEntity
  8
0
  6
Continuous
 62
     7
100
AcDbLine
 10
27.86601097111452
 20
-21.50001066104323
 30
0.0
 11
28.73203880314577
 21
-23.00001483996767
 31
0.0
  0
LINE
  5
E8
330
1F
100
AcDbEntity
  8
0
  6
Continuous
 62
     7
100
AcDbLine
 10
12.86601927267747
 20
-21.50000610128791
 30
0.0
 11
13.73204710470872
 21
-23.00001028021234
 31
0.0
  0
LINE
  5
E9
330
1F
100
AcDbEntity
  8
0
  6
Continuous
 62
     7
100
AcDbLine
 10
26.13400268554688
 20
-21.5
 30
0.0
 11
27.86605834960937
 21
-21.5
 31
0.0
  0
LINE
  5
EA
330
1F
100
AcDbEntity
  8
0
  6
Continuous
 62
     7
100
AcDbLine
 10
26.13400268554688
 20
-24.5
 30
0.0
 11
27.86605834960937
 21
-24.5
 31
0.0
  0
LINE
  5
EB
330
1F
100
AcDbEntity
  8
0
  6
Continuous
 62
     7
100
AcDbLine
 10
5.899993896484375
 20
-65.20001220703125
 30
0.0
 11
5.899993896484375
 21
-64.69998168945314
 31
0.0
  0
LINE
  5
EC
330
1F
100
AcDbEntity
  8
0
  6
Continuous
 62
     7
100
AcDbLine
 10
12.86599731445312
 20
-24.5
 30
0.0
 11
11.13394165039062
 21
-24.5
 31
0.0
  0
LINE
  5
ED
330
1F
100
AcDbEntity
  8
0
  6
Continuous
 62
     2
100
AcDbLine
 10
47.35116577148438
 20
-23.0
 30
0.0
 11
-6.247888796514473
 21
-23.0
 31
0.0
  0
LINE
  5
EE
330
1F
100
AcDbEntity
  8
0
  6
Continuous
 62
     7
100
AcDbLine
 10
9.100006103515623
 20
-65.20001220703125
 30
0.0
 11
9.100006103515623
 21
-64.69999617571739
 31
0.0
  0
LINE
  5
EF
330
1F
100
AcDbEntity
  8
0
  6
Continuous
 62
     7
100
AcDbLine
 10
4.0
 20
13.0
 30
0.0
 11
0.0
 21
13.0
 31
0.0
  0
LINE
  5
F0
330
1F
100
AcDbEntity
  8
0
  6
Continuous
 62
     7
100
AcDbLine
 10
20.94338183956233
 20
-37.20002267941528
 30
0.0
 11
22.3867564733514
 21
-34.70002452420704
 31
0.0
  0
LINE
  5
F1
330
1F
100
AcDbEntity
  8
0
  6
Continuous
 62
     7
100
AcDbLine
 10
18.05662953214733
 20
-32.20002452420704
 30
0.0
 11
16.61325489835826
 21
-34.70002267941527
 31
0.0
  0
LINE
  5
F2
330
1F
100
AcDbEntity
  8
0
  6
Continuous
 62
     7
100
AcDbLine
 10
11.0
 20
12.0
 30
0.0
 11
11.0
 21
13.0
 31
0.0
  0
LINE
  5
F3
330
1F
100
AcDbEntity
  8
0
  6
Continuous
 62
     7
100
AcDbLine
 10
18.05664210808663
 20
-37.20002295970608
 30
0.0
 11
16.61325221550851
 21
-34.6999983755004
 31
0.0
  0
LINE
  5
F4
330
1F
100
AcDbEntity
  8
0
  6
Continuous
 62
     7
100
AcDbLine
 10
20.94337463378907
 20
-32.20001220703125
 30
0.0
 11
18.05662536621093
 21
-32.20001220703125
 31
0.0
  0
LINE
  5
F5
330
1F
100
AcDbEntity
  8
0
  6
Continuous
 62
     7
100
AcDbLine
 10
0.0
 20
-59.0
 30
0.0
 11
4.0
 21
-59.0
 31
0.0
  0
LINE
  5
F6
330
1F
100
AcDbEntity
  8
0
  6
Continuous
 62
     7
100
AcDbLine
 10
41.96409132960503
 20
-29.0000319535684
 30
0.0
 11
45.42820265773002
 21
-23.00001523787068
 31
0.0
  0
LINE
  5
F7
330
1F
100
AcDbEntity
  8
0
  6
Continuous
 62
     7
100
AcDbLine
 10
4.0
 20
12.0
 30
0.0
 11
4.0
 21
13.0
 31
0.0
  0
LINE
  5
F8
330
1F
100
AcDbEntity
  8
0
  6
Continuous
 62
     7
100
AcDbLine
 10
20.94337915671258
 20
-32.1999983755004
 30
0.0
 11
22.38676904929071
 21
-34.70002295970608
 31
0.0
  0
LINE
  5
F9
330
1F
100
AcDbEntity
  8
0
  6
Continuous
 62
     7
100
AcDbLine
 10
20.94337463378907
 20
-37.20001220703125
 30
0.0
 11
18.05662536621093
 21
-37.20001220703125
 31
0.0
  0
LINE
  5
FA
330
1F
100
AcDbEntity
  8
0
  6
Continuous
 62
     7
100
AcDbLine
 10
35.03588010981002
 20
-29.00000910084964
 30
0.0
 11
31.57178404047409
 21
-23.00001881414937
 31
0.0
  0
LINE
  5
FB
330
1F
100
AcDbEntity
  8
0
  6
Continuous
 62
     7
100
AcDbLine
 10
43.0
 20
-12.0
 30
0.0
 11
38.0
 21
-12.0
 31
0.0
  0
LINE
  5
FC
330
1F
100
AcDbEntity
  8
0
  6
Continuous
 62
     7
100
AcDbLine
 10
47.0
 20
-58.0
 30
0.0
 11
35.0
 21
-58.0
 31
0.0
  0
LINE
  5
FD
330
1F
100
AcDbEntity
  8
0
  6
Continuous
 62
     7
100
AcDbLine
 10
44.0
 20
-12.17157287525381
 30
0.0
 11
44.0
 21
11.0
 31
0.0
  0
LINE
  5
FE
330
1F
100
AcDbEntity
  8
0
  6
Continuous
 62
     7
100
AcDbLine
 10
35.0
 20
-9.0
 30
0.0
 11
35.0
 21
12.0
 31
0.0
  0
LINE
  5
FF
330
1F
100
AcDbEntity
  8
0
  6
Continuous
 62
     7
100
AcDbLine
 10
48.0
 20
11.0
 30
0.0
 11
48.0
 21
-2.42266845703125
 31
0.0
  0
LINE
  5
100
330
1F
100
AcDbEntity
  8
0
  6
Continuous
 62
     7
100
AcDbLine
 10
40.22169494628905
 20
-38.75
 30
0.0
 11
38.77830505371094
 21
-38.75
 31
0.0
  0
LINE
  5
101
330
1F
100
AcDbEntity
  8
0
  6
Continuous
 62
     7
100
AcDbLine
 10
40.22167626963528
 20
-38.75001568141306
 30
0.0
 11
40.94337121592434
 21
-40.0000279735159
 31
0.0
  0
LINE
  5
102
330
1F
100
AcDbEntity
  8
0
  6
Continuous
 62
     7
100
AcDbLine
 10
40.22169494628905
 20
-7.25
 30
0.0
 11
38.77830505371094
 21
-7.25
 31
0.0
  0
LINE
  5
103
330
1F
100
AcDbEntity
  8
0
  6
Continuous
 62
     7
100
AcDbLine
 10
46.0
 20
-15.0
 30
0.0
 11
46.0
 21
-31.0
 31
0.0
  0
LINE
  5
104
330
1F
100
AcDbEntity
  8
0
  6
Continuous
 62
     7
100
AcDbLine
 10
38.77829671846303
 20
-7.250009789795513
 30
0.0
 11
38.05661703096303
 21
-6.000023926690119
 31
0.0
  0
LINE
  5
105
330
1F
100
AcDbEntity
  8
0
  6
Continuous
 62
     7
100
AcDbLine
 10
40.22168755141614
 20
-7.250004842609996
 30
0.0
 11
40.94336723891614
 21
-6.000018979504602
 31
0.0
  0
LINE
  5
106
330
1F
100
AcDbEntity
  8
0
  6
Continuous
 62
     7
100
AcDbLine
 10
40.22169494628905
 20
-41.25
 30
0.0
 11
38.77830505371094
 21
-41.25
 31
0.0
  0
LINE
  5
107
330
1F
100
AcDbEntity
  8
0
  6
Continuous
 62
     7
100
AcDbLine
 10
40.22168050156505
 20
-4.750023926690118
 30
0.0
 11
40.94336018906505
 21
-6.000009789795512
 31
0.0
  0
LINE
  5
108
330
1F
100
AcDbEntity
  8
0
  6
Continuous
 62
     7
100
AcDbLine
 10
38.77830774532231
 20
-41.2500279735159
 30
0.0
 11
38.05661279903326
 21
-40.00001568141305
 31
0.0
  0
LINE
  5
109
330
1F
100
AcDbEntity
  8
0
  6
Continuous
 62
     7
100
AcDbLine
 10
40.22169494628905
 20
-4.75
 30
0.0
 11
38.77830505371094
 21
-4.75
 31
0.0
  0
LINE
  5
10A
330
1F
100
AcDbEntity
  8
0
  6
Continuous
 62
     7
100
AcDbLine
 10
40.22169178334592
 20
-41.24999659733293
 30
0.0
 11
40.94337147084592
 21
-40.00001073422753
 31
0.0
  0
ARC
  5
10B
330
1F
100
AcDbEntity
  8
0
  6
Continuous
 62
     7
100
AcDbCircle
 10
47.0
 20
-57.0
 30
0.0
 40
1.0
100
AcDbArc
 50
270.0
 51
0.0000025044781673
  0
ARC
  5
10C
330
1F
100
AcDbEntity
  8
0
  6
Continuous
 62
     7
100
AcDbCircle
 10
47.0
 20
11.0
 30
0.0
 40
1.0
100
AcDbArc
 50
0.0000025044781673
 51
90.00000500895634
  0
ARC
  5
10D
330
1F
100
AcDbEntity
  8
0
  6
Continuous
 62
     7
100
AcDbCircle
 10
10.5
 20
-64.70001220703125
 30
0.0
 40
0.5
100
AcDbArc
 50
269.9999949910439
 51
0.0000025044781673
  0
ARC
  5
10E
330
1F
100
AcDbEntity
  8
0
  6
Continuous
 62
     7
100
AcDbCircle
 10
7.5
 20
-62.60000610351561
 30
0.0
 40
2.099999904632568
100
AcDbArc
 50
359.9999956742889
 51
180.0000006832453
  0
ARC
  5
10F
330
1F
100
AcDbEntity
  8
0
  6
Continuous
 62
     7
100
AcDbCircle
 10
4.5
 20
-64.70001220703125
 30
0.0
 40
0.5
100
AcDbArc
 50
179.9999974955218
 51
270.0000086514222
  0
ARC
  5
110
330
1F
100
AcDbEntity
  8
0
  6
Continuous
 62
     7
100
AcDbCircle
 10
47.0
 20
-43.57733154296875
 30
0.0
 40
1.0
100
AcDbArc
 50
0.0000025044781673
 51
59.99999734394111
  0
CIRCLE
  5
111
330
1F
100
AcDbEntity
  8
0
  6
Continuous
 62
     7
100
AcDbCircle
 10
39.5
 20
-40.0
 30
0.0
 40
3.799999952316284
  0
CIRCLE
  5
112
330
1F
100
AcDbEntity
  8
0
  6
Continuous
 62
     2
100
AcDbCircle
 10
38.5
 20
-23.0
 30
0.0
 40
5.0
  0
CIRCLE
  5
113
330
1F
100
AcDbEntity
  8
0
  6
Continuous
 62
     2
100
AcDbCircle
 10
19.5
 20
-34.70001220703125
 30
0.0
 40
4.849999904632568
  0
CIRCLE
  5
114
330
1F
100
AcDbEntity
  8
0
  6
Continuous
 62
     7
100
AcDbCircle
 10
19.5
 20
-34.70001220703125
 30
0.0
 40
4.150000095367431
  0
ARC
  5
115
330
1F
100
AcDbEntity
  8
0
  6
Continuous
 62
     7
100
AcDbCircle
 10
45.0
 20
-5.88677978515625
 30
0.0
 40
1.0
100
AcDbArc
 50
120.0000026560589
 51
179.9999974955218
  0
CIRCLE
  5
116
330
1F
100
AcDbEntity
  8
0
  6
Continuous
 62
     7
100
AcDbCircle
 10
38.5
 20
-23.0
 30
0.0
 40
6.0
  0
CIRCLE
  5
117
330
1F
100
AcDbEntity
  8
0
  6
Continuous
 62
     7
100
AcDbCircle
 10
27.00003051757813
 20
-23.0
 30
0.0
 40
4.0
  0
CIRCLE
  5
118
330
1F
100
AcDbEntity
  8
0
  6
Continuous
 62
     7
100
AcDbCircle
 10
11.99996948242187
 20
-23.0
 30
0.0
 40
4.0
  0
ARC
  5
119
330
1F
100
AcDbEntity
  8
0
  6
Continuous
 62
     7
100
AcDbCircle
 10
45.0
 20
-40.11322021484375
 30
0.0
 40
1.0
100
AcDbArc
 50
179.9999974955218
 51
239.9999991651739
  0
ARC
  5
11A
330
1F
100
AcDbEntity
  8
0
  6
Continuous
 62
     7
100
AcDbCircle
 10
43.0
 20
-57.0
 30
0.0
 40
1.0
100
AcDbArc
 50
270.0
 51
0.0000025044781673
  0
ARC
  5
11B
330
1F
100
AcDbEntity
  8
0
  6
Continuous
 62
     7
100
AcDbCircle
 10
34.0
 20
-58.0
 30
0.0
 40
1.0
100
AcDbArc
 50
270.0
 51
0.0000025044781673
  0
ARC
  5
11C
330
1F
100
AcDbEntity
  8
0
  6
Continuous
 62
     7
100
AcDbCircle
 10
34.0
 20
12.0
 30
0.0
 40
1.0
100
AcDbArc
 50
0.0000025044781673
 51
90.00000500895634
  0
CIRCLE
  5
11D
330
1F
100
AcDbEntity
  8
0
  6
Continuous
 62
     7
100
AcDbCircle
 10
38.5
 20
-23.0
 30
0.0
 40
4.5
  0
ARC
  5
11E
330
1F
100
AcDbEntity
  8
0
  6
Continuous
 62
     7
100
AcDbCircle
 10
47.0
 20
-2.42266845703125
 30
0.0
 40
1.0
100
AcDbArc
 50
300.000000834826
 51
0.0000025044781673
  0
ARC
  5
11F
330
1F
100
AcDbEntity
  8
0
  6
Continuous
 62
     7
100
AcDbCircle
 10
43.0
 20
11.0
 30
0.0
 40
1.0
100
AcDbArc
 50
0.0000025044781673
 51
90.00000500895634
  0
ARC
  5
120
330
1F
100
AcDbEntity
  8
0
  6
Continuous
 62
     7
100
AcDbCircle
 10
38.0
 20
-37.0
 30
0.0
 40
3.0
100
AcDbArc
 50
89.99999134857798
 51
180.0000006832453
  0
ARC
  5
121
330
1F
100
AcDbEntity
  8
0
  6
Continuous
 62
     7
100
AcDbCircle
 10
43.0
 20
-31.0
 30
0.0
 40
3.0
100
AcDbArc
 50
270.0
 51
0.0000025044781673
  0
ARC
  5
122
330
1F
100
AcDbEntity
  8
0
  6
Continuous
 62
     7
100
AcDbCircle
 10
38.0
 20
-9.0
 30
0.0
 40
3.0
100
AcDbArc
 50
179.9999974955218
 51
270.0
  0
ARC
  5
123
330
1F
100
AcDbEntity
  8
0
  6
Continuous
 62
     7
100
AcDbCircle
 10
43.0
 20
-15.0
 30
0.0
 40
3.0
100
AcDbArc
 50
0.0000025044781673
 51
90.00000500895634
  0
CIRCLE
  5
124
330
1F
100
AcDbEntity
  8
0
  6
Continuous
 62
     7
100
AcDbCircle
 10
39.5
 20
-6.0
 30
0.0
 40
3.799999952316284
  0
LINE
  5
125
330
1F
100
AcDbEntity
  8
0
  6
Continuous
 62
     7
100
AcDbLine
 10
11.0
 20
-58.0
 30
0.0
 11
4.0
 21
-58.0
 31
0.0
  0
LINE
  5
126
330
1F
100
AcDbEntity
  8
0
  6
Continuous
 62
     7
100
AcDbLine
 10
11.0
 20
-59.0
 30
0.0
 11
34.0
 21
-59.0
 31
0.0
  0
CIRCLE
  5
127
330
1F
100
AcDbEntity
  8
0
  6
Continuous
 62
     7
100
AcDbCircle
 10
6.849999997275176
 20
-62.7000126846848
 30
0.0
 40
0.5
  0
CIRCLE
  5
128
330
1F
100
AcDbEntity
  8
0
  6
Continuous
 62
     7
100
AcDbCircle
 10
7.5
 20
-62.7000126846848
 30
0.0
 40
1.300000000000011
  0
LINE
  5
129
330
1F
100
AcDbEntity
  8
0
  6
Continuous
 62
     7
100
AcDbLine
 10
9.0
 20
-65.20001220703125
 30
0.0
 11
6.0
 21
-65.20001220703125
 31
0.0
  0
LINE
  5
12A
330
1F
100
AcDbEntity
  8
0
  6
Continuous
 62
     7
100
AcDbLine
 10
8.75
 20
-65.43741160885372
 30
0.0
 11
6.25
 21
-65.43741160885372
 31
0.0
  0
LINE
  5
12B
330
1F
100
AcDbEntity
  8
0
  6
Continuous
 62
     7
100
AcDbLine
 10
8.550000000000011
 20
-65.63741160885374
 30
0.0
 11
6.449999999999988
 21
-65.63741160885374
 31
0.0
  0
ARC
  5
12C
330
1F
100
AcDbEntity
  8
0
  6
Continuous
 62
     7
100
AcDbCircle
 10
7.5
 20
-62.65001220703125
 30
0.0
 40
2.049999999999996
100
AcDbArc
 50
12.68038349181954
 51
167.3196165081805
  0
LINE
  5
12D
330
1F
100
AcDbEntity
  8
0
  6
Continuous
 62
     7
100
AcDbLine
 10
6.25
 20
-65.43741160885372
 30
0.0
 11
6.25
 21
-65.20001220703125
 31
0.0
  0
LINE
  5
12E
330
1F
100
AcDbEntity
  8
0
  6
Continuous
 62
     7
100
AcDbLine
 10
6.449999999999988
 20
-65.63741160885374
 30
0.0
 11
6.25
 21
-65.43741160885372
 31
0.0
  0
LINE
  5
12F
330
1F
100
AcDbEntity
  8
0
  6
Continuous
 62
     2
100
AcDbLine
 10
6.449999999999988
 20
-65.20001220703125
 30
0.0
 11
6.449999999999988
 21
-65.63741160885374
 31
0.0
  0
CIRCLE
  5
130
330
1F
100
AcDbEntity
  8
0
  6
Continuous
 62
     7
100
AcDbCircle
 10
6.849999997275176
 20
-62.7000126846848
 30
0.0
 40
0.29
  0
LINE
  5
131
330
1F
100
AcDbEntity
  8
0
  6
Continuous
 62
     7
100
AcDbLine
 10
5.5
 20
-62.20001220703125
 30
0.0
 11
5.5
 21
-64.15001220703125
 31
0.0
  0
LINE
  5
132
330
1F
100
AcDbEntity
  8
0
  6
Continuous
 62
     7
100
AcDbLine
 10
6.000000006130732
 20
-64.65001221316203
 30
0.0
 11
5.5
 21
-64.15001220703125
 31
0.0
  0
LINE
  5
133
330
1F
100
AcDbEntity
  8
0
  6
Continuous
 62
     7
100
AcDbLine
 10
6.0
 20
-64.65001220703125
 30
0.0
 11
6.0
 21
-65.20001220975602
 31
0.0
  0
LINE
  5
134
330
1F
100
AcDbEntity
  8
0
  6
Continuous
 62
     7
100
AcDbLine
 10
9.5
 20
-64.15027262369791
 30
0.0
 11
9.0
 21
-64.65287679036457
 31
0.0
  0
LINE
  5
135
330
1F
100
AcDbEntity
  8
0
  6
Continuous
 62
     7
100
AcDbLine
 10
9.0
 20
-64.65287679036457
 30
0.0
 11
9.0
 21
-65.20001220975602
 31
0.0
  0
LINE
  5
136
330
1F
100
AcDbEntity
  8
0
  6
Continuous
 62
     7
100
AcDbLine
 10
8.75
 20
-65.20001220703125
 30
0.0
 11
8.75
 21
-65.43741160885372
 31
0.0
  0
LINE
  5
137
330
1F
100
AcDbEntity
  8
0
  6
Continuous
 62
     7
100
AcDbLine
 10
8.75
 20
-65.43741160885372
 30
0.0
 11
8.550000000000011
 21
-65.63741160885374
 31
0.0
  0
LINE
  5
138
330
1F
100
AcDbEntity
  8
0
  6
Continuous
 62
     2
100
AcDbLine
 10
8.550000000000011
 20
-65.20001220703125
 30
0.0
 11
8.550000000000011
 21
-65.63741160885374
 31
0.0
  0
LINE
  5
139
330
1F
100
AcDbEntity
  8
0
  6
Continuous
 62
     7
100
AcDbLine
 10
9.5
 20
-62.20001220703125
 30
0.0
 11
9.5
 21
-64.15027262369791
 31
0.0
  0
CIRCLE
  5
13A
330
1F
100
AcDbEntity
  8
0
  6
Continuous
 62
     7
100
AcDbCircle
 10
8.150000002724766
 20
-62.7000126846848
 30
0.0
 40
0.5
  0
CIRCLE
  5
13B
330
1F
100
AcDbEntity
  8
0
  6
Continuous
 62
     7
100
AcDbCircle
 10
8.150000002724766
 20
-62.7000126846848
 30
0.0
 40
0.29
  0
LINE
  5
13C
330
1F
100
AcDbEntity
  8
0
  6
Continuous
 62
     2
100
AcDbLine
 10
-3.0
 20
0.0
 30
0.0
 11
3.0
 21
0.0
 31
0.0
  0
LINE
  5
13D
330
1F
100
AcDbEntity
  8
0
  6
Continuous
 62
     2
100
AcDbLine
 10
-3.0
 20
-46.0
 30
0.0
 11
3.0
 21
-46.0
 31
0.0
  0
LINE
  5
13E
330
1F
100
AcDbEntity
  8
0
  6
Continuous
 62
     2
100
AcDbLine
 10
45.0
 20
5.0
 30
0.0
 11
51.0
 21
5.0
 31
0.0
  0
LINE
  5
13F
330
1F
100
AcDbEntity
  8
0
  6
Continuous
 62
     2
100
AcDbLine
 10
45.0
 20
-51.0
 30
0.0
 11
51.0
 21
-51.0
 31
0.0
  0
ENDBLK
  5
140
330
1F
100
AcDbEntity
  8
0
100
AcDbBlockEnd
  0
BLOCK
  5
141
330
20
100
AcDbEntity
  8
0
100
AcDbBlockBegin
  2
MRVZS28-K2-3
 70
     0
 10
0.0
 20
0.0
 30
0.0
  3
MRVZS28-K2-3
  1

  0
LINE
  5
142
330
20
100
AcDbEntity
  8
0
  6
Continuous
 62
     7
100
AcDbLine
 10
-25.5
 20
34.0
 30
0.0
 11
-25.0
 21
33.5
 31
0.0
  0
LINE
  5
143
330
20
100
AcDbEntity
  8
0
  6
Continuous
 62
     7
100
AcDbLine
 10
-25.5
 20
42.99999999999999
 30
0.0
 11
-25.0
 21
43.5
 31
0.0
  0
LINE
  5
144
330
20
100
AcDbEntity
  8
0
  6
Continuous
 62
     7
100
AcDbLine
 10
238.5
 20
34.00000000000001
 30
0.0
 11
238.0
 21
33.5
 31
0.0
  0
LINE
  5
145
330
20
100
AcDbEntity
  8
0
  6
Continuous
 62
     7
100
AcDbLine
 10
238.5
 20
43.0
 30
0.0
 11
238.0
 21
43.5
 31
0.0
  0
LINE
  5
146
330
20
100
AcDbEntity
  8
0
  6
Continuous
 62
     7
100
AcDbLine
 10
190.5
 20
34.0
 30
0.0
 11
191.0
 21
33.50000000000001
 31
0.0
  0
LINE
  5
147
330
20
100
AcDbEntity
  8
0
  6
Continuous
 62
     7
100
AcDbLine
 10
190.5
 20
43.0
 30
0.0
 11
191.0
 21
43.5
 31
0.0
  0
LINE
  5
148
330
20
100
AcDbEntity
  8
0
  6
Continuous
 62
     7
100
AcDbLine
 10
22.5
 20
34.0
 30
0.0
 11
22.0
 21
33.5
 31
0.0
  0
LINE
  5
149
330
20
100
AcDbEntity
  8
0
  6
Continuous
 62
     7
100
AcDbLine
 10
22.5
 20
43.0
 30
0.0
 11
22.0
 21
43.5
 31
0.0
  0
LINE
  5
14A
330
20
100
AcDbEntity
  8
0
  6
Continuous
 62
     7
100
AcDbLine
 10
22.5
 20
34.00000048274841
 30
0.0
 11
24.5
 21
34.00000048274841
 31
0.0
  0
LINE
  5
14B
330
20
100
AcDbEntity
  8
0
  6
Continuous
 62
     7
100
AcDbLine
 10
22.5
 20
43.0
 30
0.0
 11
23.65248514922061
 21
43.0
 31
0.0
  0
LINE
  5
14C
330
20
100
AcDbEntity
  8
0
  6
Continuous
 62
     7
100
AcDbLine
 10
188.5
 20
34.0
 30
0.0
 11
190.5
 21
34.0
 31
0.0
  0
LINE
  5
14D
330
20
100
AcDbEntity
  8
0
  6
Continuous
 62
     7
100
AcDbLine
 10
188.5
 20
43.0
 30
0.0
 11
190.5
 21
43.0
 31
0.0
  0
LINE
  5
14E
330
20
100
AcDbEntity
  8
0
  6
Continuous
 62
     7
100
AcDbLine
 10
196.5
 20
33.5
 30
0.0
 11
191.0
 21
33.5
 31
0.0
  0
LINE
  5
14F
330
20
100
AcDbEntity
  8
0
  6
Continuous
 62
     2
100
AcDbLine
 10
196.5
 20
34.0
 30
0.0
 11
190.5
 21
34.0
 31
0.0
  0
LINE
  5
150
330
20
100
AcDbEntity
  8
0
  6
Continuous
 62
     2
100
AcDbLine
 10
196.5
 20
43.0
 30
0.0
 11
190.5
 21
43.0
 31
0.0
  0
LINE
  5
151
330
20
100
AcDbEntity
  8
0
  6
Continuous
 62
     7
100
AcDbLine
 10
196.5
 20
43.5
 30
0.0
 11
191.0
 21
43.5
 31
0.0
  0
LINE
  5
152
330
20
100
AcDbEntity
  8
0
  6
Continuous
 62
     7
100
AcDbLine
 10
-25.5
 20
43.0
 30
0.0
 11
-25.5
 21
34.0
 31
0.0
  0
LINE
  5
153
330
20
100
AcDbEntity
  8
0
  6
Continuous
 62
     7
100
AcDbLine
 10
-25.0
 20
43.5
 30
0.0
 11
-25.0
 21
33.5
 31
0.0
  0
LINE
  5
154
330
20
100
AcDbEntity
  8
0
  6
Continuous
 62
     2
100
AcDbLine
 10
-9.5
 20
19.5
 30
0.0
 11
222.5
 21
19.5
 31
0.0
  0
LINE
  5
155
330
20
100
AcDbEntity
  8
0
  6
Continuous
 62
     7
100
AcDbLine
 10
88.49999999999999
 20
30.29998779296875
 30
0.0
 11
196.5
 21
30.29998779296875
 31
0.0
  0
LINE
  5
156
330
20
100
AcDbEntity
  8
0
  6
Continuous
 62
     7
100
AcDbLine
 10
219.5
 20
46.0
 30
0.0
 11
219.5
 21
0.0
 31
0.0
  0
LINE
  5
157
330
20
100
AcDbEntity
  8
0
  6
Continuous
 62
     2
100
AcDbLine
 10
205.5
 20
26.0
 30
0.0
 11
205.5
 21
13.0
 31
0.0
  0
LINE
  5
158
330
20
100
AcDbEntity
  8
0
  6
Continuous
 62
     7
100
AcDbLine
 10
219.5
 20
31.57179260253907
 30
0.0
 11
222.5
 21
31.57179260253907
 31
0.0
  0
LINE
  5
159
330
20
100
AcDbEntity
  8
0
  6
Continuous
 62
     7
100
AcDbLine
 10
196.5
 20
46.0
 30
0.0
 11
196.5
 21
11.0
 31
0.0
  0
LINE
  5
15A
330
20
100
AcDbEntity
  8
0
  6
Continuous
 62
     7
100
AcDbLine
 10
219.5
 20
0.0
 30
0.0
 11
196.5
 21
0.0
 31
0.0
  0
LINE
  5
15B
330
20
100
AcDbEntity
  8
0
  6
Continuous
 62
     7
100
AcDbLine
 10
238.0
 20
43.5
 30
0.0
 11
238.0
 21
33.5
 31
0.0
  0
LINE
  5
15C
330
20
100
AcDbEntity
  8
0
  6
Continuous
 62
     7
100
AcDbLine
 10
191.0
 20
43.5
 30
0.0
 11
191.0
 21
33.5
 31
0.0
  0
LINE
  5
15D
330
20
100
AcDbEntity
  8
0
  6
Continuous
 62
     7
100
AcDbLine
 10
190.5
 20
43.0
 30
0.0
 11
190.5
 21
34.0
 31
0.0
  0
LINE
  5
15E
330
20
100
AcDbEntity
  8
0
  6
Continuous
 62
     7
100
AcDbLine
 10
219.5
 20
46.0
 30
0.0
 11
196.5
 21
46.0
 31
0.0
  0
LINE
  5
15F
330
20
100
AcDbEntity
  8
0
  6
Continuous
 62
     2
100
AcDbLine
 10
238.5
 20
34.0
 30
0.0
 11
222.5
 21
34.0
 31
0.0
  0
LINE
  5
160
330
20
100
AcDbEntity
  8
0
  6
Continuous
 62
     7
100
AcDbLine
 10
222.5
 20
41.96409606933594
 30
0.0
 11
219.5
 21
41.96409606933594
 31
0.0
  0
LINE
  5
161
330
20
100
AcDbEntity
  8
0
  6
Continuous
 62
     7
100
AcDbLine
 10
238.0
 20
43.5
 30
0.0
 11
222.5
 21
43.5
 31
0.0
  0
LINE
  5
162
330
20
100
AcDbEntity
  8
0
  6
Continuous
 62
     2
100
AcDbLine
 10
238.5
 20
43.0
 30
0.0
 11
222.5
 21
43.0
 31
0.0
  0
LINE
  5
163
330
20
100
AcDbEntity
  8
0
  6
Continuous
 62
     7
100
AcDbLine
 10
188.5
 20
43.0
 30
0.0
 11
188.5
 21
34.0
 31
0.0
  0
LINE
  5
164
330
20
100
AcDbEntity
  8
0
  6
Continuous
 62
     7
100
AcDbLine
 10
222.5
 20
35.03590393066407
 30
0.0
 11
219.5
 21
35.03590393066407
 31
0.0
  0
LINE
  5
165
330
20
100
AcDbEntity
  8
0
  6
Continuous
 62
     7
100
AcDbLine
 10
178.5
 20
40.0
 30
0.0
 11
178.5
 21
37.0
 31
0.0
  0
LINE
  5
166
330
20
100
AcDbEntity
  8
0
  6
Continuous
 62
     7
100
AcDbLine
 10
238.0
 20
33.5
 30
0.0
 11
222.5
 21
33.5
 31
0.0
  0
LINE
  5
167
330
20
100
AcDbEntity
  8
0
  6
Continuous
 62
     7
100
AcDbLine
 10
219.5
 20
35.0
 30
0.0
 11
196.5
 21
35.0
 31
0.0
  0
LINE
  5
168
330
20
100
AcDbEntity
  8
0
  6
Continuous
 62
     7
100
AcDbLine
 10
219.5
 20
45.42820739746093
 30
0.0
 11
222.5
 21
45.42820739746093
 31
0.0
  0
LINE
  5
169
330
20
100
AcDbEntity
  8
0
  6
Continuous
 62
     7
100
AcDbLine
 10
238.5
 20
43.0
 30
0.0
 11
238.5
 21
34.0
 31
0.0
  0
LINE
  5
16A
330
20
100
AcDbEntity
  8
0
  6
Continuous
 62
     7
100
AcDbLine
 10
188.5
 20
37.0
 30
0.0
 11
178.5
 21
37.0
 31
0.0
  0
LINE
  5
16B
330
20
100
AcDbEntity
  8
0
  6
Continuous
 62
     7
100
AcDbLine
 10
188.5
 20
40.0
 30
0.0
 11
178.5
 21
40.0
 31
0.0
  0
LINE
  5
16C
330
20
100
AcDbEntity
  8
0
  6
Continuous
 62
     7
100
AcDbLine
 10
222.5
 20
45.42820739746093
 30
0.0
 11
222.5
 21
31.57179260253907
 31
0.0
  0
LINE
  5
16D
330
20
100
AcDbEntity
  8
0
  6
Continuous
 62
     7
100
AcDbLine
 10
24.5
 20
12.5
 30
0.0
 11
27.0
 21
12.5
 31
0.0
  0
LINE
  5
16E
330
20
100
AcDbEntity
  8
0
  6
Continuous
 62
     7
100
AcDbLine
 10
88.49999999999999
 20
44.0
 30
0.0
 11
86.89999389648438
 21
44.0
 31
0.0
  0
LINE
  5
16F
330
20
100
AcDbEntity
  8
0
  6
Continuous
 62
     2
100
AcDbLine
 10
56.5
 20
54.93057440111906
 30
0.0
 11
56.5
 21
-2.60638427734375
 31
0.0
  0
LINE
  5
170
330
20
100
AcDbEntity
  8
0
  6
Continuous
 62
     2
100
AcDbLine
 10
7.5
 20
26.0
 30
0.0
 11
7.5
 21
13.0
 31
0.0
  0
LINE
  5
171
330
20
100
AcDbEntity
  8
0
  6
Continuous
 62
     7
100
AcDbLine
 10
-6.5
 20
35.0
 30
0.0
 11
16.5
 21
35.0
 31
0.0
  0
LINE
  5
172
330
20
100
AcDbEntity
  8
0
  6
Continuous
 62
     7
100
AcDbLine
 10
16.5
 20
46.0
 30
0.0
 11
16.5
 21
11.0
 31
0.0
  0
LINE
  5
173
330
20
100
AcDbEntity
  8
0
  6
Continuous
 62
     7
100
AcDbLine
 10
-6.5
 20
0.0
 30
0.0
 11
16.5
 21
0.0
 31
0.0
  0
LINE
  5
174
330
20
100
AcDbEntity
  8
0
  6
Continuous
 62
     7
100
AcDbLine
 10
16.5
 20
30.29998779296875
 30
0.0
 11
24.5
 21
30.29998779296875
 31
0.0
  0
LINE
  5
175
330
20
100
AcDbEntity
  8
0
  6
Continuous
 62
     7
100
AcDbLine
 10
26.10000610351562
 20
48.0
 30
0.0
 11
86.89999389648438
 21
48.0
 31
0.0
  0
LINE
  5
176
330
20
100
AcDbEntity
  8
0
  6
Continuous
 62
     7
100
AcDbLine
 10
-6.5
 20
46.0
 30
0.0
 11
-6.5
 21
0.0
 31
0.0
  0
LINE
  5
177
330
20
100
AcDbEntity
  8
0
  6
Continuous
 62
     7
100
AcDbLine
 10
-6.5
 20
46.0
 30
0.0
 11
16.5
 21
46.0
 31
0.0
  0
LINE
  5
178
330
20
100
AcDbEntity
  8
0
  6
Continuous
 62
     7
100
AcDbLine
 10
24.14999389648437
 20
23.05000305175781
 30
0.0
 11
24.5
 21
23.05000305175781
 31
0.0
  0
LINE
  5
179
330
20
100
AcDbEntity
  8
0
  6
Continuous
 62
     7
100
AcDbLine
 10
24.14999389648437
 20
15.44999694824219
 30
0.0
 11
24.5
 21
15.44999694824219
 31
0.0
  0
LINE
  5
17A
330
20
100
AcDbEntity
  8
0
  6
Continuous
 62
     7
100
AcDbLine
 10
22.29998779296875
 20
16.26847839355469
 30
0.0
 11
22.29998779296875
 21
22.23152160644532
 31
0.0
  0
LINE
  5
17B
330
20
100
AcDbEntity
  8
0
  6
Continuous
 62
     7
100
AcDbLine
 10
88.85000610351562
 20
23.05000305175781
 30
0.0
 11
88.49999999999999
 21
23.05000305175781
 31
0.0
  0
LINE
  5
17C
330
20
100
AcDbEntity
  8
0
  6
Continuous
 62
     7
100
AcDbLine
 10
88.85000610351562
 20
15.44999694824219
 30
0.0
 11
88.49999999999999
 21
15.44999694824219
 31
0.0
  0
LINE
  5
17D
330
20
100
AcDbEntity
  8
0
  6
Continuous
 62
     7
100
AcDbLine
 10
90.70001220703124
 20
16.26847839355469
 30
0.0
 11
90.70001220703124
 21
22.23152160644532
 31
0.0
  0
LINE
  5
17E
330
20
100
AcDbEntity
  8
0
  6
Continuous
 62
     7
100
AcDbLine
 10
-9.5
 20
41.96409606933594
 30
0.0
 11
-6.5
 21
41.96409606933594
 31
0.0
  0
LINE
  5
17F
330
20
100
AcDbEntity
  8
0
  6
Continuous
 62
     7
100
AcDbLine
 10
22.5
 20
43.0
 30
0.0
 11
22.5
 21
42.42817687988281
 31
0.0
  0
LINE
  5
180
330
20
100
AcDbEntity
  8
0
  6
Continuous
 62
     7
100
AcDbLine
 10
22.0
 20
43.5
 30
0.0
 11
22.0
 21
33.5
 31
0.0
  0
LINE
  5
181
330
20
100
AcDbEntity
  8
0
  6
Continuous
 62
     7
100
AcDbLine
 10
24.5
 20
44.0
 30
0.0
 11
26.10000610351562
 21
44.0
 31
0.0
  0
LINE
  5
182
330
20
100
AcDbEntity
  8
0
  6
Continuous
 62
     7
100
AcDbLine
 10
-6.5
 20
45.42820739746093
 30
0.0
 11
-9.5
 21
45.42820739746093
 31
0.0
  0
LINE
  5
183
330
20
100
AcDbEntity
  8
0
  6
Continuous
 62
     7
100
AcDbLine
 10
-6.5
 20
31.57179260253907
 30
0.0
 11
-9.5
 21
31.57179260253907
 31
0.0
  0
LINE
  5
184
330
20
100
AcDbEntity
  8
0
  6
Continuous
 62
     7
100
AcDbLine
 10
-9.5
 20
45.42820739746093
 30
0.0
 11
-9.5
 21
31.57179260253907
 31
0.0
  0
LINE
  5
185
330
20
100
AcDbEntity
  8
0
  6
Continuous
 62
     7
100
AcDbLine
 10
-9.5
 20
35.03590393066407
 30
0.0
 11
-6.5
 21
35.03590393066407
 31
0.0
  0
LINE
  5
186
330
20
100
AcDbEntity
  8
0
  6
Continuous
 62
     7
100
AcDbLine
 10
22.29998779296875
 20
36.26847839355469
 30
0.0
 11
22.29998779296875
 21
42.23152160644531
 31
0.0
  0
LINE
  5
187
330
20
100
AcDbEntity
  8
0
  6
Continuous
 62
     7
100
AcDbLine
 10
22.5
 20
36.07182312011719
 30
0.0
 11
22.5
 21
34.0
 31
0.0
  0
LINE
  5
188
330
20
100
AcDbEntity
  8
0
  6
Continuous
 62
     7
100
AcDbLine
 10
24.5
 20
15.38674926757812
 30
0.0
 11
88.49999999999999
 21
15.38674926757812
 31
0.0
  0
LINE
  5
189
330
20
100
AcDbEntity
  8
0
  6
Continuous
 62
     7
100
AcDbLine
 10
88.85000610351562
 20
35.44999694824219
 30
0.0
 11
88.49999999999999
 21
35.44999694824219
 31
0.0
  0
LINE
  5
18A
330
20
100
AcDbEntity
  8
0
  6
Continuous
 62
     7
100
AcDbLine
 10
88.85000610351562
 20
43.05000305175781
 30
0.0
 11
88.49999999999999
 21
43.05000305175781
 31
0.0
  0
LINE
  5
18B
330
20
100
AcDbEntity
  8
0
  6
Continuous
 62
     7
100
AcDbLine
 10
90.70001220703124
 20
36.26847839355469
 30
0.0
 11
90.70001220703124
 21
42.23152160644531
 31
0.0
  0
LINE
  5
18C
330
20
100
AcDbEntity
  8
0
  6
Continuous
 62
     7
100
AcDbLine
 10
24.14999389648437
 20
43.05000305175781
 30
0.0
 11
24.5
 21
43.05000305175781
 31
0.0
  0
LINE
  5
18D
330
20
100
AcDbEntity
  8
0
  6
Continuous
 62
     7
100
AcDbLine
 10
24.14999389648437
 20
35.44999694824219
 30
0.0
 11
24.5
 21
35.44999694824219
 31
0.0
  0
LINE
  5
18E
330
20
100
AcDbEntity
  8
0
  6
Continuous
 62
     7
100
AcDbLine
 10
219.5
 20
4.0
 30
0.0
 11
-6.5
 21
4.0
 31
0.0
  0
LINE
  5
18F
330
20
100
AcDbEntity
  8
0
  6
Continuous
 62
     7
100
AcDbLine
 10
88.49999999999999
 20
44.0
 30
0.0
 11
88.49999999999999
 21
11.0
 31
0.0
  0
LINE
  5
190
330
20
100
AcDbEntity
  8
0
  6
Continuous
 62
     7
100
AcDbLine
 10
24.5
 20
44.0
 30
0.0
 11
24.5
 21
11.0
 31
0.0
  0
LINE
  5
191
330
20
100
AcDbEntity
  8
0
  6
Continuous
 62
     7
100
AcDbLine
 10
24.5
 20
2.0
 30
0.0
 11
88.49999999999999
 21
2.0
 31
0.0
  0
LINE
  5
192
330
20
100
AcDbEntity
  8
0
  6
Continuous
 62
     7
100
AcDbLine
 10
24.5
 20
4.0
 30
0.0
 11
24.5
 21
2.0
 31
0.0
  0
LINE
  5
193
330
20
100
AcDbEntity
  8
0
  6
Continuous
 62
     7
100
AcDbLine
 10
86.89999389648438
 20
48.0
 30
0.0
 11
86.89999389648438
 21
11.0
 31
0.0
  0
LINE
  5
194
330
20
100
AcDbEntity
  8
0
  6
Continuous
 62
     7
100
AcDbLine
 10
26.10000610351562
 20
48.0
 30
0.0
 11
26.10000610351562
 21
11.0
 31
0.0
  0
LINE
  5
195
330
20
100
AcDbEntity
  8
0
  6
Continuous
 62
     7
100
AcDbLine
 10
-6.5
 20
11.0
 30
0.0
 11
219.5
 21
11.0
 31
0.0
  0
LINE
  5
196
330
20
100
AcDbEntity
  8
0
  6
Continuous
 62
     7
100
AcDbLine
 10
9.616153703520012
 20
6.61609967886352
 30
0.0
 11
11.38392062623234
 21
8.383866601575846
 31
0.0
  0
LINE
  5
197
330
20
100
AcDbEntity
  8
0
  6
Continuous
 62
     7
100
AcDbLine
 10
1.5
 20
11.0
 30
0.0
 11
1.5
 21
4.0
 31
0.0
  0
LINE
  5
198
330
20
100
AcDbEntity
  8
0
  6
Continuous
 62
     7
100
AcDbLine
 10
42.0
 20
11.24999237060547
 30
0.0
 11
71.0
 21
11.24999237060547
 31
0.0
  0
LINE
  5
199
330
20
100
AcDbEntity
  8
0
  6
Continuous
 62
     7
100
AcDbLine
 10
1.5
 20
5.899993896484375
 30
0.0
 11
8.918075561523437
 21
5.899993896484375
 31
0.0
  0
LINE
  5
19A
330
20
100
AcDbEntity
  8
0
  6
Continuous
 62
     7
100
AcDbLine
 10
11.38392062623234
 20
6.61609967886352
 30
0.0
 11
9.616153703520012
 21
8.383866601575846
 31
0.0
  0
LINE
  5
19B
330
20
100
AcDbEntity
  8
0
  6
Continuous
 62
     7
100
AcDbLine
 10
1.5
 20
9.100006103515623
 30
0.0
 11
8.918075561523437
 21
9.100006103515623
 31
0.0
  0
LINE
  5
19C
330
20
100
AcDbEntity
  8
0
  6
Continuous
 62
     7
100
AcDbLine
 10
42.0
 20
11.24999237060547
 30
0.0
 11
42.0
 21
11.0
 31
0.0
  0
LINE
  5
19D
330
20
100
AcDbEntity
  8
0
  6
Continuous
 62
     7
100
AcDbLine
 10
71.0
 20
11.24999237060547
 30
0.0
 11
71.0
 21
11.0
 31
0.0
  0
LINE
  5
19E
330
20
100
AcDbEntity
  8
0
  6
Continuous
 62
     7
100
AcDbLine
 10
27.0
 20
14.56698608398437
 30
0.0
 11
86.0
 21
14.56698608398437
 31
0.0
  0
LINE
  5
19F
330
20
100
AcDbEntity
  8
0
  6
Continuous
 62
     7
100
AcDbLine
 10
27.0
 20
15.0
 30
0.0
 11
27.0
 21
11.0
 31
0.0
  0
LINE
  5
1A0
330
20
100
AcDbEntity
  8
0
  6
Continuous
 62
     7
100
AcDbLine
 10
27.0
 20
15.0
 30
0.0
 11
86.0
 21
15.0
 31
0.0
  0
LINE
  5
1A1
330
20
100
AcDbEntity
  8
0
  6
Continuous
 62
     7
100
AcDbLine
 10
27.0
 20
12.21132659912109
 30
0.0
 11
86.0
 21
12.21132659912109
 31
0.0
  0
LINE
  5
1A2
330
20
100
AcDbEntity
  8
0
  6
Continuous
 62
     7
100
AcDbLine
 10
86.0
 20
15.0
 30
0.0
 11
86.0
 21
11.0
 31
0.0
  0
LINE
  5
1A3
330
20
100
AcDbEntity
  8
0
  6
Continuous
 62
     7
100
AcDbLine
 10
26.10000610351562
 20
4.0
 30
0.0
 11
26.10000610351562
 21
2.0
 31
0.0
  0
LINE
  5
1A4
330
20
100
AcDbEntity
  8
0
  6
Continuous
 62
     7
100
AcDbLine
 10
201.6161169800501
 20
6.6161172119522
 30
0.0
 11
203.3838839027624
 21
8.383884134664528
 31
0.0
  0
LINE
  5
1A5
330
20
100
AcDbEntity
  8
0
  6
Continuous
 62
     7
100
AcDbLine
 10
211.5
 20
5.899993896484375
 30
0.0
 11
204.5819244384766
 21
5.899993896484375
 31
0.0
  0
LINE
  5
1A6
330
20
100
AcDbEntity
  8
0
  6
Continuous
 62
     7
100
AcDbLine
 10
203.0
 20
9.75
 30
0.0
 11
202.0
 21
9.75
 31
0.0
  0
LINE
  5
1A7
330
20
100
AcDbEntity
  8
0
  6
Continuous
 62
     7
100
AcDbLine
 10
12.08192443847656
 20
5.899993896484375
 30
0.0
 11
200.4180755615234
 21
5.899993896484375
 31
0.0
  0
LINE
  5
1A8
330
20
100
AcDbEntity
  8
0
  6
Continuous
 62
     7
100
AcDbLine
 10
211.5
 20
9.100006103515623
 30
0.0
 11
204.5819244384766
 21
9.100006103515623
 31
0.0
  0
LINE
  5
1A9
330
20
100
AcDbEntity
  8
0
  6
Continuous
 62
     7
100
AcDbLine
 10
203.0
 20
5.25
 30
0.0
 11
202.0
 21
5.25
 31
0.0
  0
LINE
  5
1AA
330
20
100
AcDbEntity
  8
0
  6
Continuous
 62
     7
100
AcDbLine
 10
211.5
 20
11.0
 30
0.0
 11
211.5
 21
4.0
 31
0.0
  0
LINE
  5
1AB
330
20
100
AcDbEntity
  8
0
  6
Continuous
 62
     7
100
AcDbLine
 10
203.3838731131694
 20
6.616128001545234
 30
0.0
 11
201.6161169800501
 21
8.383884134664528
 31
0.0
  0
LINE
  5
1AC
330
20
100
AcDbEntity
  8
0
  6
Continuous
 62
     7
100
AcDbLine
 10
12.08192443847656
 20
9.100006103515623
 30
0.0
 11
200.4180755615234
 21
9.100006103515623
 31
0.0
  0
LINE
  5
1AD
330
20
100
AcDbEntity
  8
0
  6
Continuous
 62
     7
100
AcDbLine
 10
86.89999389648438
 20
4.0
 30
0.0
 11
86.89999389648438
 21
2.0
 31
0.0
  0
LINE
  5
1AE
330
20
100
AcDbEntity
  8
0
  6
Continuous
 62
     7
100
AcDbLine
 10
88.49999999999999
 20
4.0
 30
0.0
 11
88.49999999999999
 21
2.0
 31
0.0
  0
LINE
  5
1AF
330
20
100
AcDbEntity
  8
0
  6
Continuous
 62
     7
100
AcDbLine
 10
86.0
 20
12.5
 30
0.0
 11
88.49999999999999
 21
12.5
 31
0.0
  0
LINE
  5
1B0
330
20
100
AcDbEntity
  8
0
  6
Continuous
 62
     7
100
AcDbLine
 10
16.5
 20
4.0
 30
0.0
 11
16.5
 21
0.0
 31
0.0
  0
LINE
  5
1B1
330
20
100
AcDbEntity
  8
0
  6
Continuous
 62
     7
100
AcDbLine
 10
196.5
 20
4.0
 30
0.0
 11
196.5
 21
0.0
 31
0.0
  0
CIRCLE
  5
1B2
330
20
100
AcDbEntity
  8
0
  6
Continuous
 62
     7
100
AcDbCircle
 10
205.5
 20
19.5
 30
0.0
 40
1.700000047683715
  0
CIRCLE
  5
1B3
330
20
100
AcDbEntity
  8
0
  6
Continuous
 62
     2
100
AcDbCircle
 10
205.5
 20
19.5
 30
0.0
 40
4.849999904632568
  0
CIRCLE
  5
1B4
330
20
100
AcDbEntity
  8
0
  6
Continuous
 62
     7
100
AcDbCircle
 10
205.5
 20
19.5
 30
0.0
 40
4.150000095367431
  0
CIRCLE
  5
1B5
330
20
100
AcDbEntity
  8
0
  6
Continuous
 62
     7
100
AcDbCircle
 10
7.5
 20
19.5
 30
0.0
 40
1.700000047683715
  0
CIRCLE
  5
1B6
330
20
100
AcDbEntity
  8
0
  6
Continuous
 62
     2
100
AcDbCircle
 10
7.5
 20
19.5
 30
0.0
 40
4.849999904632568
  0
CIRCLE
  5
1B7
330
20
100
AcDbEntity
  8
0
  6
Continuous
 62
     7
100
AcDbCircle
 10
7.5
 20
19.5
 30
0.0
 40
4.150000095367431
  0
ARC
  5
1B8
330
20
100
AcDbEntity
  8
0
  6
Continuous
 62
     7
100
AcDbCircle
 10
24.14999389648437
 20
20.55000305175781
 30
0.0
 40
2.5
100
AcDbArc
 50
90.00000250447817
 51
137.7314203114674
  0
ARC
  5
1B9
330
20
100
AcDbEntity
  8
0
  6
Continuous
 62
     7
100
AcDbCircle
 10
24.14999389648437
 20
17.94999694824219
 30
0.0
 40
2.5
100
AcDbArc
 50
222.2685796885325
 51
269.9999974955218
  0
ARC
  5
1BA
330
20
100
AcDbEntity
  8
0
  6
Continuous
 62
     7
100
AcDbCircle
 10
88.85000610351562
 20
20.55000305175781
 30
0.0
 40
2.5
100
AcDbArc
 50
42.26858469748889
 51
90.00000250447817
  0
ARC
  5
1BB
330
20
100
AcDbEntity
  8
0
  6
Continuous
 62
     7
100
AcDbCircle
 10
88.85000610351562
 20
17.94999694824219
 30
0.0
 40
2.5
100
AcDbArc
 50
269.9999974955218
 51
317.7314153025112
  0
ARC
  5
1BC
330
20
100
AcDbEntity
  8
0
  6
Continuous
 62
     7
100
AcDbCircle
 10
24.14999389648437
 20
40.55000305175781
 30
0.0
 40
2.5
100
AcDbArc
 50
90.00000250447817
 51
137.7314203114674
  0
ARC
  5
1BD
330
20
100
AcDbEntity
  8
0
  6
Continuous
 62
     7
100
AcDbCircle
 10
24.14999389648437
 20
37.94999694824219
 30
0.0
 40
2.5
100
AcDbArc
 50
222.2685796885325
 51
269.9999974955218
  0
ARC
  5
1BE
330
20
100
AcDbEntity
  8
0
  6
Continuous
 62
     7
100
AcDbCircle
 10
88.85000610351562
 20
37.94999694824219
 30
0.0
 40
2.5
100
AcDbArc
 50
270.000004325711
 51
317.7314187176057
  0
ARC
  5
1BF
330
20
100
AcDbEntity
  8
0
  6
Continuous
 62
     7
100
AcDbCircle
 10
88.85000610351562
 20
40.55000305175781
 30
0.0
 40
2.5
100
AcDbArc
 50
42.2685812823943
 51
89.99999567428899
  0
CIRCLE
  5
1C0
330
20
100
AcDbEntity
  8
0
  6
Continuous
 62
     7
100
AcDbCircle
 10
10.5
 20
7.5
 30
0.0
 40
2.25
  0
CIRCLE
  5
1C1
330
20
100
AcDbEntity
  8
0
  6
Continuous
 62
     7
100
AcDbCircle
 10
10.5
 20
7.5
 30
0.0
 40
1.75
  0
ARC
  5
1C2
330
20
100
AcDbEntity
  8
0
  6
Continuous
 62
     7
100
AcDbCircle
 10
203.0
 20
7.5
 30
0.0
 40
2.25
100
AcDbArc
 50
269.9999974955218
 51
90.00000250447817
  0
CIRCLE
  5
1C3
330
20
100
AcDbEntity
  8
0
  6
Continuous
 62
     7
100
AcDbCircle
 10
202.5
 20
7.5
 30
0.0
 40
1.75
  0
ARC
  5
1C4
330
20
100
AcDbEntity
  8
0
  6
Continuous
 62
     7
100
AcDbCircle
 10
202.0
 20
7.5
 30
0.0
 40
2.25
100
AcDbArc
 50
90.00000250447817
 51
270.0000006832453
  0
LINE
  5
1C5
330
20
100
AcDbEntity
  8
0
  6
Continuous
 62
     2
100
AcDbLine
 10
-25.5
 20
34.0
 30
0.0
 11
-9.5
 21
34.0
 31
0.0
  0
LINE
  5
1C6
330
20
100
AcDbEntity
  8
0
  6
Continuous
 62
     2
100
AcDbLine
 10
-28.5
 20
38.5
 30
0.0
 11
29.55691528320313
 21
38.5
 31
0.0
  0
LINE
  5
1C7
330
20
100
AcDbEntity
  8
0
  6
Continuous
 62
     7
100
AcDbLine
 10
-25.0
 20
43.5
 30
0.0
 11
-9.5
 21
43.5
 31
0.0
  0
LINE
  5
1C8
330
20
100
AcDbEntity
  8
0
  6
Continuous
 62
     2
100
AcDbLine
 10
-25.5
 20
43.0
 30
0.0
 11
-9.5
 21
43.0
 31
0.0
  0
LINE
  5
1C9
330
20
100
AcDbEntity
  8
0
  6
Continuous
 62
     7
100
AcDbLine
 10
-25.0
 20
33.5
 30
0.0
 11
-9.5
 21
33.5
 31
0.0
  0
LINE
  5
1CA
330
20
100
AcDbEntity
  8
0
  6
Continuous
 62
     2
100
AcDbLine
 10
241.5
 20
38.5
 30
0.0
 11
175.7417297363281
 21
38.5
 31
0.0
  0
LINE
  5
1CB
330
20
100
AcDbEntity
  8
0
  6
Continuous
 62
     7
100
AcDbLine
 10
16.5
 20
43.5
 30
0.0
 11
22.0
 21
43.5
 31
0.0
  0
LINE
  5
1CC
330
20
100
AcDbEntity
  8
0
  6
Continuous
 62
     2
100
AcDbLine
 10
16.5
 20
43.0
 30
0.0
 11
22.5
 21
43.0
 31
0.0
  0
LINE
  5
1CD
330
20
100
AcDbEntity
  8
0
  6
Continuous
 62
     2
100
AcDbLine
 10
16.5
 20
34.0
 30
0.0
 11
22.5
 21
34.0
 31
0.0
  0
LINE
  5
1CE
330
20
100
AcDbEntity
  8
0
  6
Continuous
 62
     7
100
AcDbLine
 10
16.5
 20
33.5
 30
0.0
 11
22.0
 21
33.5
 31
0.0
  0
LINE
  5
1D0
330
20
100
AcDbEntity
  8
0
  6
CENTER
 62
     2
100
AcDbLine
 10
63.91040175778528
 20
7.5
 30
0.0
 11
40.99711316397231
 21
7.5
 31
0.0
  0
LINE
  5
1D1
330
20
100
AcDbEntity
  8
0
  6
Continuous
 62
     2
100
AcDbLine
 10
60.5
 20
10.44285714285715
 30
0.0
 11
60.5
 21
4.200015326576532
 31
0.0
  0
LINE
  5
1D2
330
20
100
AcDbEntity
  8
0
  6
Continuous
 62
     2
100
AcDbLine
 10
44.74769053117785
 20
8.800000000000011
 30
0.0
 11
43.24653579676675
 21
6.200000000000002
 31
0.0
  0
LINE
  5
1D3
330
20
100
AcDbEntity
  8
0
  6
Continuous
 62
     7
100
AcDbLine
 10
47.0
 20
6.200000000000002
 30
0.0
 11
43.24653579676675
 21
6.200000000000002
 31
0.0
  0
LINE
  5
1D4
330
20
100
AcDbEntity
  8
0
  6
Continuous
 62
     7
100
AcDbLine
 10
47.0
 20
8.800000000000011
 30
0.0
 11
44.74769053117785
 21
8.800000000000011
 31
0.0
  0
LINE
  5
1D5
330
20
100
AcDbEntity
  8
0
  6
Continuous
 62
     7
100
AcDbLine
 10
58.60000000000002
 20
6.0
 30
0.0
 11
58.60000000000002
 21
9.0
 31
0.0
  0
LINE
  5
1D6
330
20
100
AcDbEntity
  8
0
  6
Continuous
 62
     7
100
AcDbLine
 10
52.10000000000001
 20
6.0
 30
0.0
 11
52.10000000000001
 21
9.0
 31
0.0
  0
LINE
  5
1D7
330
20
100
AcDbEntity
  8
0
  6
Continuous
 62
     7
100
AcDbLine
 10
62.50000000476838
 20
5.899993896484375
 30
0.0
 11
62.50000000476838
 21
9.100006103515623
 31
0.0
  0
LINE
  5
1D8
330
20
100
AcDbEntity
  8
0
  6
Continuous
 62
     7
100
AcDbLine
 10
47.0
 20
5.899993896484375
 30
0.0
 11
47.0
 21
9.100006103515623
 31
0.0
  0
LINE
  5
1D9
330
20
100
AcDbEntity
  8
0
  6
Continuous
 62
     7
100
AcDbLine
 10
62.50000000476838
 20
9.0
 30
0.0
 11
47.0
 21
9.0
 31
0.0
  0
LINE
  5
1DA
330
20
100
AcDbEntity
  8
0
  6
Continuous
 62
     7
100
AcDbLine
 10
62.50000000476838
 20
6.0
 30
0.0
 11
47.0
 21
6.0
 31
0.0
  0
CIRCLE
  5
1DB
330
20
100
AcDbEntity
  8
0
  6
Continuous
 62
     7
100
AcDbCircle
 10
60.5
 20
7.5
 30
0.0
 40
1.399999999999999
  0
CIRCLE
  5
1DC
330
20
100
AcDbEntity
  8
0
  6
Continuous
 62
     7
100
AcDbCircle
 10
60.5
 20
7.5
 30
0.0
 40
1.25
  0
CIRCLE
  5
1DD
330
20
100
AcDbEntity
  8
0
  6
Continuous
 62
     2
100
AcDbCircle
 10
60.5
 20
7.5
 30
0.0
 40
1.05
  0
LINE
  5
1DE
330
20
100
AcDbEntity
  8
0
  6
Continuous
 62
     7
100
AcDbLine
 10
61.54280210609306
 20
6.810751302120991
 30
0.0
 11
59.81075130212099
 21
8.542802106093033
 31
0.0
  0
LINE
  5
1DF
330
20
100
AcDbEntity
  8
0
  6
Continuous
 62
     7
100
AcDbLine
 10
61.18924868583679
 20
6.457197927747444
 30
0.0
 11
59.45719789232527
 21
8.189248721258991
 31
0.0
  0
LINE
  5
1E0
330
20
100
AcDbEntity
  8
0
  6
Continuous
 62
     2
100
AcDbLine
 10
160.4999999952316
 20
10.44285714285715
 30
0.0
 11
160.4999999952316
 21
4.200015326576532
 31
0.0
  0
LINE
  5
1E1
330
20
100
AcDbEntity
  8
0
  6
CENTER
 62
     2
100
AcDbLine
 10
163.9104017530169
 20
7.5
 30
0.0
 11
140.9971131592039
 21
7.5
 31
0.0
  0
LINE
  5
1E2
330
20
100
AcDbEntity
  8
0
  6
Continuous
 62
     7
100
AcDbLine
 10
161.1892486810684
 20
6.457197927747444
 30
0.0
 11
159.4571978875569
 21
8.189248721258991
 31
0.0
  0
LINE
  5
1E3
330
20
100
AcDbEntity
  8
0
  6
Continuous
 62
     7
100
AcDbLine
 10
161.5428021013247
 20
6.810751302120991
 30
0.0
 11
159.8107512973526
 21
8.542802106093033
 31
0.0
  0
CIRCLE
  5
1E4
330
20
100
AcDbEntity
  8
0
  6
Continuous
 62
     2
100
AcDbCircle
 10
160.4999999952316
 20
7.5
 30
0.0
 40
1.05
  0
CIRCLE
  5
1E5
330
20
100
AcDbEntity
  8
0
  6
Continuous
 62
     7
100
AcDbCircle
 10
160.4999999952316
 20
7.5
 30
0.0
 40
1.25
  0
CIRCLE
  5
1E6
330
20
100
AcDbEntity
  8
0
  6
Continuous
 62
     7
100
AcDbCircle
 10
160.4999999952316
 20
7.5
 30
0.0
 40
1.399999999999999
  0
LINE
  5
1E7
330
20
100
AcDbEntity
  8
0
  6
Continuous
 62
     7
100
AcDbLine
 10
162.5
 20
6.0
 30
0.0
 11
146.9999999952316
 21
6.0
 31
0.0
  0
LINE
  5
1E8
330
20
100
AcDbEntity
  8
0
  6
Continuous
 62
     7
100
AcDbLine
 10
162.5
 20
9.0
 30
0.0
 11
146.9999999952316
 21
9.0
 31
0.0
  0
LINE
  5
1E9
330
20
100
AcDbEntity
  8
0
  6
Continuous
 62
     7
100
AcDbLine
 10
146.9999999952316
 20
5.899993896484375
 30
0.0
 11
146.9999999952316
 21
9.100006103515623
 31
0.0
  0
LINE
  5
1EA
330
20
100
AcDbEntity
  8
0
  6
Continuous
 62
     7
100
AcDbLine
 10
162.5
 20
5.899993896484375
 30
0.0
 11
162.5
 21
9.100006103515623
 31
0.0
  0
LINE
  5
1EB
330
20
100
AcDbEntity
  8
0
  6
Continuous
 62
     7
100
AcDbLine
 10
152.0999999952316
 20
6.0
 30
0.0
 11
152.0999999952316
 21
9.0
 31
0.0
  0
LINE
  5
1EC
330
20
100
AcDbEntity
  8
0
  6
Continuous
 62
     7
100
AcDbLine
 10
158.5999999952316
 20
6.0
 30
0.0
 11
158.5999999952316
 21
9.0
 31
0.0
  0
LINE
  5
1ED
330
20
100
AcDbEntity
  8
0
  6
Continuous
 62
     7
100
AcDbLine
 10
146.9999999952316
 20
8.800000000000011
 30
0.0
 11
144.7476905264094
 21
8.800000000000011
 31
0.0
  0
LINE
  5
1EE
330
20
100
AcDbEntity
  8
0
  6
Continuous
 62
     7
100
AcDbLine
 10
146.9999999952316
 20
6.200000000000002
 30
0.0
 11
143.2465357919983
 21
6.200000000000002
 31
0.0
  0
LINE
  5
1EF
330
20
100
AcDbEntity
  8
0
  6
Continuous
 62
     2
100
AcDbLine
 10
144.7476905264094
 20
8.800000000000011
 30
0.0
 11
143.2465357919983
 21
6.200000000000002
 31
0.0
  0
LINE
  5
1F0
330
20
100
AcDbEntity
  8
0
  6
Continuous
 62
     2
100
AcDbLine
 10
0.0
 20
-3.0
 30
0.0
 11
0.0
 21
3.0
 31
0.0
  0
LINE
  5
1F1
330
20
100
AcDbEntity
  8
0
  6
Continuous
 62
     2
100
AcDbLine
 10
213.0
 20
-3.0
 30
0.0
 11
213.0
 21
3.0
 31
0.0
  0
LINE
  5
1F2
330
20
100
AcDbEntity
  8
0
  6
Continuous
 62
     2
100
AcDbLine
 10
34.5
 20
45.0
 30
0.0
 11
34.5
 21
51.0
 31
0.0
  0
LINE
  5
1F3
330
20
100
AcDbEntity
  8
0
  6
Continuous
 62
     2
100
AcDbLine
 10
78.5
 20
45.0
 30
0.0
 11
78.5
 21
51.0
 31
0.0
  0
LINE
  5
1F4
330
20
100
AcDbEntity
  8
0
  6
PHANTOM
 62
     3
100
AcDbLine
 10
123.5
 20
63.67315789473686
 30
0.0
 11
123.5
 21
-25.5180701754386
 31
0.0
  0
ENDBLK
  5
1F5
330
20
100
AcDbEntity
  8
0
100
AcDbBlockEnd
  0
ENDSEC
  0
SECTION
  2
ENTITIES
  0
INSERT
  5
1F6
330
A
100
AcDbEntity
  8
0
  6
ByBlock
100
AcDbBlockReference
  2
MRVZS28-K2-3
 10
-50.0
 20
-70.0
 30
0.0
  0
INSERT
  5
1F7
330
A
100
AcDbEntity
  8
0
  6
ByBlock
100
AcDbBlockReference
  2
MRVZS28-K2-2
 10
-180.0
 20
80.0
 30
0.0
  0
INSERT
  5
1F8
330
A
100
AcDbEntity
  8
0
  6
ByBlock
100
AcDbBlockReference
  2
MRVZS28-K2-1
 10
-50.0
 20
80.0
 30
0.0
  0
MTEXT
  5
1F9
330
A
100
AcDbEntity
  8
0
  6
Continuous
 62
     7
100
AcDbMText
 10
-227.7474808817503
 20
150.5
 30
0.0
 40
6.300000190734863
 41
0.0
 71
     4
 72
     5
  1
\W1.079;\A1;(WITH SENSOR SWITCH)
 73
     1
 44
1.0
1001
ACAD
1000
MTEXTBEGIN
1070
    73
1070
     1
1070
    44
1040
1.0
1070
    74
1070
     0
1000
MTEXTEND
  0
MTEXT
  5
1FA
330
A
100
AcDbEntity
  8
0
  6
Continuous
 62
     7
100
AcDbMText
 10
138.6805966608508
 20
-119.6279990710167
 30
0.0
 40
4.5
 41
0.0
 71
     4
 72
     5
  1
\W0.833;\A1;（ｍｍ）
 73
     1
 44
1.0
1001
ACAD
1000
MTEXTBEGIN
1070
    73
1070
     1
1070
    44
1040
1.0
1070
    74
1070
     0
1000
MTEXTEND
  0
LINE
  5
1FB
330
A
100
AcDbEntity
  8
0
  6
Continuous
 62
     7
100
AcDbLine
 10
153.4249267578125
 20
-124.0
 30
0.0
 11
153.4249267578125
 21
-140.0
 31
0.0
  0
MTEXT
  5
1FC
330
A
100
AcDbEntity
  8
0
  6
Continuous
 62
     7
100
AcDbMText
 10
-25.77625667554884
 20
-119.363768887954
 30
0.0
 40
4.5
 41
0.0
 71
     4
 72
     5
  1
\W1.065;\A1;STRETCH LIST
 73
     1
 44
1.0
1001
ACAD
1000
MTEXTBEGIN
1070
    73
1070
     1
1070
    44
1040
1.0
1070
    74
1070
     0
1000
MTEXTEND
  0
LINE
  5
1FD
330
A
100
AcDbEntity
  8
0
  6
Continuous
 62
     7
100
AcDbLine
 10
130.9249267578125
 20
-124.0
 30
0.0
 11
130.9249267578125
 21
-140.0
 31
0.0
  0
MTEXT
  5
1FE
330
A
100
AcDbEntity
  8
0
  6
Continuous
 62
     7
100
AcDbMText
 10
113.7686767703853
 20
-136.0
 30
0.0
 40
4.5
 41
0.0
 71
     4
 72
     5
  1
\W1.125;\A1;600
 73
     1
 44
1.0
1001
ACAD
1000
MTEXTBEGIN
1070
    73
1070
     1
1070
    44
1040
1.0
1070
    74
1070
     0
1000
MTEXTEND
  0
MTEXT
  5
1FF
330
A
100
AcDbEntity
  8
0
  6
Continuous
 62
     7
100
AcDbMText
 10
113.7686767703853
 20
-128.0
 30
0.0
 40
4.5
 41
0.0
 71
     4
 72
     5
  1
\W1.125;\A1;700
 73
     1
 44
1.0
1001
ACAD
1000
MTEXTBEGIN
1070
    73
1070
     1
1070
    44
1040
1.0
1070
    74
1070
     0
1000
MTEXTEND
  0
LINE
  5
200
330
A
100
AcDbEntity
  8
0
  6
Continuous
 62
     7
100
AcDbLine
 10
108.4249267578125
 20
-124.0
 30
0.0
 11
108.4249267578125
 21
-140.0
 31
0.0
  0
MTEXT
  5
201
330
A
100
AcDbEntity
  8
0
  6
Continuous
 62
     7
100
AcDbMText
 10
91.26867677038534
 20
-136.0
 30
0.0
 40
4.5
 41
0.0
 71
     4
 72
     5
  1
\W1.125;\A1;500
 73
     1
 44
1.0
1001
ACAD
1000
MTEXTBEGIN
1070
    73
1070
     1
1070
    44
1040
1.0
1070
    74
1070
     0
1000
MTEXTEND
  0
MTEXT
  5
202
330
A
100
AcDbEntity
  8
0
  6
Continuous
 62
     7
100
AcDbMText
 10
91.26867677038534
 20
-128.0
 30
0.0
 40
4.5
 41
0.0
 71
     4
 72
     5
  1
\W1.125;\A1;600
 73
     1
 44
1.0
1001
ACAD
1000
MTEXTBEGIN
1070
    73
1070
     1
1070
    44
1040
1.0
1070
    74
1070
     0
1000
MTEXTEND
  0
LINE
  5
203
330
A
100
AcDbEntity
  8
0
  6
Continuous
 62
     7
100
AcDbLine
 10
85.92492675781249
 20
-124.0
 30
0.0
 11
85.92492675781249
 21
-140.0
 31
0.0
  0
MTEXT
  5
204
330
A
100
AcDbEntity
  8
0
  6
Continuous
 62
     7
100
AcDbMText
 10
68.76867677038532
 20
-136.0
 30
0.0
 40
4.5
 41
0.0
 71
     4
 72
     5
  1
\W1.125;\A1;400
 73
     1
 44
1.0
1001
ACAD
1000
MTEXTBEGIN
1070
    73
1070
     1
1070
    44
1040
1.0
1070
    74
1070
     0
1000
MTEXTEND
  0
MTEXT
  5
205
330
A
100
AcDbEntity
  8
0
  6
Continuous
 62
     7
100
AcDbMText
 10
68.76867677038532
 20
-128.0
 30
0.0
 40
4.5
 41
0.0
 71
     4
 72
     5
  1
\W1.125;\A1;500
 73
     1
 44
1.0
1001
ACAD
1000
MTEXTBEGIN
1070
    73
1070
     1
1070
    44
1040
1.0
1070
    74
1070
     0
1000
MTEXTEND
  0
MTEXT
  5
206
330
A
100
AcDbEntity
  8
0
  6
Continuous
 62
     7
100
AcDbMText
 10
46.21904441043989
 20
-136.0
 30
0.0
 40
4.5
 41
0.0
 71
     4
 72
     5
  1
\W1.059;\A1;350
 73
     1
 44
1.0
1001
ACAD
1000
MTEXTBEGIN
1070
    73
1070
     1
1070
    44
1040
1.0
1070
    74
1070
     0
1000
MTEXTEND
  0
MTEXT
  5
207
330
A
100
AcDbEntity
  8
0
  6
Continuous
 62
     7
100
AcDbMText
 10
46.21904441043989
 20
-128.0
 30
0.0
 40
4.5
 41
0.0
 71
     4
 72
     5
  1
\W1.059;\A1;450
 73
     1
 44
1.0
1001
ACAD
1000
MTEXTBEGIN
1070
    73
1070
     1
1070
    44
1040
1.0
1070
    74
1070
     0
1000
MTEXTEND
  0
MTEXT
  5
208
330
A
100
AcDbEntity
  8
0
  6
Continuous
 62
     7
100
AcDbMText
 10
23.76867677038533
 20
-136.0
 30
0.0
 40
4.5
 41
0.0
 71
     4
 72
     5
  1
\W1.125;\A1;300
 73
     1
 44
1.0
1001
ACAD
1000
MTEXTBEGIN
1070
    73
1070
     1
1070
    44
1040
1.0
1070
    74
1070
     0
1000
MTEXTEND
  0
MTEXT
  5
209
330
A
100
AcDbEntity
  8
0
  6
Continuous
 62
     7
100
AcDbMText
 10
23.76867677038533
 20
-128.0
 30
0.0
 40
4.5
 41
0.0
 71
     4
 72
     5
  1
\W1.125;\A1;400
 73
     1
 44
1.0
1001
ACAD
1000
MTEXTBEGIN
1070
    73
1070
     1
1070
    44
1040
1.0
1070
    74
1070
     0
1000
MTEXTEND
  0
MTEXT
  5
20A
330
A
100
AcDbEntity
  8
0
  6
Continuous
 62
     7
100
AcDbMText
 10
-106.6750732207298
 20
-136.0
 30
0.0
 40
4.5
 41
0.0
 71
     4
 72
     5
  1
\W1.200;\A1;0
 73
     1
 44
1.0
1001
ACAD
1000
MTEXTBEGIN
1070
    73
1070
     1
1070
    44
1040
1.0
1070
    74
1070
     0
1000
MTEXTEND
  0
MTEXT
  5
20B
330
A
100
AcDbEntity
  8
0
  6
Continuous
 62
     7
100
AcDbMText
 10
-111.1107875196909
 20
-128.0
 30
0.0
 40
4.5
 41
0.0
 71
     4
 72
     5
  1
\W1.286;\A1;100
 73
     1
 44
1.0
1001
ACAD
1000
MTEXTBEGIN
1070
    73
1070
     1
1070
    44
1040
1.0
1070
    74
1070
     0
1000
MTEXTEND
  0
LINE
  5
20C
330
A
100
AcDbEntity
  8
0
  6
Continuous
 62
     7
100
AcDbLine
 10
63.42492675781249
 20
-124.0
 30
0.0
 11
63.42492675781249
 21
-140.0
 31
0.0
  0
LINE
  5
20D
330
A
100
AcDbEntity
  8
0
  6
Continuous
 62
     7
100
AcDbLine
 10
18.42492675781249
 20
-124.0
 30
0.0
 11
18.42492675781249
 21
-140.0
 31
0.0
  0
LINE
  5
20E
330
A
100
AcDbEntity
  8
0
  6
Continuous
 62
     7
100
AcDbLine
 10
40.92492675781249
 20
-124.0
 30
0.0
 11
40.92492675781249
 21
-140.0
 31
0.0
  0
LINE
  5
20F
330
A
100
AcDbEntity
  8
0
  6
Continuous
 62
     7
100
AcDbLine
 10
-26.57507324218753
 20
-124.0
 30
0.0
 11
-26.57507324218753
 21
-140.0
 31
0.0
  0
LINE
  5
210
330
A
100
AcDbEntity
  8
0
  6
Continuous
 62
     7
100
AcDbLine
 10
-4.075073242187513
 20
-124.0
 30
0.0
 11
-4.075073242187513
 21
-140.0
 31
0.0
  0
LINE
  5
211
330
A
100
AcDbEntity
  8
0
  6
Continuous
 62
     7
100
AcDbLine
 10
-49.07507324218753
 20
-124.0
 30
0.0
 11
-49.07507324218753
 21
-140.0
 31
0.0
  0
LINE
  5
212
330
A
100
AcDbEntity
  8
0
  6
Continuous
 62
     7
100
AcDbLine
 10
-71.57507324218753
 20
-124.0
 30
0.0
 11
-71.57507324218753
 21
-140.0
 31
0.0
  0
LINE
  5
213
330
A
100
AcDbEntity
  8
0
  6
Continuous
 62
     7
100
AcDbLine
 10
-94.07507324218752
 20
-124.0
 30
0.0
 11
-94.07507324218752
 21
-140.0
 31
0.0
  0
LINE
  5
214
330
A
100
AcDbEntity
  8
0
  6
Continuous
 62
     7
100
AcDbLine
 10
-116.5750732421875
 20
-124.0
 30
0.0
 11
-116.5750732421875
 21
-140.0
 31
0.0
  0
MTEXT
  5
215
330
A
100
AcDbEntity
  8
0
  6
Continuous
 62
     7
100
AcDbMText
 10
1.219044410439923
 20
-136.0
 30
0.0
 40
4.5
 41
0.0
 71
     4
 72
     5
  1
\W1.059;\A1;250
 73
     1
 44
1.0
1001
ACAD
1000
MTEXTBEGIN
1070
    73
1070
     1
1070
    44
1040
1.0
1070
    74
1070
     0
1000
MTEXTEND
  0
MTEXT
  5
216
330
A
100
AcDbEntity
  8
0
  6
Continuous
 62
     7
100
AcDbMText
 10
1.219044410439923
 20
-128.0
 30
0.0
 40
4.5
 41
0.0
 71
     4
 72
     5
  1
\W1.059;\A1;350
 73
     1
 44
1.0
1001
ACAD
1000
MTEXTBEGIN
1070
    73
1070
     1
1070
    44
1040
1.0
1070
    74
1070
     0
1000
MTEXTEND
  0
MTEXT
  5
217
330
A
100
AcDbEntity
  8
0
  6
Continuous
 62
     7
100
AcDbMText
 10
-21.23132322961467
 20
-136.0
 30
0.0
 40
4.5
 41
0.0
 71
     4
 72
     5
  1
\W1.125;\A1;200
 73
     1
 44
1.0
1001
ACAD
1000
MTEXTBEGIN
1070
    73
1070
     1
1070
    44
1040
1.0
1070
    74
1070
     0
1000
MTEXTEND
  0
MTEXT
  5
218
330
A
100
AcDbEntity
  8
0
  6
Continuous
 62
     7
100
AcDbMText
 10
-21.23132322961467
 20
-128.0
 30
0.0
 40
4.5
 41
0.0
 71
     4
 72
     5
  1
\W1.125;\A1;300
 73
     1
 44
1.0
1001
ACAD
1000
MTEXTBEGIN
1070
    73
1070
     1
1070
    44
1040
1.0
1070
    74
1070
     0
1000
MTEXTEND
  0
MTEXT
  5
219
330
A
100
AcDbEntity
  8
0
  6
Continuous
 62
     7
100
AcDbMText
 10
-43.67507324218752
 20
-136.0
 30
0.0
 40
4.5
 41
0.0
 71
     4
 72
     5
  1
\W1.200;\A1;150
 73
     1
 44
1.0
1001
ACAD
1000
MTEXTBEGIN
1070
    73
1070
     1
1070
    44
1040
1.0
1070
    74
1070
     0
1000
MTEXTEND
  0
MTEXT
  5
21A
330
A
100
AcDbEntity
  8
0
  6
Continuous
 62
     7
100
AcDbMText
 10
-43.78095558956011
 20
-128.0
 30
0.0
 40
4.5
 41
0.0
 71
     4
 72
     5
  1
\W1.059;\A1;250
 73
     1
 44
1.0
1001
ACAD
1000
MTEXTBEGIN
1070
    73
1070
     1
1070
    44
1040
1.0
1070
    74
1070
     0
1000
MTEXTEND
  0
MTEXT
  5
21B
330
A
100
AcDbEntity
  8
0
  6
Continuous
 62
     7
100
AcDbMText
 10
-66.11078751969097
 20
-136.0
 30
0.0
 40
4.5
 41
0.0
 71
     4
 72
     5
  1
\W1.286;\A1;100
 73
     1
 44
1.0
1001
ACAD
1000
MTEXTBEGIN
1070
    73
1070
     1
1070
    44
1040
1.0
1070
    74
1070
     0
1000
MTEXTEND
  0
MTEXT
  5
21C
330
A
100
AcDbEntity
  8
0
  6
Continuous
 62
     7
100
AcDbMText
 10
-66.23132322961467
 20
-128.0
 30
0.0
 40
4.5
 41
0.0
 71
     4
 72
     5
  1
\W1.125;\A1;200
 73
     1
 44
1.0
1001
ACAD
1000
MTEXTBEGIN
1070
    73
1070
     1
1070
    44
1040
1.0
1070
    74
1070
     0
1000
MTEXTEND
  0
MTEXT
  5
21D
330
A
100
AcDbEntity
  8
0
  6
Continuous
 62
     7
100
AcDbMText
 10
-86.50689141513892
 20
-136.0
 30
0.0
 40
4.5
 41
0.0
 71
     4
 72
     5
  1
\W1.091;\A1;50
 73
     1
 44
1.0
1001
ACAD
1000
MTEXTBEGIN
1070
    73
1070
     1
1070
    44
1040
1.0
1070
    74
1070
     0
1000
MTEXTEND
  0
MTEXT
  5
21E
330
A
100
AcDbEntity
  8
0
  6
Continuous
 62
     7
100
AcDbMText
 10
-88.67507324218752
 20
-128.0
 30
0.0
 40
4.5
 41
0.0
 71
     4
 72
     5
  1
\W1.200;\A1;150
 73
     1
 44
1.0
1001
ACAD
1000
MTEXTBEGIN
1070
    73
1070
     1
1070
    44
1040
1.0
1070
    74
1070
     0
1000
MTEXTEND
  0
MTEXT
  5
21F
330
A
100
AcDbEntity
  8
0
  6
Continuous
 62
     7
100
AcDbMText
 10
-149.5750732421875
 20
-136.0
 30
0.0
 40
4.5
 41
0.0
 71
     4
 72
     5
  1
\A1;STRETCH
 73
     1
 44
1.0
1001
ACAD
1000
MTEXTBEGIN
1070
    73
1070
     1
1070
    44
1040
1.0
1070
    74
1070
     0
1000
MTEXTEND
  0
MTEXT
  5
220
330
A
100
AcDbEntity
  8
0
  6
Continuous
 62
     7
100
AcDbMText
 10
-147.3250732421875
 20
-128.0
 30
0.0
 40
4.5
 41
0.0
 71
     4
 72
     5
  1
\A1;STROKE
 73
     1
 44
1.0
1001
ACAD
1000
MTEXTBEGIN
1070
    73
1070
     1
1070
    44
1040
1.0
1070
    74
1070
     0
1000
MTEXTEND
  0
LINE
  5
221
330
A
100
AcDbEntity
  8
0
  6
Continuous
 62
     7
100
AcDbLine
 10
-152.5750732421875
 20
-124.0
 30
0.0
 11
-152.5750732421875
 21
-140.0
 31
0.0
  0
MTEXT
  5
222
330
A
100
AcDbEntity
  8
0
  6
Continuous
 62
     7
100
AcDbMText
 10
136.2686767703853
 20
-136.0
 30
0.0
 40
4.5
 41
0.0
 71
     4
 72
     5
  1
\W1.125;\A1;700
 73
     1
 44
1.0
1001
ACAD
1000
MTEXTBEGIN
1070
    73
1070
     1
1070
    44
1040
1.0
1070
    74
1070
     0
1000
MTEXTEND
  0
MTEXT
  5
223
330
A
100
AcDbEntity
  8
0
  6
Continuous
 62
     7
100
AcDbMText
 10
136.2686767703853
 20
-128.0
 30
0.0
 40
4.5
 41
0.0
 71
     4
 72
     5
  1
\W1.125;\A1;800
 73
     1
 44
1.0
1001
ACAD
1000
MTEXTBEGIN
1070
    73
1070
     1
1070
    44
1040
1.0
1070
    74
1070
     0
1000
MTEXTEND
  0
LINE
  5
224
330
A
100
AcDbEntity
  8
0
  6
Continuous
 62
     7
100
AcDbLine
 10
-152.5750732421875
 20
-124.0
 30
0.0
 11
153.4249267578125
 21
-124.0
 31
0.0
  0
LINE
  5
225
330
A
100
AcDbEntity
  8
0
  6
Continuous
 62
     7
100
AcDbLine
 10
-152.5750732421875
 20
-132.0
 30
0.0
 11
153.4249267578125
 21
-132.0
 31
0.0
  0
LINE
  5
226
330
A
100
AcDbEntity
  8
0
  6
Continuous
 62
     7
100
AcDbLine
 10
-152.5750732421875
 20
-140.0
 30
0.0
 11
153.4249267578125
 21
-140.0
 31
0.0
  0
MTEXT
  5
227
330
A
100
AcDbEntity
  8
0
  6
Continuous
 62
     3
100
AcDbMText
 10
29.96578523126233
 20
137.9373002772311
 30
0.0
 40
6.300000190734863
 41
0.0
 71
     4
 72
     5
  1
\W1.065;\A1;STRETCH LINE
 73
     1
 44
1.0
1001
ACAD
1000
MTEXTBEGIN
1070
    73
1070
     1
1070
    44
1040
1.0
1070
    74
1070
     0
1000
MTEXTEND
  0
MTEXT
  5
228
330
A
100
AcDbEntity
  8
0
  6
Continuous
 62
     7
100
AcDbMText
 10
-251.73387189456
 20
180.5
 30
0.0
 40
6.300000190734863
 41
0.0
 71
     4
 72
     5
  1
{\W0.968;CS-MRVZS28-K2}
 73
     1
 44
1.0
1001
ACAD
1000
ACAD_MTEXT_DEFINED_HEIGHT_BEGIN
1070
    46
1040
0.0
1000
ACAD_MTEXT_DEFINED_HEIGHT_END
1000
MTEXTBEGIN
1070
    73
1070
     1
1070
    44
1040
1.0
1070
    74
1070
     0
1000
MTEXTEND
  0
MTEXT
  5
229
330
A
100
AcDbEntity
  8
0
  6
Continuous
 62
     7
100
AcDbMText
 10
-270.5495648127721
 20
190.5
 30
0.0
 40
6.300000190734863
 41
0.0
 71
     4
 72
     5
  1
\W1.048;\A1;RODLESS CYLINDER
 73
     1
 44
1.0
1001
ACAD
1000
MTEXTBEGIN
1070
    73
1070
     1
1070
    44
1040
1.0
1070
    74
1070
     0
1000
MTEXTEND
  0
LINE
  5
22A
330
A
100
AcDbEntity
  8
0
  6
Continuous
 62
     7
100
AcDbLine
 10
-281.25
 20
175.5
 30
0.0
 11
-161.25
 21
175.5
 31
0.0
  0
LINE
  5
22B
330
A
100
AcDbEntity
  8
0
  6
Continuous
 62
     7
100
AcDbLine
 10
-161.25
 20
195.5
 30
0.0
 11
-161.25
 21
175.5
 31
0.0
  0
LINE
  5
22C
330
A
100
AcDbEntity
  8
0
  6
Continuous
 62
     7
100
AcDbLine
 10
162.0999755859375
 20
-175.0
 30
0.0
 11
162.0999755859375
 21
-195.0
 31
0.0
  0
LINE
  5
22D
330
A
100
AcDbEntity
  8
0
  6
Continuous
 62
     7
100
AcDbLine
 10
162.0999755859375
 20
-175.0
 30
0.0
 11
282.099853515625
 21
-175.0
 31
0.0
  0
MTEXT
  5
22E
330
A
100
AcDbEntity
  8
0
  6
Continuous
 62
     7
100
AcDbMText
 10
170.2809980228688
 20
-185.0
 30
0.0
 40
9.0
 41
0.0
 71
     4
 72
     5
  1
\W1.121;\A1;KOGANEI CORP.
 73
     1
 44
1.0
1001
ACAD
1000
MTEXTBEGIN
1070
    73
1070
     1
1070
    44
1040
1.0
1070
    74
1070
     0
1000
MTEXTEND
  0
MTEXT
  5
22F
330
A
100
AcDbEntity
  8
0
  6
Continuous
 62
     7
100
AcDbMText
 10
198.2770240315611
 20
185.5
 30
0.0
 40
6.300000190734863
 41
0.0
 71
     4
 72
     5
  1
\W1.311;\A1;Ver. 1.0
 73
     1
 44
1.0
1001
ACAD
1000
MTEXTBEGIN
1070
    73
1070
     1
1070
    44
1040
1.0
1070
    74
1070
     0
1000
MTEXTEND
  0
LINE
  5
230
330
A
100
AcDbEntity
  8
0
  6
Continuous
 62
     7
100
AcDbLine
 10
162.0999755859375
 20
175.5
 30
0.0
 11
282.099853515625
 21
175.5
 31
0.0
  0
LINE
  5
231
330
A
100
AcDbEntity
  8
0
  6
Continuous
 62
     7
100
AcDbLine
 10
162.0999755859375
 20
195.5
 30
0.0
 11
162.0999755859375
 21
175.5
 31
0.0
  0
LINE
  5
232
330
A
100
AcDbEntity
  8
0
  6
Continuous
 62
     7
100
AcDbLine
 10
282.099853515625
 20
195.5
 30
0.0
 11
282.099853515625
 21
-195.0
 31
0.0
  0
LINE
  5
233
330
A
100
AcDbEntity
  8
0
  6
Continuous
 62
     7
100
AcDbLine
 10
-281.25
 20
195.5
 30
0.0
 11
282.099853515625
 21
195.5
 31
0.0
  0
LINE
  5
234
330
A
100
AcDbEntity
  8
0
  6
Continuous
 62
     7
100
AcDbLine
 10
-281.25
 20
195.5
 30
0.0
 11
-281.25
 21
-195.0
 31
0.0
  0
LINE
  5
235
330
A
100
AcDbEntity
  8
0
  6
Continuous
 62
     7
100
AcDbLine
 10
-281.25
 20
-195.0
 30
0.0
 11
282.099853515625
 21
-195.0
 31
0.0
  0
MTEXT
  5
236
330
A
100
AcDbEntity
  8
0
  6
Continuous
 62
     7
100
AcDbMText
 10
-268.2716418557641
 20
160.5
 30
0.0
 40
6.300000190734863
 41
0.0
 71
     4
 72
     5
  1
{\W1.075;MODEL:CS-MRVZS28*ST(100)-K2}
 73
     1
 44
1.0
1001
ACAD
1000
ACAD_MTEXT_DEFINED_HEIGHT_BEGIN
1070
    46
1040
0.0
1000
ACAD_MTEXT_DEFINED_HEIGHT_END
1000
MTEXTBEGIN
1070
    73
1070
     1
1070
    44
1040
1.0
1070
    74
1070
     0
1000
MTEXTEND
  0
ENDSEC
  0
SECTION
  2
OBJECTS
  0
DICTIONARY
  5
19
330
0
100
AcDbDictionary
281
     1
  3
ACAD_COLOR
350
23F
  3
ACAD_GROUP
350
1A
  3
ACAD_LAYOUT
350
242
  3
ACAD_MATERIAL
350
23E
  3
ACAD_MLINESTYLE
350
1B
  3
ACAD_PLOTSETTINGS
350
243
  3
ACAD_PLOTSTYLENAME
350
23C
  3
ACAD_TABLESTYLE
350
240
  3
ACDBHEADERROUNDTRIPXREC
350
24E
  3
AcDbVariableDictionary
350
249
  0
DICTIONARY
  5
23F
102
{ACAD_REACTORS
330
19
102
}
330
19
100
AcDbDictionary
281
     1
  0
DICTIONARY
  5
1A
102
{ACAD_REACTORS
330
19
102
}
330
19
100
AcDbDictionary
281
     1
  0
DICTIONARY
  5
242
102
{ACAD_REACTORS
330
19
102
}
330
19
100
AcDbDictionary
281
     1
  3
Model
350
244
  3
レイアウト1
350
245
  0
DICTIONARY
  5
23E
102
{ACAD_REACTORS
330
19
102
}
330
19
100
AcDbDictionary
281
     1
  0
DICTIONARY
  5
1B
102
{ACAD_REACTORS
330
19
102
}
330
19
100
AcDbDictionary
281
     1
  3
STANDARD
350
1C
  0
DICTIONARY
  5
243
102
{ACAD_REACTORS
330
19
102
}
330
19
100
AcDbDictionary
281
     1
  0
ACDBDICTIONARYWDFLT
  5
23C
102
{ACAD_REACTORS
330
19
102
}
330
19
100
AcDbDictionary
281
     1
  3
Normal
350
23D
100
AcDbDictionaryWithDefault
340
23D
  0
DICTIONARY
  5
240
102
{ACAD_REACTORS
330
19
102
}
330
19
100
AcDbDictionary
281
     1
  3
Standard
350
241
  0
DICTIONARY
  5
24E
102
{ACAD_REACTORS
330
19
102
}
330
19
100
AcDbDictionary
281
     1
  0
DICTIONARY
  5
249
102
{ACAD_REACTORS
330
19
102
}
330
19
100
AcDbDictionary
281
     1
  3
CTABLESTYLE
350
24A
  3
DIMASSOC
350
24B
  3
PROJECTNAME
350
24C
  0
LAYOUT
  5
244
102
{ACAD_XDICTIONARY
360
24F
102
}
102
{ACAD_REACTORS
330
242
102
}
330
242
100
AcDbPlotSettings
  1

  2
\\Tg_salsvr02\DCCF450-41.214
  4

  6

 40
0.0
 41
0.0
 42
0.0
 43
0.0
 44
0.0
 45
0.0
 46
0.0
 47
0.0
 48
0.0
 49
0.0
140
0.0
141
0.0
142
1.0
143
1.0
 70
  1712
 72
     0
 73
     0
 74
     0
  7

 75
     0
147
1.0
148
0.0
149
0.0
100
AcDbLayout
  1
Model
 70
     1
 71
     0
 10
0.0
 20
0.0
 11
12.0
 21
9.0
 12
0.0
 22
0.0
 32
0.0
 14
0.0
 24
0.0
 34
0.0
 15
0.0
 25
0.0
 35
0.0
146
0.0
 13
0.0
 23
0.0
 33
0.0
 16
1.0
 26
0.0
 36
0.0
 17
0.0
 27
1.0
 37
0.0
 76
     0
330
A
  0
LAYOUT
  5
245
102
{ACAD_XDICTIONARY
360
251
102
}
102
{ACAD_REACTORS
330
242
102
}
330
242
100
AcDbPlotSettings
  1

  2
\\Tg_salsvr02\DCCF450-41.214
  4

  6

 40
0.0
 41
0.0
 42
0.0
 43
0.0
 44
0.0
 45
0.0
 46
0.0
 47
0.0
 48
0.0
 49
0.0
140
0.0
141
0.0
142
1.0
143
1.0
 70
   688
 72
     0
 73
     0
 74
     5
  7

 75
    16
147
1.0
148
0.0
149
0.0
100
AcDbLayout
  1
レイアウト1
 70
     0
 71
     1
 10
0.0
 20
0.0
 11
12.0
 21
9.0
 12
0.0
 22
0.0
 32
0.0
 14
1.000000000000000E+20
 24
1.000000000000000E+20
 34
1.000000000000000E+20
 15
-1.000000000000000E+20
 25
-1.000000000000000E+20
 35
-1.000000000000000E+20
146
0.0
 13
0.0
 23
0.0
 33
0.0
 16
1.0
 26
0.0
 36
0.0
 17
0.0
 27
1.0
 37
0.0
 76
     0
330
B
  0
MLINESTYLE
  5
1C
102
{ACAD_REACTORS
330
1B
102
}
330
1B
100
AcDbMlineStyle
  2
STANDARD
 70
     0
  3

 62
     0
 51
90.0
 52
90.0
 71
     2
 49
0.5
 62
   256
  6
BYLAYER
 49
-0.5
 62
   256
  6
BYLAYER
  0
ACDBPLACEHOLDER
  5
23D
102
{ACAD_REACTORS
330
23C
102
}
330
23C
  0
TABLESTYLE
  5
241
102
{ACAD_REACTORS
330
240
102
}
330
240
100
AcDbTableStyle
  3
Standard
 70
     0
 71
     0
 40
0.06
 41
0.06
280
     0
281
     0
  7
MX_NOTE_STANDARD
140
0.18
170
     2
 62
     0
 63
     7
283
     0
274
    -2
284
     1
 64
     0
275
    -2
285
     1
 65
     0
276
    -2
286
     1
 66
     0
277
    -2
287
     1
 67
     0
278
    -2
288
     1
 68
     0
279
    -2
289
     1
 69
     0
  7
MX_NOTE_STANDARD
140
0.25
170
     5
 62
     0
 63
     7
283
     0
274
    -2
284
     1
 64
     0
275
    -2
285
     1
 65
     0
276
    -2
286
     1
 66
     0
277
    -2
287
     1
 67
     0
278
    -2
288
     1
 68
     0
279
    -2
289
     1
 69
     0
  7
MX_NOTE_STANDARD
140
0.18
170
     5
 62
     0
 63
     7
283
     0
274
    -2
284
     1
 64
     0
275
    -2
285
     1
 65
     0
276
    -2
286
     1
 66
     0
277
    -2
287
     1
 67
     0
278
    -2
288
     1
 68
     0
279
    -2
289
     1
 69
     0
  0
DICTIONARYVAR
  5
24A
102
{ACAD_REACTORS
330
249
102
}
330
249
100
DictionaryVariables
280
     0
  1
STANDARD
  0
DICTIONARYVAR
  5
24B
102
{ACAD_REACTORS
330
249
102
}
330
249
100
DictionaryVariables
280
     0
  1
1
  0
DICTIONARYVAR
  5
24C
102
{ACAD_REACTORS
330
249
102
}
330
249
100
DictionaryVariables
280
     0
  1

  0
DICTIONARY
  5
24F
330
244
100
AcDbDictionary
280
     1
281
     1
  3
ACAD_XREC_ROUNDTRIP
360
250
  0
DICTIONARY
  5
251
330
245
100
AcDbDictionary
280
     1
281
     1
  3
ACAD_XREC_ROUNDTRIP
360
252
  0
XRECORD
  5
250
102
{ACAD_REACTORS
330
24F
102
}
330
24F
100
AcDbXrecord
280
     1
102
SHADEPLOT
 70
     0
102
SHADEPLOTRESLEVEL
 70
     2
102
SHADEPLOTCUSTOMDPI
 70
   300
  0
XRECORD
  5
252
102
{ACAD_REACTORS
330
251
102
}
330
251
100
AcDbXrecord
280
     1
102
SHADEPLOT
 70
     0
102
SHADEPLOTRESLEVEL
 70
     2
102
SHADEPLOTCUSTOMDPI
 70
   300
  0
ENDSEC
  0
EOF
