  0
SECTION
  2
HEADER
  9
$ACADVER
  1
AC1015
  9
$ACADMAINTVER
 70
    20
  9
$DWGCODEPAGE
  3
ANSI_932
  9
$INSBASE
 10
0.0
 20
0.0
 30
0.0
  9
$EXTMIN
 10
-281.25
 20
-195.0
 30
0.0
  9
$EXTMAX
 10
283.9503980228688
 20
195.5
 30
0.0
  9
$LIMMIN
 10
-281.25
 20
-195.0
  9
$LIMMAX
 10
285.5999879837036
 20
195.5
  9
$ORTHOMODE
 70
     0
  9
$REGENMODE
 70
     1
  9
$FILLMODE
 70
     1
  9
$QTEXTMODE
 70
     0
  9
$MIRRTEXT
 70
     1
  9
$LTSCALE
 40
1.0
  9
$ATTMODE
 70
     1
  9
$TEXTSIZE
 40
3.200000047683715
  9
$TRACEWID
 40
0.05
  9
$TEXTSTYLE
  7
MX_NOTE_STANDARD
  9
$CLAYER
  8
0
  9
$CELTYPE
  6
CONTINUOUS
  9
$CECOLOR
 62
   256
  9
$CELTSCALE
 40
1.0
  9
$DISPSILH
 70
     0
  9
$DIMSCALE
 40
1.0
  9
$DIMASZ
 40
2.5
  9
$DIMEXO
 40
1.5
  9
$DIMDLI
 40
3.75
  9
$DIMRND
 40
0.0
  9
$DIMDLE
 40
0.0
  9
$DIMEXE
 40
1.5
  9
$DIMTP
 40
0.0
  9
$DIMTM
 40
0.0
  9
$DIMTXT
 40
3.200000047683715
  9
$DIMCEN
 40
2.5
  9
$DIMTSZ
 40
0.0
  9
$DIMTOL
 70
     0
  9
$DIMLIM
 70
     0
  9
$DIMTIH
 70
     0
  9
$DIMTOH
 70
     0
  9
$DIMSE1
 70
     0
  9
$DIMSE2
 70
     0
  9
$DIMTAD
 70
     1
  9
$DIMZIN
 70
     8
  9
$DIMBLK
  1

  9
$DIMASO
 70
     1
  9
$DIMSHO
 70
     1
  9
$DIMPOST
  1

  9
$DIMAPOST
  1

  9
$DIMALT
 70
     0
  9
$DIMALTD
 70
     4
  9
$DIMALTF
 40
0.03937007874016
  9
$DIMLFAC
 40
1.0
  9
$DIMTOFL
 70
     1
  9
$DIMTVP
 40
0.0
  9
$DIMTIX
 70
     0
  9
$DIMSOXD
 70
     0
  9
$DIMSAH
 70
     0
  9
$DIMBLK1
  1

  9
$DIMBLK2
  1

  9
$DIMSTYLE
  2
MXDIMSTYLE
  9
$DIMCLRD
 70
     0
  9
$DIMCLRE
 70
     0
  9
$DIMCLRT
 70
     0
  9
$DIMTFAC
 40
1.0
  9
$DIMGAP
 40
1.0
  9
$DIMJUST
 70
     0
  9
$DIMSD1
 70
     0
  9
$DIMSD2
 70
     0
  9
$DIMTOLJ
 70
     1
  9
$DIMTZIN
 70
     0
  9
$DIMALTZ
 70
     0
  9
$DIMALTTZ
 70
     0
  9
$DIMUPT
 70
     1
  9
$DIMDEC
 70
     4
  9
$DIMTDEC
 70
     4
  9
$DIMALTU
 70
     2
  9
$DIMALTTD
 70
     4
  9
$DIMTXSTY
  7
MX_NOTE_STANDARD
  9
$DIMAUNIT
 70
     0
  9
$DIMADEC
 70
     0
  9
$DIMALTRND
 40
0.0
  9
$DIMAZIN
 70
     0
  9
$DIMDSEP
 70
    46
  9
$DIMATFIT
 70
     3
  9
$DIMFRAC
 70
     0
  9
$DIMLDRBLK
  1

  9
$DIMLUNIT
 70
     2
  9
$DIMLWD
 70
    -2
  9
$DIMLWE
 70
    -2
  9
$DIMTMOVE
 70
     0
  9
$LUNITS
 70
     2
  9
$LUPREC
 70
     4
  9
$SKETCHINC
 40
0.1
  9
$FILLETRAD
 40
0.0
  9
$AUNITS
 70
     0
  9
$AUPREC
 70
     0
  9
$MENU
  1
acad
  9
$ELEVATION
 40
0.0
  9
$PELEVATION
 40
0.0
  9
$THICKNESS
 40
0.0
  9
$LIMCHECK
 70
     0
  9
$CHAMFERA
 40
0.0
  9
$CHAMFERB
 40
0.0
  9
$CHAMFERC
 40
0.0
  9
$CHAMFERD
 40
0.0
  9
$SKPOLY
 70
     0
  9
$TDCREATE
 40
2453510.799872685
  9
$TDUCREATE
 40
2453510.424872686
  9
$TDUPDATE
 40
2454034.806958738
  9
$TDUUPDATE
 40
2454034.431958739
  9
$TDINDWG
 40
0.0002997454
  9
$TDUSRTIMER
 40
0.0002997454
  9
$USRTIMER
 70
     1
  9
$ANGBASE
 50
0.0
  9
$ANGDIR
 70
     0
  9
$PDMODE
 70
     0
  9
$PDSIZE
 40
0.0
  9
$PLINEWID
 40
0.0
  9
$SPLFRAME
 70
     0
  9
$SPLINETYPE
 70
     6
  9
$SPLINESEGS
 70
     8
  9
$HANDSEED
  5
1FF
  9
$SURFTAB1
 70
     6
  9
$SURFTAB2
 70
     6
  9
$SURFTYPE
 70
     6
  9
$SURFU
 70
     6
  9
$SURFV
 70
     6
  9
$UCSBASE
  2

  9
$UCSNAME
  2

  9
$UCSORG
 10
0.0
 20
0.0
 30
0.0
  9
$UCSXDIR
 10
1.0
 20
0.0
 30
0.0
  9
$UCSYDIR
 10
0.0
 20
1.0
 30
0.0
  9
$UCSORTHOREF
  2

  9
$UCSORTHOVIEW
 70
     0
  9
$UCSORGTOP
 10
0.0
 20
0.0
 30
0.0
  9
$UCSORGBOTTOM
 10
0.0
 20
0.0
 30
0.0
  9
$UCSORGLEFT
 10
0.0
 20
0.0
 30
0.0
  9
$UCSORGRIGHT
 10
0.0
 20
0.0
 30
0.0
  9
$UCSORGFRONT
 10
0.0
 20
0.0
 30
0.0
  9
$UCSORGBACK
 10
0.0
 20
0.0
 30
0.0
  9
$PUCSBASE
  2

  9
$PUCSNAME
  2

  9
$PUCSORG
 10
0.0
 20
0.0
 30
0.0
  9
$PUCSXDIR
 10
1.0
 20
0.0
 30
0.0
  9
$PUCSYDIR
 10
0.0
 20
1.0
 30
0.0
  9
$PUCSORTHOREF
  2

  9
$PUCSORTHOVIEW
 70
     0
  9
$PUCSORGTOP
 10
0.0
 20
0.0
 30
0.0
  9
$PUCSORGBOTTOM
 10
0.0
 20
0.0
 30
0.0
  9
$PUCSORGLEFT
 10
0.0
 20
0.0
 30
0.0
  9
$PUCSORGRIGHT
 10
0.0
 20
0.0
 30
0.0
  9
$PUCSORGFRONT
 10
0.0
 20
0.0
 30
0.0
  9
$PUCSORGBACK
 10
0.0
 20
0.0
 30
0.0
  9
$USERI1
 70
     0
  9
$USERI2
 70
     0
  9
$USERI3
 70
     0
  9
$USERI4
 70
     0
  9
$USERI5
 70
     0
  9
$USERR1
 40
0.0
  9
$USERR2
 40
0.0
  9
$USERR3
 40
0.0
  9
$USERR4
 40
0.0
  9
$USERR5
 40
0.0
  9
$WORLDVIEW
 70
     1
  9
$SHADEDGE
 70
     3
  9
$SHADEDIF
 70
    70
  9
$TILEMODE
 70
     1
  9
$MAXACTVP
 70
    16
  9
$PINSBASE
 10
0.0
 20
0.0
 30
0.0
  9
$PLIMCHECK
 70
     0
  9
$PEXTMIN
 10
1.000000000000000E+20
 20
1.000000000000000E+20
 30
1.000000000000000E+20
  9
$PEXTMAX
 10
-1.000000000000000E+20
 20
-1.000000000000000E+20
 30
-1.000000000000000E+20
  9
$PLIMMIN
 10
0.0
 20
0.0
  9
$PLIMMAX
 10
12.0
 20
9.0
  9
$UNITMODE
 70
     0
  9
$VISRETAIN
 70
     0
  9
$PLINEGEN
 70
     1
  9
$PSLTSCALE
 70
     0
  9
$TREEDEPTH
 70
  3020
  9
$CMLSTYLE
  2
STANDARD
  9
$CMLJUST
 70
     0
  9
$CMLSCALE
 40
1.0
  9
$PROXYGRAPHICS
 70
     1
  9
$MEASUREMENT
 70
     0
  9
$CELWEIGHT
370
    -1
  9
$ENDCAPS
280
     0
  9
$JOINSTYLE
280
     0
  9
$LWDISPLAY
290
     0
  9
$INSUNITS
 70
     0
  9
$HYPERLINKBASE
  1

  9
$STYLESHEET
  1

  9
$XEDIT
290
     1
  9
$CEPSNTYPE
380
     0
  9
$PSTYLEMODE
290
     1
  9
$FINGERPRINTGUID
  2
{18DC9AE2-00C6-4E29-8B78-6DE4BFFFED78}
  9
$VERSIONGUID
  2
{A5B6CDC6-11C1-4306-8155-507D2392F13C}
  9
$EXTNAMES
290
     1
  9
$PSVPSCALE
 40
0.0
  9
$OLESTARTUP
290
     0
  0
ENDSEC
  0
SECTION
  2
CLASSES
  0
CLASS
  1
IMAGE
  2
AcDbRasterImage
  3
ISM
 90
    32895
280
     0
281
     1
  0
CLASS
  1
DICTIONARYVAR
  2
AcDbDictionaryVar
  3
ObjectDBX Classes
 90
        0
280
     0
281
     0
  0
CLASS
  1
RASTERVARIABLES
  2
AcDbRasterVariables
  3
ISM
 90
    32768
280
     0
281
     0
  0
CLASS
  1
IMAGEDEF
  2
AcDbRasterImageDef
  3
ISM
 90
    32768
280
     0
281
     0
  0
CLASS
  1
IMAGEDEF_REACTOR
  2
AcDbRasterImageDefReactor
  3
ISM
 90
    32769
280
     0
281
     0
  0
CLASS
  1
IDBUFFER
  2
AcDbIdBuffer
  3
ObjectDBX Classes
 90
    32768
280
     0
281
     0
  0
CLASS
  1
SPATIAL_FILTER
  2
AcDbSpatialFilter
  3
ObjectDBX Classes
 90
    32768
280
     0
281
     0
  0
CLASS
  1
SORTENTSTABLE
  2
AcDbSortentsTable
  3
ObjectDBX Classes
 90
    32768
280
     0
281
     0
  0
CLASS
  1
LAYER_INDEX
  2
AcDbLayerIndex
  3
ObjectDBX Classes
 90
    32768
280
     0
281
     0
  0
CLASS
  1
SPATIAL_INDEX
  2
AcDbSpatialIndex
  3
ObjectDBX Classes
 90
    32768
280
     0
281
     0
  0
CLASS
  1
OBJECT_PTR
  2
CAseDLPNTableRecord
  3
"ASE-LPNTableRecord"
 90
    32768
280
     0
281
     0
  0
CLASS
  1
LAYOUT
  2
AcDbLayout
  3
ObjectDBX Classes
 90
        0
280
     0
281
     0
  0
CLASS
  1
PLOTSETTINGS
  2
AcDbPlotSettings
  3
ObjectDBX Classes
 90
    32768
280
     0
281
     0
  0
CLASS
  1
ACDBDICTIONARYWDFLT
  2
AcDbDictionaryWithDefault
  3
ObjectDBX Classes
 90
        0
280
     0
281
     0
  0
CLASS
  1
ACDBPLACEHOLDER
  2
AcDbPlaceHolder
  3
ObjectDBX Classes
 90
        0
280
     0
281
     0
  0
CLASS
  1
TABLESTYLE
  2
AcDbTableStyle
  3
ObjectDBX Classes
 90
     2047
280
     0
281
     0
  0
ENDSEC
  0
SECTION
  2
TABLES
  0
TABLE
  2
VPORT
  5
7
330
0
100
AcDbSymbolTable
 70
     2
  0
VPORT
  5
1F9
330
7
100
AcDbSymbolTableRecord
100
AcDbViewportTableRecord
  2
*Active
 70
     0
 10
0.0
 20
0.0
 11
1.0
 21
1.0
 12
2.174993991851863
 22
64.08617879894894
 13
0.0
 23
0.0
 14
1.0
 24
1.0
 15
0.0
 25
0.0
 16
0.0
 26
0.0
 36
1.0
 17
0.0
 27
0.0
 37
0.0
 40
522.0773575978978
 41
1.308483290488431
 42
50.0
 43
0.0
 44
0.0
 50
0.0
 51
0.0
 71
     0
 72
   100
 73
     1
 74
     1
 75
     0
 76
     0
 77
     0
 78
     0
281
     0
 65
     1
110
0.0
120
0.0
130
0.0
111
1.0
121
0.0
131
0.0
112
0.0
122
1.0
132
0.0
 79
     0
146
0.0
  0
ENDTAB
  0
TABLE
  2
LTYPE
  5
4
330
0
100
AcDbSymbolTable
 70
     2
  0
LTYPE
  5
11
330
4
100
AcDbSymbolTableRecord
100
AcDbLinetypeTableRecord
  2
BYBLOCK
 70
     0
  3

 72
    65
 73
     0
 40
0.0
  0
LTYPE
  5
12
330
4
100
AcDbSymbolTableRecord
100
AcDbLinetypeTableRecord
  2
BYLAYER
 70
     0
  3

 72
    65
 73
     0
 40
0.0
  0
LTYPE
  5
13
330
4
100
AcDbSymbolTableRecord
100
AcDbLinetypeTableRecord
  2
CONTINUOUS
 70
     0
  3
Solid line
 72
    65
 73
     0
 40
0.0
  0
LTYPE
  5
6C
330
4
100
AcDbSymbolTableRecord
100
AcDbLinetypeTableRecord
  2
PHANTOM
 70
     0
  3
Phantom ______  __  __  ______  __  __  ______
 72
    65
 73
     6
 40
30.0
 49
20.0
 74
     0
 49
-2.0
 74
     0
 49
2.0
 74
     0
 49
-2.0
 74
     0
 49
2.0
 74
     0
 49
-2.0
 74
     0
  0
ENDTAB
  0
TABLE
  2
LAYER
  5
2
330
0
100
AcDbSymbolTable
 70
     2
  0
LAYER
  5
14
330
2
100
AcDbSymbolTableRecord
100
AcDbLayerTableRecord
  2
0
 70
     0
 62
     7
  6
CONTINUOUS
370
    -3
390
1E9
  0
LAYER
  5
1D
330
2
100
AcDbSymbolTableRecord
100
AcDbLayerTableRecord
  2
DEFPOINTS
 70
     0
 62
     7
  6
CONTINUOUS
290
     0
370
    -3
390
1E9
  0
ENDTAB
  0
TABLE
  2
STYLE
  5
3
330
0
100
AcDbSymbolTable
 70
     2
  0
STYLE
  5
17
330
3
100
AcDbSymbolTableRecord
100
AcDbTextStyleTableRecord
  2
MX_NOTE_STANDARD
 70
     0
 40
0.0
 41
1.0
 50
0.0
 71
     0
 42
3.200000047683715
  3
txt.shx
  4
extfont.shx
  0
STYLE
  5
1E7
330
3
100
AcDbSymbolTableRecord
100
AcDbTextStyleTableRecord
  2
Standard
 70
     0
 40
0.0
 41
1.0
 50
0.0
 71
     0
 42
0.2
  3

  4

  0
ENDTAB
  0
TABLE
  2
VIEW
  5
5
330
0
100
AcDbSymbolTable
 70
     0
  0
ENDTAB
  0
TABLE
  2
UCS
  5
6
330
0
100
AcDbSymbolTable
 70
     0
  0
ENDTAB
  0
TABLE
  2
APPID
  5
8
330
0
100
AcDbSymbolTable
 70
     1
  0
APPID
  5
16
330
8
100
AcDbSymbolTableRecord
100
AcDbRegAppTableRecord
  2
ACAD
 70
     0
  0
ENDTAB
  0
TABLE
  2
DIMSTYLE
  5
9
330
0
100
AcDbSymbolTable
 70
     1
100
AcDbDimStyleTable
 71
     0
  0
DIMSTYLE
105
18
330
9
100
AcDbSymbolTableRecord
100
AcDbDimStyleTableRecord
  2
MXDIMSTYLE
 70
     0
 41
2.5
 42
1.5
 43
3.75
 44
1.5
 73
     0
 74
     0
 77
     1
 78
     8
140
3.200000047683715
141
2.5
143
0.03937007874016
147
1.0
171
     4
172
     1
274
     4
288
     1
340
17
  0
ENDTAB
  0
TABLE
  2
BLOCK_RECORD
  5
1
330
0
100
AcDbSymbolTable
 70
     3
  0
BLOCK_RECORD
  5
A
330
1
100
AcDbSymbolTableRecord
100
AcDbBlockTableRecord
  2
*MODEL_SPACE
340
1F0
  0
BLOCK_RECORD
  5
B
330
1
100
AcDbSymbolTableRecord
100
AcDbBlockTableRecord
  2
*PAPER_SPACE
340
1F1
  0
BLOCK_RECORD
  5
1E
330
1
100
AcDbSymbolTableRecord
100
AcDbBlockTableRecord
  2
MRVZ28-K2-1
340
0
102
{BLKREFS
331
1D2
102
}
  0
BLOCK_RECORD
  5
1F
330
1
100
AcDbSymbolTableRecord
100
AcDbBlockTableRecord
  2
MRVZ28-K2-2
340
0
102
{BLKREFS
331
1D1
102
}
  0
BLOCK_RECORD
  5
20
330
1
100
AcDbSymbolTableRecord
100
AcDbBlockTableRecord
  2
MRVZ28-K2-3
340
0
102
{BLKREFS
331
1D0
102
}
  0
ENDTAB
  0
ENDSEC
  0
SECTION
  2
BLOCKS
  0
BLOCK
  5
D
330
A
100
AcDbEntity
  8
0
100
AcDbBlockBegin
  2
*MODEL_SPACE
 70
     0
 10
0.0
 20
0.0
 30
0.0
  3
*MODEL_SPACE
  1

  0
ENDBLK
  5
E
330
A
100
AcDbEntity
  8
0
100
AcDbBlockEnd
  0
BLOCK
  5
F
330
B
100
AcDbEntity
 67
     1
  8
0
100
AcDbBlockBegin
  2
*PAPER_SPACE
 70
     0
 10
0.0
 20
0.0
 30
0.0
  3
*PAPER_SPACE
  1

  0
ENDBLK
  5
10
330
B
100
AcDbEntity
 67
     1
  8
0
100
AcDbBlockEnd
  0
BLOCK
  5
21
330
1E
100
AcDbEntity
  8
0
100
AcDbBlockBegin
  2
MRVZ28-K2-1
 70
     0
 10
0.0
 20
0.0
 30
0.0
  3
MRVZ28-K2-1
  1

  0
LINE
  5
22
330
1E
100
AcDbEntity
  8
0
  6
Continuous
 62
     7
100
AcDbLine
 10
-25.5
 20
-27.5
 30
0.0
 11
-25.0
 21
-28.0
 31
0.0
  0
LINE
  5
23
330
1E
100
AcDbEntity
  8
0
  6
Continuous
 62
     7
100
AcDbLine
 10
-25.5
 20
-18.5
 30
0.0
 11
-25.0
 21
-18.0
 31
0.0
  0
LINE
  5
24
330
1E
100
AcDbEntity
  8
0
  6
Continuous
 62
     7
100
AcDbLine
 10
22.5
 20
-27.5
 30
0.0
 11
22.0
 21
-28.0
 31
0.0
  0
LINE
  5
25
330
1E
100
AcDbEntity
  8
0
  6
Continuous
 62
     7
100
AcDbLine
 10
22.50001532029273
 20
-18.50001532029272
 30
0.0
 11
22.0
 21
-18.0
 31
0.0
  0
LINE
  5
26
330
1E
100
AcDbEntity
  8
0
  6
Continuous
 62
     7
100
AcDbLine
 10
190.5
 20
-27.5
 30
0.0
 11
191.0
 21
-28.00000000000001
 31
0.0
  0
LINE
  5
27
330
1E
100
AcDbEntity
  8
0
  6
Continuous
 62
     7
100
AcDbLine
 10
190.5000001111007
 20
-18.49999988889931
 30
0.0
 11
191.0
 21
-18.0
 31
0.0
  0
LINE
  5
28
330
1E
100
AcDbEntity
  8
0
  6
Continuous
 62
     7
100
AcDbLine
 10
238.5
 20
-27.5
 30
0.0
 11
238.0
 21
-27.99999999999999
 31
0.0
  0
LINE
  5
29
330
1E
100
AcDbEntity
  8
0
  6
Continuous
 62
     7
100
AcDbLine
 10
238.5
 20
-18.50000000000001
 30
0.0
 11
238.0
 21
-18.0
 31
0.0
  0
LINE
  5
2A
330
1E
100
AcDbEntity
  8
0
  6
Continuous
 62
     2
100
AcDbLine
 10
205.5
 20
-62.5
 30
0.0
 11
205.5
 21
-55.5
 31
0.0
  0
LINE
  5
2B
330
1E
100
AcDbEntity
  8
0
  6
Continuous
 62
     7
100
AcDbLine
 10
188.5
 20
-27.5
 30
0.0
 11
190.5
 21
-27.5
 31
0.0
  0
LINE
  5
2C
330
1E
100
AcDbEntity
  8
0
  6
Continuous
 62
     7
100
AcDbLine
 10
188.5
 20
-18.5
 30
0.0
 11
190.5
 21
-18.5
 31
0.0
  0
LINE
  5
2D
330
1E
100
AcDbEntity
  8
0
  6
Continuous
 62
     7
100
AcDbLine
 10
22.5
 20
-27.5
 30
0.0
 11
24.5
 21
-27.5
 31
0.0
  0
LINE
  5
2E
330
1E
100
AcDbEntity
  8
0
  6
Continuous
 62
     7
100
AcDbLine
 10
22.49998015317237
 20
-18.5
 30
0.0
 11
24.5
 21
-18.5
 31
0.0
  0
LINE
  5
2F
330
1E
100
AcDbEntity
  8
0
  6
Continuous
 62
     7
100
AcDbLine
 10
16.5
 20
-28.0
 30
0.0
 11
22.0
 21
-28.0
 31
0.0
  0
LINE
  5
30
330
1E
100
AcDbEntity
  8
0
  6
Continuous
 62
     2
100
AcDbLine
 10
16.5
 20
-27.5
 30
0.0
 11
22.5
 21
-27.5
 31
0.0
  0
LINE
  5
31
330
1E
100
AcDbEntity
  8
0
  6
Continuous
 62
     2
100
AcDbLine
 10
16.5
 20
-18.5
 30
0.0
 11
22.5
 21
-18.5
 31
0.0
  0
LINE
  5
32
330
1E
100
AcDbEntity
  8
0
  6
Continuous
 62
     7
100
AcDbLine
 10
16.5
 20
-18.0
 30
0.0
 11
22.0
 21
-18.0
 31
0.0
  0
LINE
  5
33
330
1E
100
AcDbEntity
  8
0
  6
Continuous
 62
     7
100
AcDbLine
 10
196.5
 20
-28.0
 30
0.0
 11
191.0
 21
-28.0
 31
0.0
  0
LINE
  5
34
330
1E
100
AcDbEntity
  8
0
  6
Continuous
 62
     2
100
AcDbLine
 10
196.5
 20
-27.5
 30
0.0
 11
190.5
 21
-27.5
 31
0.0
  0
LINE
  5
35
330
1E
100
AcDbEntity
  8
0
  6
Continuous
 62
     2
100
AcDbLine
 10
196.5
 20
-18.5
 30
0.0
 11
190.5
 21
-18.5
 31
0.0
  0
LINE
  5
36
330
1E
100
AcDbEntity
  8
0
  6
Continuous
 62
     7
100
AcDbLine
 10
196.5
 20
-18.0
 30
0.0
 11
191.0
 21
-18.0
 31
0.0
  0
LINE
  5
37
330
1E
100
AcDbEntity
  8
0
  6
Continuous
 62
     7
100
AcDbLine
 10
24.5
 20
-45.49999999999999
 30
0.0
 11
16.5
 21
-45.49999999999999
 31
0.0
  0
LINE
  5
38
330
1E
100
AcDbEntity
  8
0
  6
Continuous
 62
     7
100
AcDbLine
 10
88.49999999999999
 20
-0.5
 30
0.0
 11
196.5
 21
-0.5
 31
0.0
  0
LINE
  5
39
330
1E
100
AcDbEntity
  8
0
  6
Continuous
 62
     7
100
AcDbLine
 10
24.5
 20
12.0
 30
0.0
 11
24.5
 21
-58.0
 31
0.0
  0
LINE
  5
3A
330
1E
100
AcDbEntity
  8
0
  6
Continuous
 62
     7
100
AcDbLine
 10
26.10000610351562
 20
12.0
 30
0.0
 11
26.10000610351562
 21
-58.0
 31
0.0
  0
LINE
  5
3B
330
1E
100
AcDbEntity
  8
0
  6
Continuous
 62
     7
100
AcDbLine
 10
24.5
 20
12.0
 30
0.0
 11
88.49999999999999
 21
12.0
 31
0.0
  0
LINE
  5
3C
330
1E
100
AcDbEntity
  8
0
  6
Continuous
 62
     7
100
AcDbLine
 10
26.10000610351562
 20
-3.0
 30
0.0
 11
86.89999389648438
 21
-3.0
 31
0.0
  0
LINE
  5
3D
330
1E
100
AcDbEntity
  8
0
  6
Continuous
 62
     2
100
AcDbLine
 10
34.5
 20
-0.5399932861328125
 30
0.0
 11
34.5
 21
10.54000854492187
 31
0.0
  0
LINE
  5
3E
330
1E
100
AcDbEntity
  8
0
  6
Continuous
 62
     2
100
AcDbLine
 10
72.96000671386718
 20
5.0
 30
0.0
 11
84.03999328613281
 21
5.0
 31
0.0
  0
LINE
  5
3F
330
1E
100
AcDbEntity
  8
0
  6
Continuous
 62
     7
100
AcDbLine
 10
24.5
 20
-58.0
 30
0.0
 11
88.49999999999999
 21
-58.0
 31
0.0
  0
LINE
  5
40
330
1E
100
AcDbEntity
  8
0
  6
Continuous
 62
     2
100
AcDbLine
 10
78.5
 20
-0.5399932861328125
 30
0.0
 11
78.5
 21
10.54000854492187
 31
0.0
  0
LINE
  5
41
330
1E
100
AcDbEntity
  8
0
  6
Continuous
 62
     7
100
AcDbLine
 10
86.89999389648438
 20
-58.0
 30
0.0
 11
86.89999389648438
 21
12.0
 31
0.0
  0
LINE
  5
42
330
1E
100
AcDbEntity
  8
0
  6
Continuous
 62
     7
100
AcDbLine
 10
88.49999999999999
 20
-58.0
 30
0.0
 11
88.49999999999999
 21
12.0
 31
0.0
  0
LINE
  5
43
330
1E
100
AcDbEntity
  8
0
  6
Continuous
 62
     2
100
AcDbLine
 10
40.03999328613281
 20
-51.0
 30
0.0
 11
28.96000671386719
 21
-51.0
 31
0.0
  0
LINE
  5
44
330
1E
100
AcDbEntity
  8
0
  6
Continuous
 62
     2
100
AcDbLine
 10
78.5
 20
-45.46000671386718
 30
0.0
 11
78.5
 21
-56.53999328613281
 31
0.0
  0
LINE
  5
45
330
1E
100
AcDbEntity
  8
0
  6
Continuous
 62
     2
100
AcDbLine
 10
72.96000671386718
 20
-51.0
 30
0.0
 11
84.03999328613281
 21
-51.0
 31
0.0
  0
LINE
  5
46
330
1E
100
AcDbEntity
  8
0
  6
Continuous
 62
     7
100
AcDbLine
 10
24.5
 20
-0.5
 30
0.0
 11
16.5
 21
-0.5
 31
0.0
  0
LINE
  5
47
330
1E
100
AcDbEntity
  8
0
  6
Continuous
 62
     2
100
AcDbLine
 10
34.5
 20
-45.46000671386718
 30
0.0
 11
34.5
 21
-56.53999328613281
 31
0.0
  0
LINE
  5
48
330
1E
100
AcDbEntity
  8
0
  6
Continuous
 62
     7
100
AcDbLine
 10
88.49999999999999
 20
-45.49999999999999
 30
0.0
 11
196.5
 21
-45.49999999999999
 31
0.0
  0
LINE
  5
49
330
1E
100
AcDbEntity
  8
0
  6
Continuous
 62
     2
100
AcDbLine
 10
56.5
 20
15.74615478515625
 30
0.0
 11
56.5
 21
-63.0
 31
0.0
  0
LINE
  5
4A
330
1E
100
AcDbEntity
  8
0
  6
Continuous
 62
     2
100
AcDbLine
 10
40.03999328613281
 20
5.0
 30
0.0
 11
28.96000671386719
 21
5.0
 31
0.0
  0
LINE
  5
4B
330
1E
100
AcDbEntity
  8
0
  6
Continuous
 62
     7
100
AcDbLine
 10
24.14999389648437
 20
-50.19999694824218
 30
0.0
 11
24.5
 21
-50.19999694824218
 31
0.0
  0
LINE
  5
4C
330
1E
100
AcDbEntity
  8
0
  6
Continuous
 62
     7
100
AcDbLine
 10
22.30000305175781
 20
10.98150634765625
 30
0.0
 11
22.30000305175781
 21
5.01849365234375
 31
0.0
  0
LINE
  5
4D
330
1E
100
AcDbEntity
  8
0
  6
Continuous
 62
     7
100
AcDbLine
 10
24.14999389648437
 20
11.79998779296875
 30
0.0
 11
24.5
 21
11.79998779296875
 31
0.0
  0
LINE
  5
4E
330
1E
100
AcDbEntity
  8
0
  6
Continuous
 62
     7
100
AcDbLine
 10
24.14999389648437
 20
-57.80000305175781
 30
0.0
 11
24.5
 21
-57.80000305175781
 31
0.0
  0
LINE
  5
4F
330
1E
100
AcDbEntity
  8
0
  6
Continuous
 62
     7
100
AcDbLine
 10
90.69999694824218
 20
10.98150634765625
 30
0.0
 11
90.69999694824218
 21
5.01849365234375
 31
0.0
  0
LINE
  5
50
330
1E
100
AcDbEntity
  8
0
  6
Continuous
 62
     7
100
AcDbLine
 10
22.30000305175781
 20
-56.98152160644531
 30
0.0
 11
22.30000305175781
 21
-51.01847839355468
 31
0.0
  0
LINE
  5
51
330
1E
100
AcDbEntity
  8
0
  6
Continuous
 62
     7
100
AcDbLine
 10
88.85000610351562
 20
-50.19999694824218
 30
0.0
 11
88.49999999999999
 21
-50.19999694824218
 31
0.0
  0
LINE
  5
52
330
1E
100
AcDbEntity
  8
0
  6
Continuous
 62
     7
100
AcDbLine
 10
24.14999389648437
 20
4.20001220703125
 30
0.0
 11
24.5
 21
4.20001220703125
 31
0.0
  0
LINE
  5
53
330
1E
100
AcDbEntity
  8
0
  6
Continuous
 62
     7
100
AcDbLine
 10
88.85000610351562
 20
11.79998779296875
 30
0.0
 11
88.49999999999999
 21
11.79998779296875
 31
0.0
  0
LINE
  5
54
330
1E
100
AcDbEntity
  8
0
  6
Continuous
 62
     7
100
AcDbLine
 10
88.85000610351562
 20
-57.80000305175781
 30
0.0
 11
88.49999999999999
 21
-57.80000305175781
 31
0.0
  0
LINE
  5
55
330
1E
100
AcDbEntity
  8
0
  6
Continuous
 62
     7
100
AcDbLine
 10
90.69999694824218
 20
-56.98152160644531
 30
0.0
 11
90.69999694824218
 21
-51.01847839355468
 31
0.0
  0
LINE
  5
56
330
1E
100
AcDbEntity
  8
0
  6
Continuous
 62
     7
100
AcDbLine
 10
88.85000610351562
 20
4.20001220703125
 30
0.0
 11
88.49999999999999
 21
4.20001220703125
 31
0.0
  0
LINE
  5
57
330
1E
100
AcDbEntity
  8
0
  6
Continuous
 62
     7
100
AcDbLine
 10
26.10000610351562
 20
-43.0
 30
0.0
 11
86.89999389648438
 21
-43.0
 31
0.0
  0
LINE
  5
58
330
1E
100
AcDbEntity
  8
0
  6
Continuous
 62
     7
100
AcDbLine
 10
188.5
 20
-21.5
 30
0.0
 11
178.5
 21
-21.5
 31
0.0
  0
LINE
  5
59
330
1E
100
AcDbEntity
  8
0
  6
Continuous
 62
     7
100
AcDbLine
 10
219.5
 20
-59.0
 30
0.0
 11
219.5
 21
13.0
 31
0.0
  0
LINE
  5
5A
330
1E
100
AcDbEntity
  8
0
  6
Continuous
 62
     2
100
AcDbLine
 10
221.0399932861328
 20
0.0
 30
0.0
 11
204.9600067138672
 21
0.0
 31
0.0
  0
LINE
  5
5B
330
1E
100
AcDbEntity
  8
0
  6
Continuous
 62
     2
100
AcDbLine
 10
213.0
 20
-8.03997802734375
 30
0.0
 11
213.0
 21
8.040008544921875
 31
0.0
  0
LINE
  5
5C
330
1E
100
AcDbEntity
  8
0
  6
Continuous
 62
     2
100
AcDbLine
 10
221.0399932861328
 20
-46.0
 30
0.0
 11
204.9600067138672
 21
-46.0
 31
0.0
  0
LINE
  5
5D
330
1E
100
AcDbEntity
  8
0
  6
Continuous
 62
     2
100
AcDbLine
 10
213.0
 20
-37.96002197265625
 30
0.0
 11
213.0
 21
-54.03997802734375
 31
0.0
  0
LINE
  5
5E
330
1E
100
AcDbEntity
  8
0
  6
Continuous
 62
     7
100
AcDbLine
 10
196.5
 20
-59.0
 30
0.0
 11
219.5
 21
-59.0
 31
0.0
  0
LINE
  5
5F
330
1E
100
AcDbEntity
  8
0
  6
Continuous
 62
     7
100
AcDbLine
 10
196.5
 20
13.0
 30
0.0
 11
219.5
 21
13.0
 31
0.0
  0
LINE
  5
60
330
1E
100
AcDbEntity
  8
0
  6
Continuous
 62
     7
100
AcDbLine
 10
196.5
 20
-34.0
 30
0.0
 11
219.5
 21
-34.0
 31
0.0
  0
LINE
  5
61
330
1E
100
AcDbEntity
  8
0
  6
Continuous
 62
     7
100
AcDbLine
 10
196.5
 20
-59.0
 30
0.0
 11
196.5
 21
13.0
 31
0.0
  0
LINE
  5
62
330
1E
100
AcDbEntity
  8
0
  6
Continuous
 62
     7
100
AcDbLine
 10
190.5
 20
-18.5
 30
0.0
 11
190.5
 21
-27.5
 31
0.0
  0
LINE
  5
63
330
1E
100
AcDbEntity
  8
0
  6
Continuous
 62
     7
100
AcDbLine
 10
196.5
 20
-12.0
 30
0.0
 11
219.5
 21
-12.0
 31
0.0
  0
LINE
  5
64
330
1E
100
AcDbEntity
  8
0
  6
Continuous
 62
     7
100
AcDbLine
 10
238.0
 20
-18.0
 30
0.0
 11
222.5
 21
-18.0
 31
0.0
  0
LINE
  5
65
330
1E
100
AcDbEntity
  8
0
  6
Continuous
 62
     2
100
AcDbLine
 10
238.5
 20
-18.5
 30
0.0
 11
222.5
 21
-18.5
 31
0.0
  0
LINE
  5
66
330
1E
100
AcDbEntity
  8
0
  6
Continuous
 62
     7
100
AcDbLine
 10
238.5
 20
-18.5
 30
0.0
 11
238.5
 21
-27.5
 31
0.0
  0
LINE
  5
67
330
1E
100
AcDbEntity
  8
0
  6
Continuous
 62
     7
100
AcDbLine
 10
238.0
 20
-18.0
 30
0.0
 11
238.0
 21
-28.0
 31
0.0
  0
LINE
  5
68
330
1E
100
AcDbEntity
  8
0
  6
Continuous
 62
     2
100
AcDbLine
 10
238.5
 20
-27.5
 30
0.0
 11
222.5
 21
-27.5
 31
0.0
  0
LINE
  5
69
330
1E
100
AcDbEntity
  8
0
  6
Continuous
 62
     7
100
AcDbLine
 10
222.5
 20
-29.0
 30
0.0
 11
219.5
 21
-29.0
 31
0.0
  0
LINE
  5
6A
330
1E
100
AcDbEntity
  8
0
  6
Continuous
 62
     7
100
AcDbLine
 10
222.5
 20
-17.0
 30
0.0
 11
222.5
 21
-29.0
 31
0.0
  0
LINE
  5
6B
330
1E
100
AcDbEntity
  8
0
  6
Continuous
 62
     7
100
AcDbLine
 10
188.5
 20
-18.5
 30
0.0
 11
188.5
 21
-27.5
 31
0.0
  0
LINE
  5
6D
330
1E
100
AcDbEntity
  8
0
  6
PHANTOM
 62
     2
100
AcDbLine
 10
222.5
 20
-23.0
 30
0.0
 11
219.5
 21
-23.0
 31
0.0
  0
LINE
  5
6E
330
1E
100
AcDbEntity
  8
0
  6
Continuous
 62
     7
100
AcDbLine
 10
178.5
 20
-21.5
 30
0.0
 11
178.5
 21
-24.5
 31
0.0
  0
LINE
  5
6F
330
1E
100
AcDbEntity
  8
0
  6
Continuous
 62
     7
100
AcDbLine
 10
222.5
 20
-17.0
 30
0.0
 11
219.5
 21
-17.0
 31
0.0
  0
LINE
  5
70
330
1E
100
AcDbEntity
  8
0
  6
Continuous
 62
     7
100
AcDbLine
 10
191.0
 20
-18.0
 30
0.0
 11
191.0
 21
-28.0
 31
0.0
  0
LINE
  5
71
330
1E
100
AcDbEntity
  8
0
  6
Continuous
 62
     7
100
AcDbLine
 10
188.5
 20
-24.5
 30
0.0
 11
178.5
 21
-24.5
 31
0.0
  0
LINE
  5
72
330
1E
100
AcDbEntity
  8
0
  6
Continuous
 62
     7
100
AcDbLine
 10
238.0
 20
-28.0
 30
0.0
 11
222.5
 21
-28.0
 31
0.0
  0
LINE
  5
73
330
1E
100
AcDbEntity
  8
0
  6
Continuous
 62
     7
100
AcDbLine
 10
-25.0
 20
-28.0
 30
0.0
 11
-9.5
 21
-28.0
 31
0.0
  0
LINE
  5
74
330
1E
100
AcDbEntity
  8
0
  6
Continuous
 62
     7
100
AcDbLine
 10
22.0
 20
-18.0
 30
0.0
 11
22.0
 21
-28.0
 31
0.0
  0
LINE
  5
75
330
1E
100
AcDbEntity
  8
0
  6
Continuous
 62
     7
100
AcDbLine
 10
-9.5
 20
-17.0
 30
0.0
 11
-6.5
 21
-17.0
 31
0.0
  0
LINE
  5
76
330
1E
100
AcDbEntity
  8
0
  6
PHANTOM
 62
     2
100
AcDbLine
 10
-9.5
 20
-23.0
 30
0.0
 11
-6.5
 21
-23.0
 31
0.0
  0
LINE
  5
77
330
1E
100
AcDbEntity
  8
0
  6
PHANTOM
 62
     2
100
AcDbLine
 10
24.5
 20
-18.5
 30
0.0
 11
24.5
 21
-27.5
 31
0.0
  0
LINE
  5
78
330
1E
100
AcDbEntity
  8
0
  6
Continuous
 62
     7
100
AcDbLine
 10
-9.5
 20
-17.0
 30
0.0
 11
-9.5
 21
-29.0
 31
0.0
  0
LINE
  5
79
330
1E
100
AcDbEntity
  8
0
  6
Continuous
 62
     7
100
AcDbLine
 10
-9.5
 20
-29.0
 30
0.0
 11
-6.5
 21
-29.0
 31
0.0
  0
LINE
  5
7A
330
1E
100
AcDbEntity
  8
0
  6
Continuous
 62
     2
100
AcDbLine
 10
-25.5
 20
-27.5
 30
0.0
 11
-9.5
 21
-27.5
 31
0.0
  0
LINE
  5
7B
330
1E
100
AcDbEntity
  8
0
  6
Continuous
 62
     7
100
AcDbLine
 10
-25.0
 20
-18.0
 30
0.0
 11
-25.0
 21
-28.0
 31
0.0
  0
LINE
  5
7C
330
1E
100
AcDbEntity
  8
0
  6
Continuous
 62
     7
100
AcDbLine
 10
-25.5
 20
-18.5
 30
0.0
 11
-25.5
 21
-27.5
 31
0.0
  0
LINE
  5
7D
330
1E
100
AcDbEntity
  8
0
  6
Continuous
 62
     2
100
AcDbLine
 10
-25.5
 20
-18.5
 30
0.0
 11
-9.5
 21
-18.5
 31
0.0
  0
LINE
  5
7E
330
1E
100
AcDbEntity
  8
0
  6
Continuous
 62
     7
100
AcDbLine
 10
-25.0
 20
-18.0
 30
0.0
 11
-9.5
 21
-18.0
 31
0.0
  0
LINE
  5
7F
330
1E
100
AcDbEntity
  8
0
  6
Continuous
 62
     7
100
AcDbLine
 10
16.5
 20
-12.0
 30
0.0
 11
-6.5
 21
-12.0
 31
0.0
  0
LINE
  5
80
330
1E
100
AcDbEntity
  8
0
  6
Continuous
 62
     7
100
AcDbLine
 10
22.5
 20
-18.5
 30
0.0
 11
22.5
 21
-27.5
 31
0.0
  0
LINE
  5
81
330
1E
100
AcDbEntity
  8
0
  6
Continuous
 62
     7
100
AcDbLine
 10
16.5
 20
-59.0
 30
0.0
 11
16.5
 21
13.0
 31
0.0
  0
LINE
  5
82
330
1E
100
AcDbEntity
  8
0
  6
Continuous
 62
     2
100
AcDbLine
 10
7.5
 20
-55.5
 30
0.0
 11
7.5
 21
-62.5
 31
0.0
  0
LINE
  5
83
330
1E
100
AcDbEntity
  8
0
  6
Continuous
 62
     7
100
AcDbLine
 10
16.5
 20
-34.0
 30
0.0
 11
-6.5
 21
-34.0
 31
0.0
  0
LINE
  5
84
330
1E
100
AcDbEntity
  8
0
  6
Continuous
 62
     7
100
AcDbLine
 10
16.5
 20
13.0
 30
0.0
 11
-6.5
 21
13.0
 31
0.0
  0
LINE
  5
85
330
1E
100
AcDbEntity
  8
0
  6
Continuous
 62
     7
100
AcDbLine
 10
16.5
 20
-59.0
 30
0.0
 11
-6.5
 21
-59.0
 31
0.0
  0
LINE
  5
86
330
1E
100
AcDbEntity
  8
0
  6
Continuous
 62
     2
100
AcDbLine
 10
0.0
 20
-37.96002197265625
 30
0.0
 11
0.0
 21
-54.03997802734375
 31
0.0
  0
LINE
  5
87
330
1E
100
AcDbEntity
  8
0
  6
Continuous
 62
     2
100
AcDbLine
 10
-8.039993286132812
 20
-46.0
 30
0.0
 11
8.039993286132812
 21
-46.0
 31
0.0
  0
LINE
  5
88
330
1E
100
AcDbEntity
  8
0
  6
Continuous
 62
     2
100
AcDbLine
 10
0.0
 20
-8.03997802734375
 30
0.0
 11
0.0
 21
8.040008544921875
 31
0.0
  0
LINE
  5
89
330
1E
100
AcDbEntity
  8
0
  6
Continuous
 62
     2
100
AcDbLine
 10
-8.039993286132812
 20
0.0
 30
0.0
 11
8.039993286132812
 21
0.0
 31
0.0
  0
LINE
  5
8A
330
1E
100
AcDbEntity
  8
0
  6
Continuous
 62
     7
100
AcDbLine
 10
-6.5
 20
-59.0
 30
0.0
 11
-6.5
 21
13.0
 31
0.0
  0
LINE
  5
8B
330
1E
100
AcDbEntity
  8
0
  6
Continuous
 62
     7
100
AcDbLine
 10
24.14999389648437
 20
-2.20001220703125
 30
0.0
 11
24.5
 21
-2.20001220703125
 31
0.0
  0
LINE
  5
8C
330
1E
100
AcDbEntity
  8
0
  6
Continuous
 62
     7
100
AcDbLine
 10
22.30000305175781
 20
-3.01849365234375
 30
0.0
 11
22.30000305175781
 21
-8.98150634765625
 31
0.0
  0
LINE
  5
8D
330
1E
100
AcDbEntity
  8
0
  6
Continuous
 62
     7
100
AcDbLine
 10
24.14999389648437
 20
-9.79998779296875
 30
0.0
 11
24.5
 21
-9.79998779296875
 31
0.0
  0
LINE
  5
8E
330
1E
100
AcDbEntity
  8
0
  6
Continuous
 62
     7
100
AcDbLine
 10
24.14999389648437
 20
-43.79998779296875
 30
0.0
 11
24.5
 21
-43.79998779296875
 31
0.0
  0
LINE
  5
8F
330
1E
100
AcDbEntity
  8
0
  6
Continuous
 62
     7
100
AcDbLine
 10
22.30000305175781
 20
-42.98150634765625
 30
0.0
 11
22.30000305175781
 21
-37.01849365234375
 31
0.0
  0
LINE
  5
90
330
1E
100
AcDbEntity
  8
0
  6
Continuous
 62
     7
100
AcDbLine
 10
24.14999389648437
 20
-36.20001220703125
 30
0.0
 11
24.5
 21
-36.20001220703125
 31
0.0
  0
LINE
  5
91
330
1E
100
AcDbEntity
  8
0
  6
Continuous
 62
     7
100
AcDbLine
 10
88.85000610351562
 20
-2.20001220703125
 30
0.0
 11
88.49999999999999
 21
-2.20001220703125
 31
0.0
  0
LINE
  5
92
330
1E
100
AcDbEntity
  8
0
  6
Continuous
 62
     7
100
AcDbLine
 10
90.69999694824218
 20
-3.01849365234375
 30
0.0
 11
90.69999694824218
 21
-8.98150634765625
 31
0.0
  0
LINE
  5
93
330
1E
100
AcDbEntity
  8
0
  6
Continuous
 62
     7
100
AcDbLine
 10
88.85000610351562
 20
-9.79998779296875
 30
0.0
 11
88.49999999999999
 21
-9.79998779296875
 31
0.0
  0
LINE
  5
94
330
1E
100
AcDbEntity
  8
0
  6
Continuous
 62
     7
100
AcDbLine
 10
88.85000610351562
 20
-43.79998779296875
 30
0.0
 11
88.49999999999999
 21
-43.79998779296875
 31
0.0
  0
LINE
  5
95
330
1E
100
AcDbEntity
  8
0
  6
Continuous
 62
     7
100
AcDbLine
 10
90.69999694824218
 20
-42.98150634765625
 30
0.0
 11
90.69999694824218
 21
-37.01849365234375
 31
0.0
  0
LINE
  5
96
330
1E
100
AcDbEntity
  8
0
  6
Continuous
 62
     7
100
AcDbLine
 10
88.85000610351562
 20
-36.20001220703125
 30
0.0
 11
88.49999999999999
 21
-36.20001220703125
 31
0.0
  0
LINE
  5
97
330
1E
100
AcDbEntity
  8
0
  6
Continuous
 62
     7
100
AcDbLine
 10
26.10000610351562
 20
-40.69059753417969
 30
0.0
 11
86.89999389648438
 21
-40.69059753417969
 31
0.0
  0
LINE
  5
98
330
1E
100
AcDbEntity
  8
0
  6
Continuous
 62
     7
100
AcDbLine
 10
26.10000610351562
 20
-5.309402465820312
 30
0.0
 11
86.89999389648438
 21
-5.309402465820312
 31
0.0
  0
CIRCLE
  5
99
330
1E
100
AcDbEntity
  8
0
  6
Continuous
 62
     2
100
AcDbCircle
 10
34.5
 20
5.0
 30
0.0
 40
3.0
  0
CIRCLE
  5
9A
330
1E
100
AcDbEntity
  8
0
  6
Continuous
 62
     7
100
AcDbCircle
 10
78.5
 20
5.0
 30
0.0
 40
2.5
  0
CIRCLE
  5
9B
330
1E
100
AcDbEntity
  8
0
  6
Continuous
 62
     2
100
AcDbCircle
 10
78.5
 20
5.0
 30
0.0
 40
3.0
  0
CIRCLE
  5
9C
330
1E
100
AcDbEntity
  8
0
  6
Continuous
 62
     7
100
AcDbCircle
 10
34.5
 20
-51.0
 30
0.0
 40
2.5
  0
CIRCLE
  5
9D
330
1E
100
AcDbEntity
  8
0
  6
Continuous
 62
     2
100
AcDbCircle
 10
78.5
 20
-51.0
 30
0.0
 40
3.0
  0
CIRCLE
  5
9E
330
1E
100
AcDbEntity
  8
0
  6
Continuous
 62
     7
100
AcDbCircle
 10
78.5
 20
-51.0
 30
0.0
 40
2.5
  0
CIRCLE
  5
9F
330
1E
100
AcDbEntity
  8
0
  6
Continuous
 62
     2
100
AcDbCircle
 10
34.5
 20
-51.0
 30
0.0
 40
3.0
  0
CIRCLE
  5
A0
330
1E
100
AcDbEntity
  8
0
  6
Continuous
 62
     7
100
AcDbCircle
 10
34.5
 20
5.0
 30
0.0
 40
2.5
  0
ARC
  5
A1
330
1E
100
AcDbEntity
  8
0
  6
Continuous
 62
     7
100
AcDbCircle
 10
88.85000610351562
 20
9.29998779296875
 30
0.0
 40
2.5
100
AcDbArc
 50
42.26858469748889
 51
90.00000250447817
  0
ARC
  5
A2
330
1E
100
AcDbEntity
  8
0
  6
Continuous
 62
     7
100
AcDbCircle
 10
24.14999389648437
 20
-52.69999694824218
 30
0.0
 40
2.5
100
AcDbArc
 50
90.00000250447817
 51
137.7314203114674
  0
ARC
  5
A3
330
1E
100
AcDbEntity
  8
0
  6
Continuous
 62
     7
100
AcDbCircle
 10
24.14999389648437
 20
-55.30000305175781
 30
0.0
 40
2.5
100
AcDbArc
 50
222.2685796885325
 51
269.9999974955218
  0
ARC
  5
A4
330
1E
100
AcDbEntity
  8
0
  6
Continuous
 62
     7
100
AcDbCircle
 10
24.14999389648437
 20
9.29998779296875
 30
0.0
 40
2.5
100
AcDbArc
 50
90.00000250447817
 51
137.7314203114674
  0
ARC
  5
A5
330
1E
100
AcDbEntity
  8
0
  6
Continuous
 62
     7
100
AcDbCircle
 10
24.14999389648437
 20
6.70001220703125
 30
0.0
 40
2.5
100
AcDbArc
 50
222.2685796885325
 51
269.9999974955218
  0
ARC
  5
A6
330
1E
100
AcDbEntity
  8
0
  6
Continuous
 62
     7
100
AcDbCircle
 10
88.85000610351562
 20
-55.30000305175781
 30
0.0
 40
2.5
100
AcDbArc
 50
269.9999974955218
 51
317.7314153025112
  0
ARC
  5
A7
330
1E
100
AcDbEntity
  8
0
  6
Continuous
 62
     7
100
AcDbCircle
 10
88.85000610351562
 20
6.70001220703125
 30
0.0
 40
2.5
100
AcDbArc
 50
269.9999974955218
 51
317.7314153025112
  0
ARC
  5
A8
330
1E
100
AcDbEntity
  8
0
  6
Continuous
 62
     7
100
AcDbCircle
 10
88.85000610351562
 20
-52.69999694824218
 30
0.0
 40
2.5
100
AcDbArc
 50
42.26858469748889
 51
90.00000250447817
  0
CIRCLE
  5
A9
330
1E
100
AcDbEntity
  8
0
  6
Continuous
 62
     7
100
AcDbCircle
 10
213.0
 20
0.0
 30
0.0
 40
5.5
  0
CIRCLE
  5
AA
330
1E
100
AcDbEntity
  8
0
  6
Continuous
 62
     7
100
AcDbCircle
 10
213.0
 20
-46.0
 30
0.0
 40
5.5
  0
CIRCLE
  5
AB
330
1E
100
AcDbEntity
  8
0
  6
Continuous
 62
     7
100
AcDbCircle
 10
213.0
 20
0.0
 30
0.0
 40
3.5
  0
CIRCLE
  5
AC
330
1E
100
AcDbEntity
  8
0
  6
Continuous
 62
     7
100
AcDbCircle
 10
213.0
 20
-46.0
 30
0.0
 40
3.5
  0
CIRCLE
  5
AD
330
1E
100
AcDbEntity
  8
0
  6
Continuous
 62
     7
100
AcDbCircle
 10
0.0
 20
-46.0
 30
0.0
 40
3.5
  0
CIRCLE
  5
AE
330
1E
100
AcDbEntity
  8
0
  6
Continuous
 62
     7
100
AcDbCircle
 10
0.0
 20
0.0
 30
0.0
 40
3.5
  0
CIRCLE
  5
AF
330
1E
100
AcDbEntity
  8
0
  6
Continuous
 62
     7
100
AcDbCircle
 10
0.0
 20
-46.0
 30
0.0
 40
5.5
  0
CIRCLE
  5
B0
330
1E
100
AcDbEntity
  8
0
  6
Continuous
 62
     7
100
AcDbCircle
 10
0.0
 20
0.0
 30
0.0
 40
5.5
  0
ARC
  5
B1
330
1E
100
AcDbEntity
  8
0
  6
Continuous
 62
     7
100
AcDbCircle
 10
24.14999389648437
 20
-4.70001220703125
 30
0.0
 40
2.5
100
AcDbArc
 50
90.00000250447817
 51
137.7314203114674
  0
ARC
  5
B2
330
1E
100
AcDbEntity
  8
0
  6
Continuous
 62
     7
100
AcDbCircle
 10
24.14999389648437
 20
-7.29998779296875
 30
0.0
 40
2.5
100
AcDbArc
 50
222.2685796885325
 51
269.9999974955218
  0
ARC
  5
B3
330
1E
100
AcDbEntity
  8
0
  6
Continuous
 62
     7
100
AcDbCircle
 10
24.14999389648437
 20
-41.29998779296875
 30
0.0
 40
2.5
100
AcDbArc
 50
222.2685796885325
 51
269.9999974955218
  0
ARC
  5
B4
330
1E
100
AcDbEntity
  8
0
  6
Continuous
 62
     7
100
AcDbCircle
 10
24.14999389648437
 20
-38.70001220703125
 30
0.0
 40
2.5
100
AcDbArc
 50
90.00000250447817
 51
137.7314203114674
  0
ARC
  5
B5
330
1E
100
AcDbEntity
  8
0
  6
Continuous
 62
     7
100
AcDbCircle
 10
88.85000610351562
 20
-4.70001220703125
 30
0.0
 40
2.5
100
AcDbArc
 50
42.2685812823943
 51
89.99999567428899
  0
ARC
  5
B6
330
1E
100
AcDbEntity
  8
0
  6
Continuous
 62
     7
100
AcDbCircle
 10
88.85000610351562
 20
-7.29998779296875
 30
0.0
 40
2.5
100
AcDbArc
 50
270.000004325711
 51
317.7314187176057
  0
ARC
  5
B7
330
1E
100
AcDbEntity
  8
0
  6
Continuous
 62
     7
100
AcDbCircle
 10
88.85000610351562
 20
-41.29998779296875
 30
0.0
 40
2.5
100
AcDbArc
 50
270.000004325711
 51
317.7314187176057
  0
ARC
  5
B8
330
1E
100
AcDbEntity
  8
0
  6
Continuous
 62
     7
100
AcDbCircle
 10
88.85000610351562
 20
-38.70001220703125
 30
0.0
 40
2.5
100
AcDbArc
 50
42.2685812823943
 51
89.99999567428899
  0
LINE
  5
B9
330
1E
100
AcDbEntity
  8
0
  6
Continuous
 62
     2
100
AcDbLine
 10
-27.5
 20
-23.0
 30
0.0
 11
241.5
 21
-23.0
 31
0.0
  0
LINE
  5
BA
330
1E
100
AcDbEntity
  8
0
  6
PHANTOM
 62
     3
100
AcDbLine
 10
123.5
 20
36.31596491228072
 30
0.0
 11
123.5
 21
-76.33649122807018
 31
0.0
  0
ENDBLK
  5
BB
330
1E
100
AcDbEntity
  8
0
100
AcDbBlockEnd
  0
BLOCK
  5
BC
330
1F
100
AcDbEntity
  8
0
100
AcDbBlockBegin
  2
MRVZ28-K2-2
 70
     0
 10
0.0
 20
0.0
 30
0.0
  3
MRVZ28-K2-2
  1

  0
LINE
  5
BD
330
1F
100
AcDbEntity
  8
0
  6
Continuous
 62
     7
100
AcDbLine
 10
44.0
 20
-12.1715728752538
 30
0.0
 11
44.0
 21
11.0
 31
0.0
  0
LINE
  5
BE
330
1F
100
AcDbEntity
  8
0
  6
Continuous
 62
     7
100
AcDbLine
 10
11.0
 20
-58.0
 30
0.0
 11
11.0
 21
-59.0
 31
0.0
  0
LINE
  5
BF
330
1F
100
AcDbEntity
  8
0
  6
Continuous
 62
     7
100
AcDbLine
 10
38.77831367932049
 20
-4.750029038262027
 30
0.0
 11
38.05663399182049
 21
-6.000014901367421
 31
0.0
  0
LINE
  5
C0
330
1F
100
AcDbEntity
  8
0
  6
Continuous
 62
     7
100
AcDbLine
 10
47.0
 20
12.0
 30
0.0
 11
35.0
 21
12.0
 31
0.0
  0
LINE
  5
C1
330
1F
100
AcDbEntity
  8
0
  6
Continuous
 62
     7
100
AcDbLine
 10
43.0
 20
-34.0
 30
0.0
 11
38.0
 21
-34.0
 31
0.0
  0
LINE
  5
C2
330
1F
100
AcDbEntity
  8
0
  6
Continuous
 62
     7
100
AcDbLine
 10
11.0
 20
-58.0
 30
0.0
 11
4.0
 21
-58.0
 31
0.0
  0
LINE
  5
C3
330
1F
100
AcDbEntity
  8
0
  6
Continuous
 62
     7
100
AcDbLine
 10
4.0
 20
-58.0
 30
0.0
 11
4.0
 21
-59.0
 31
0.0
  0
LINE
  5
C4
330
1F
100
AcDbEntity
  8
0
  6
Continuous
 62
     7
100
AcDbLine
 10
11.0
 20
12.0
 30
0.0
 11
11.0
 21
13.0
 31
0.0
  0
LINE
  5
C5
330
1F
100
AcDbEntity
  8
0
  6
Continuous
 62
     7
100
AcDbLine
 10
4.0
 20
13.0
 30
0.0
 11
0.0
 21
13.0
 31
0.0
  0
LINE
  5
C6
330
1F
100
AcDbEntity
  8
0
  6
Continuous
 62
     7
100
AcDbLine
 10
11.0
 20
12.0
 30
0.0
 11
4.0
 21
12.0
 31
0.0
  0
LINE
  5
C7
330
1F
100
AcDbEntity
  8
0
  6
Continuous
 62
     7
100
AcDbLine
 10
40.22167968749999
 20
-38.75
 30
0.0
 11
38.7783203125
 21
-38.75
 31
0.0
  0
LINE
  5
C8
330
1F
100
AcDbEntity
  8
0
  6
Continuous
 62
     7
100
AcDbLine
 10
18.05664557415456
 20
-37.20003466202434
 30
0.0
 11
16.61325568157645
 21
-34.70001007781866
 31
0.0
  0
LINE
  5
C9
330
1F
100
AcDbEntity
  8
0
  6
Continuous
 62
     7
100
AcDbLine
 10
20.943359375
 20
-32.20001220703125
 30
0.0
 11
18.056640625
 21
-32.20001220703125
 31
0.0
  0
LINE
  5
CA
330
1F
100
AcDbEntity
  8
0
  6
Continuous
 62
     7
100
AcDbLine
 10
20.94338262278052
 20
-32.20001007781866
 30
0.0
 11
22.38677251535865
 21
-34.70003466202434
 31
0.0
  0
LINE
  5
CB
330
1F
100
AcDbEntity
  8
0
  6
Continuous
 62
     7
100
AcDbLine
 10
20.943359375
 20
-37.20001220703125
 30
0.0
 11
18.056640625
 21
-37.20001220703125
 31
0.0
  0
LINE
  5
CC
330
1F
100
AcDbEntity
  8
0
  6
Continuous
 62
     7
100
AcDbLine
 10
20.94337005570741
 20
-37.20001690901376
 30
0.0
 11
22.38674516633365
 21
-34.70001792789935
 31
0.0
  0
LINE
  5
CD
330
1F
100
AcDbEntity
  8
0
  6
Continuous
 62
     7
100
AcDbLine
 10
18.05664465412701
 20
-32.20003318668841
 30
0.0
 11
16.61326954350079
 21
-34.70003216780282
 31
0.0
  0
LINE
  5
CE
330
1F
100
AcDbEntity
  8
0
  6
Continuous
 62
     7
100
AcDbLine
 10
4.0
 20
-59.0
 30
0.0
 11
0.0
 21
-59.0
 31
0.0
  0
LINE
  5
CF
330
1F
100
AcDbEntity
  8
0
  6
Continuous
 62
     7
100
AcDbLine
 10
4.0
 20
12.0
 30
0.0
 11
4.0
 21
13.0
 31
0.0
  0
LINE
  5
D0
330
1F
100
AcDbEntity
  8
0
  6
Continuous
 62
     2
100
AcDbLine
 10
19.5
 20
15.0
 30
0.0
 11
19.5
 21
-63.0
 31
0.0
  0
LINE
  5
D1
330
1F
100
AcDbEntity
  8
0
  6
Continuous
 62
     7
100
AcDbLine
 10
26.13400268554688
 20
-24.5
 30
0.0
 11
27.86605834960937
 21
-24.5
 31
0.0
  0
LINE
  5
D2
330
1F
100
AcDbEntity
  8
0
  6
Continuous
 62
     7
100
AcDbLine
 10
26.13400268554688
 20
-21.5
 30
0.0
 11
27.86605834960937
 21
-21.5
 31
0.0
  0
LINE
  5
D3
330
1F
100
AcDbEntity
  8
0
  6
Continuous
 62
     7
100
AcDbLine
 10
12.86602273874541
 20
-21.50001780360617
 30
0.0
 11
13.73205057077666
 21
-23.00002198253061
 31
0.0
  0
LINE
  5
D4
330
1F
100
AcDbEntity
  8
0
  6
Continuous
 62
     7
100
AcDbLine
 10
27.86602765168118
 20
-21.50001473396697
 30
0.0
 11
28.73205548371243
 21
-23.00001891289139
 31
0.0
  0
LINE
  5
D5
330
1F
100
AcDbEntity
  8
0
  6
Continuous
 62
     7
100
AcDbLine
 10
11.13396202602052
 20
-21.49998089626115
 30
0.0
 11
10.26793419398927
 21
-22.99998507518557
 31
0.0
  0
LINE
  5
D6
330
1F
100
AcDbEntity
  8
0
  6
Continuous
 62
     7
100
AcDbLine
 10
0.0
 20
13.0
 30
0.0
 11
0.0
 21
-8.000000743295453
 31
0.0
  0
LINE
  5
D7
330
1F
100
AcDbEntity
  8
0
  6
Continuous
 62
     7
100
AcDbLine
 10
11.13397440605422
 20
-24.50002198253061
 30
0.0
 11
10.26794657402297
 21
-23.00001780360617
 31
0.0
  0
LINE
  5
D8
330
1F
100
AcDbEntity
  8
0
  6
Continuous
 62
     2
100
AcDbLine
 10
27.35000610351562
 20
-34.70001220703125
 30
0.0
 11
11.64999389648437
 21
-34.70001220703125
 31
0.0
  0
LINE
  5
D9
330
1F
100
AcDbEntity
  8
0
  6
Continuous
 62
     7
100
AcDbLine
 10
48.0
 20
11.0
 30
0.0
 11
48.0
 21
-2.42266845703125
 31
0.0
  0
LINE
  5
DA
330
1F
100
AcDbEntity
  8
0
  6
Continuous
 62
     7
100
AcDbLine
 10
12.86599731445312
 20
-24.5
 30
0.0
 11
11.13394165039062
 21
-24.5
 31
0.0
  0
LINE
  5
DB
330
1F
100
AcDbEntity
  8
0
  6
Continuous
 62
     7
100
AcDbLine
 10
12.86599731445312
 20
-21.5
 30
0.0
 11
11.13394165039062
 21
-21.5
 31
0.0
  0
LINE
  5
DC
330
1F
100
AcDbEntity
  8
0
  6
Continuous
 62
     7
100
AcDbLine
 10
27.86602548818156
 20
-24.50003148442363
 30
0.0
 11
28.7320533202128
 21
-23.0000273054992
 31
0.0
  0
LINE
  5
DD
330
1F
100
AcDbEntity
  8
0
  6
Continuous
 62
     7
100
AcDbLine
 10
26.13397715549036
 20
-21.5000273054992
 30
0.0
 11
25.26794932345911
 21
-23.00003148442363
 31
0.0
  0
LINE
  5
DE
330
1F
100
AcDbEntity
  8
0
  6
Continuous
 62
     7
100
AcDbLine
 10
26.13397931898998
 20
-24.50001891289139
 30
0.0
 11
25.26795148695873
 21
-23.00001473396697
 31
0.0
  0
LINE
  5
DF
330
1F
100
AcDbEntity
  8
0
  6
Continuous
 62
     7
100
AcDbLine
 10
47.0
 20
-58.0
 30
0.0
 11
35.0
 21
-58.0
 31
0.0
  0
LINE
  5
E0
330
1F
100
AcDbEntity
  8
0
  6
Continuous
 62
     7
100
AcDbLine
 10
12.86601035871172
 20
-24.49998507518558
 30
0.0
 11
13.73203819074297
 21
-22.99998089626115
 31
0.0
  0
LINE
  5
E1
330
1F
100
AcDbEntity
  8
0
  6
Continuous
 62
     7
100
AcDbLine
 10
43.0
 20
-12.0
 30
0.0
 11
38.0
 21
-12.0
 31
0.0
  0
LINE
  5
E2
330
1F
100
AcDbEntity
  8
0
  6
Continuous
 62
     7
100
AcDbLine
 10
35.03588916098215
 20
-28.99999995927465
 30
0.0
 11
31.57179309164621
 21
-23.00000967257438
 31
0.0
  0
LINE
  5
E3
330
1F
100
AcDbEntity
  8
0
  6
Continuous
 62
     7
100
AcDbLine
 10
34.0
 20
13.0
 30
0.0
 11
11.0
 21
13.0
 31
0.0
  0
LINE
  5
E4
330
1F
100
AcDbEntity
  8
0
  6
Continuous
 62
     7
100
AcDbLine
 10
41.96409463336204
 20
-29.00003819762856
 30
0.0
 11
45.42820596148703
 21
-23.00002148193085
 31
0.0
  0
LINE
  5
E5
330
1F
100
AcDbEntity
  8
0
  6
Continuous
 62
     7
100
AcDbLine
 10
41.96409775053598
 20
-17.00000967257438
 30
0.0
 11
45.42819381987192
 21
-22.99999995927465
 31
0.0
  0
LINE
  5
E6
330
1F
100
AcDbEntity
  8
0
  6
Continuous
 62
     7
100
AcDbLine
 10
35.0
 20
12.0
 30
0.0
 11
35.0
 21
-9.0
 31
0.0
  0
LINE
  5
E7
330
1F
100
AcDbEntity
  8
0
  6
Continuous
 62
     7
100
AcDbLine
 10
34.0
 20
-59.0
 30
0.0
 11
11.0
 21
-59.0
 31
0.0
  0
LINE
  5
E8
330
1F
100
AcDbEntity
  8
0
  6
Continuous
 62
     7
100
AcDbLine
 10
35.0
 20
-58.0
 30
0.0
 11
35.0
 21
-37.0
 31
0.0
  0
LINE
  5
E9
330
1F
100
AcDbEntity
  8
0
  6
Continuous
 62
     7
100
AcDbLine
 10
35.03590130259727
 20
-17.00002148193084
 30
0.0
 11
31.57178997447227
 21
-23.00003819762856
 31
0.0
  0
LINE
  5
EA
330
1F
100
AcDbEntity
  8
0
  6
Continuous
 62
     2
100
AcDbLine
 10
38.5
 20
-14.0
 30
0.0
 11
38.5
 21
-32.0
 31
0.0
  0
LINE
  5
EB
330
1F
100
AcDbEntity
  8
0
  6
Continuous
 62
     7
100
AcDbLine
 10
41.964111328125
 20
-17.0
 30
0.0
 11
35.035888671875
 21
-17.0
 31
0.0
  0
LINE
  5
EC
330
1F
100
AcDbEntity
  8
0
  6
Continuous
 62
     7
100
AcDbLine
 10
41.964111328125
 20
-29.0
 30
0.0
 11
35.035888671875
 21
-29.0
 31
0.0
  0
LINE
  5
ED
330
1F
100
AcDbEntity
  8
0
  6
Continuous
 62
     7
100
AcDbLine
 10
47.50000443204408
 20
-42.71130435734903
 30
0.0
 11
44.49999607419522
 21
-40.97924869328653
 31
0.0
  0
LINE
  5
EE
330
1F
100
AcDbEntity
  8
0
  6
Continuous
 62
     7
100
AcDbLine
 10
47.49999038308033
 20
-3.288713780231773
 30
0.0
 11
44.50000845422892
 21
-5.020754185505211
 31
0.0
  0
LINE
  5
EF
330
1F
100
AcDbEntity
  8
0
  6
Continuous
 62
     7
100
AcDbLine
 10
48.0
 20
-43.57733154296875
 30
0.0
 11
48.0
 21
-57.0
 31
0.0
  0
LINE
  5
F0
330
1F
100
AcDbEntity
  8
0
  6
Continuous
 62
     7
100
AcDbLine
 10
44.0
 20
-33.82842712474619
 30
0.0
 11
44.0
 21
-57.0
 31
0.0
  0
LINE
  5
F1
330
1F
100
AcDbEntity
  8
0
  6
Continuous
 62
     7
100
AcDbLine
 10
38.7783198185989
 20
-38.75001748936029
 30
0.0
 11
38.0566401310989
 21
-40.00000335246568
 31
0.0
  0
LINE
  5
F2
330
1F
100
AcDbEntity
  8
0
  6
Continuous
 62
     7
100
AcDbLine
 10
40.2216853208074
 20
-38.75000653983807
 30
0.0
 11
40.94338026709646
 21
-40.0000188319409
 31
0.0
  0
LINE
  5
F3
330
1F
100
AcDbEntity
  8
0
  6
Continuous
 62
     7
100
AcDbLine
 10
40.22167968749999
 20
-7.25
 30
0.0
 11
38.7783203125
 21
-7.25
 31
0.0
  0
LINE
  5
F4
330
1F
100
AcDbEntity
  8
0
  6
Continuous
 62
     7
100
AcDbLine
 10
46.0
 20
-15.0
 30
0.0
 11
46.0
 21
-31.0
 31
0.0
  0
LINE
  5
F5
330
1F
100
AcDbEntity
  8
0
  6
Continuous
 62
     7
100
AcDbLine
 10
38.77830576963514
 20
-7.250000648220521
 30
0.0
 11
38.05662608213515
 21
-6.000014785115126
 31
0.0
  0
LINE
  5
F6
330
1F
100
AcDbEntity
  8
0
  6
Continuous
 62
     7
100
AcDbLine
 10
40.22169746242253
 20
-7.25001490136742
 30
0.0
 11
40.94337714992253
 21
-6.000029038262027
 31
0.0
  0
LINE
  5
F7
330
1F
100
AcDbEntity
  8
0
  6
Continuous
 62
     7
100
AcDbLine
 10
40.22167968749999
 20
-41.25
 30
0.0
 11
38.7783203125
 21
-41.25
 31
0.0
  0
LINE
  5
F8
330
1F
100
AcDbEntity
  8
0
  6
Continuous
 62
     7
100
AcDbLine
 10
40.22168955273719
 20
-4.750014785115126
 30
0.0
 11
40.94336924023719
 21
-6.00000064822052
 31
0.0
  0
LINE
  5
F9
330
1F
100
AcDbEntity
  8
0
  6
Continuous
 62
     7
100
AcDbLine
 10
38.77831679649444
 20
-41.2500188319409
 30
0.0
 11
38.05662185020537
 21
-40.00000653983806
 31
0.0
  0
LINE
  5
FA
330
1F
100
AcDbEntity
  8
0
  6
Continuous
 62
     7
100
AcDbLine
 10
40.22167968749999
 20
-4.75
 30
0.0
 11
38.7783203125
 21
-4.75
 31
0.0
  0
LINE
  5
FB
330
1F
100
AcDbEntity
  8
0
  6
Continuous
 62
     7
100
AcDbLine
 10
40.22170360170093
 20
-41.25000335246568
 30
0.0
 11
40.94338328920094
 21
-40.00001748936028
 31
0.0
  0
LINE
  5
FC
330
1F
100
AcDbEntity
  8
0
  6
Continuous
 62
     7
100
AcDbLine
 10
-0.0000000000000017
 20
-8.000000743295457
 30
0.0
 11
0.2999877929687501
 21
-8.299988536264208
 31
0.0
  0
LINE
  5
FD
330
1F
100
AcDbEntity
  8
0
  6
Continuous
 62
     7
100
AcDbLine
 10
0.29998779296875
 20
-8.299988536264208
 30
0.0
 11
0.29998779296875
 21
-37.70003643927703
 31
0.0
  0
LINE
  5
FE
330
1F
100
AcDbEntity
  8
0
  6
Continuous
 62
     7
100
AcDbLine
 10
0.0
 20
-38.00002423224577
 30
0.0
 11
0.2999877929687499
 21
-37.70003643927703
 31
0.0
  0
LINE
  5
FF
330
1F
100
AcDbEntity
  8
0
  6
Continuous
 62
     7
100
AcDbLine
 10
0.0
 20
-38.00002423224577
 30
0.0
 11
0.0
 21
-59.0
 31
0.0
  0
CIRCLE
  5
100
330
1F
100
AcDbEntity
  8
0
  6
Continuous
 62
     7
100
AcDbCircle
 10
38.5
 20
-23.0
 30
0.0
 40
4.5
  0
ARC
  5
101
330
1F
100
AcDbEntity
  8
0
  6
Continuous
 62
     7
100
AcDbCircle
 10
34.0
 20
12.0
 30
0.0
 40
1.0
100
AcDbArc
 50
0.000002504478269
 51
90.00000250447817
  0
ARC
  5
102
330
1F
100
AcDbEntity
  8
0
  6
Continuous
 62
     7
100
AcDbCircle
 10
47.0
 20
-57.0
 30
0.0
 40
1.0
100
AcDbArc
 50
269.9999974955218
 51
0.000002504478269
  0
ARC
  5
103
330
1F
100
AcDbEntity
  8
0
  6
Continuous
 62
     7
100
AcDbCircle
 10
47.0
 20
11.0
 30
0.0
 40
1.0
100
AcDbArc
 50
0.000002504478269
 51
90.00000250447817
  0
CIRCLE
  5
104
330
1F
100
AcDbEntity
  8
0
  6
Continuous
 62
     7
100
AcDbCircle
 10
11.99996948242187
 20
-23.0
 30
0.0
 40
4.0
  0
CIRCLE
  5
105
330
1F
100
AcDbEntity
  8
0
  6
Continuous
 62
     7
100
AcDbCircle
 10
27.00003051757813
 20
-23.0
 30
0.0
 40
4.0
  0
CIRCLE
  5
106
330
1F
100
AcDbEntity
  8
0
  6
Continuous
 62
     7
100
AcDbCircle
 10
38.5
 20
-23.0
 30
0.0
 40
6.0
  0
CIRCLE
  5
107
330
1F
100
AcDbEntity
  8
0
  6
Continuous
 62
     7
100
AcDbCircle
 10
19.5
 20
-34.70001220703125
 30
0.0
 40
4.150000095367431
  0
CIRCLE
  5
108
330
1F
100
AcDbEntity
  8
0
  6
Continuous
 62
     2
100
AcDbCircle
 10
19.5
 20
-34.70001220703125
 30
0.0
 40
4.849999904632568
  0
CIRCLE
  5
109
330
1F
100
AcDbEntity
  8
0
  6
Continuous
 62
     2
100
AcDbCircle
 10
38.5
 20
-23.0
 30
0.0
 40
5.0
  0
CIRCLE
  5
10A
330
1F
100
AcDbEntity
  8
0
  6
Continuous
 62
     7
100
AcDbCircle
 10
39.5
 20
-40.0
 30
0.0
 40
3.799999952316284
  0
ARC
  5
10B
330
1F
100
AcDbEntity
  8
0
  6
Continuous
 62
     7
100
AcDbCircle
 10
47.0
 20
-43.57733154296875
 30
0.0
 40
1.0
100
AcDbArc
 50
0.000002504478269
 51
59.99999483946294
  0
ARC
  5
10C
330
1F
100
AcDbEntity
  8
0
  6
Continuous
 62
     7
100
AcDbCircle
 10
45.0
 20
-40.11322021484375
 30
0.0
 40
1.0
100
AcDbArc
 50
179.999991348578
 51
240.0000066786085
  0
ARC
  5
10D
330
1F
100
AcDbEntity
  8
0
  6
Continuous
 62
     7
100
AcDbCircle
 10
43.0
 20
-57.0
 30
0.0
 40
1.0
100
AcDbArc
 50
269.9999974955218
 51
0.000002504478269
  0
ARC
  5
10E
330
1F
100
AcDbEntity
  8
0
  6
Continuous
 62
     7
100
AcDbCircle
 10
45.0
 20
-5.88677978515625
 30
0.0
 40
1.0
100
AcDbArc
 50
120.0000033393042
 51
179.999991348578
  0
ARC
  5
10F
330
1F
100
AcDbEntity
  8
0
  6
Continuous
 62
     7
100
AcDbCircle
 10
47.0
 20
-2.42266845703125
 30
0.0
 40
1.0
100
AcDbArc
 50
299.9999983303478
 51
0.000002504478269
  0
ARC
  5
110
330
1F
100
AcDbEntity
  8
0
  6
Continuous
 62
     7
100
AcDbCircle
 10
43.0
 20
11.0
 30
0.0
 40
1.0
100
AcDbArc
 50
0.000002504478269
 51
90.00000250447817
  0
ARC
  5
111
330
1F
100
AcDbEntity
  8
0
  6
Continuous
 62
     7
100
AcDbCircle
 10
34.0
 20
-58.0
 30
0.0
 40
1.0
100
AcDbArc
 50
269.9999974955218
 51
0.000002504478269
  0
ARC
  5
112
330
1F
100
AcDbEntity
  8
0
  6
Continuous
 62
     7
100
AcDbCircle
 10
38.0
 20
-37.0
 30
0.0
 40
3.0
100
AcDbArc
 50
89.99998884409981
 51
180.0000050089563
  0
ARC
  5
113
330
1F
100
AcDbEntity
  8
0
  6
Continuous
 62
     7
100
AcDbCircle
 10
43.0
 20
-31.0
 30
0.0
 40
3.0
100
AcDbArc
 50
269.9999974955218
 51
0.000002504478269
  0
ARC
  5
114
330
1F
100
AcDbEntity
  8
0
  6
Continuous
 62
     7
100
AcDbCircle
 10
38.0
 20
-9.0
 30
0.0
 40
3.0
100
AcDbArc
 50
179.999991348578
 51
270.0000006832453
  0
ARC
  5
115
330
1F
100
AcDbEntity
  8
0
  6
Continuous
 62
     7
100
AcDbCircle
 10
43.0
 20
-15.0
 30
0.0
 40
3.0
100
AcDbArc
 50
0.000002504478269
 51
90.00000250447817
  0
CIRCLE
  5
116
330
1F
100
AcDbEntity
  8
0
  6
Continuous
 62
     7
100
AcDbCircle
 10
39.5
 20
-6.0
 30
0.0
 40
3.799999952316284
  0
LINE
  5
117
330
1F
100
AcDbEntity
  8
0
  6
Continuous
 62
     2
100
AcDbLine
 10
45.0
 20
5.0
 30
0.0
 11
51.0
 21
5.0
 31
0.0
  0
LINE
  5
118
330
1F
100
AcDbEntity
  8
0
  6
Continuous
 62
     2
100
AcDbLine
 10
45.0
 20
-51.0
 30
0.0
 11
51.0
 21
-51.0
 31
0.0
  0
LINE
  5
119
330
1F
100
AcDbEntity
  8
0
  6
Continuous
 62
     2
100
AcDbLine
 10
-3.0
 20
-46.0
 30
0.0
 11
3.0
 21
-46.0
 31
0.0
  0
LINE
  5
11A
330
1F
100
AcDbEntity
  8
0
  6
Continuous
 62
     2
100
AcDbLine
 10
-3.0
 20
0.0
 30
0.0
 11
3.0
 21
0.0
 31
0.0
  0
LINE
  5
11B
330
1F
100
AcDbEntity
  8
0
  6
Continuous
 62
     2
100
AcDbLine
 10
49.0
 20
-23.0
 30
0.0
 11
-6.367608444471613
 21
-23.0
 31
0.0
  0
ENDBLK
  5
11C
330
1F
100
AcDbEntity
  8
0
100
AcDbBlockEnd
  0
BLOCK
  5
11D
330
20
100
AcDbEntity
  8
0
100
AcDbBlockBegin
  2
MRVZ28-K2-3
 70
     0
 10
0.0
 20
0.0
 30
0.0
  3
MRVZ28-K2-3
  1

  0
LINE
  5
11E
330
20
100
AcDbEntity
  8
0
  6
Continuous
 62
     7
100
AcDbLine
 10
238.5
 20
42.99999999999999
 30
0.0
 11
238.0
 21
43.49999999999999
 31
0.0
  0
LINE
  5
11F
330
20
100
AcDbEntity
  8
0
  6
Continuous
 62
     7
100
AcDbLine
 10
238.5
 20
34.0
 30
0.0
 11
238.0
 21
33.5
 31
0.0
  0
LINE
  5
120
330
20
100
AcDbEntity
  8
0
  6
Continuous
 62
     7
100
AcDbLine
 10
190.5
 20
42.99999999999999
 30
0.0
 11
191.0
 21
43.49999999999999
 31
0.0
  0
LINE
  5
121
330
20
100
AcDbEntity
  8
0
  6
Continuous
 62
     7
100
AcDbLine
 10
190.5
 20
34.00000000000001
 30
0.0
 11
191.0
 21
33.5
 31
0.0
  0
LINE
  5
122
330
20
100
AcDbEntity
  8
0
  6
Continuous
 62
     7
100
AcDbLine
 10
22.5
 20
34.0
 30
0.0
 11
22.0
 21
33.5
 31
0.0
  0
LINE
  5
123
330
20
100
AcDbEntity
  8
0
  6
Continuous
 62
     7
100
AcDbLine
 10
22.5
 20
43.0
 30
0.0
 11
22.0
 21
43.49999999999999
 31
0.0
  0
LINE
  5
124
330
20
100
AcDbEntity
  8
0
  6
Continuous
 62
     7
100
AcDbLine
 10
-25.5
 20
34.0
 30
0.0
 11
-25.0
 21
33.5
 31
0.0
  0
LINE
  5
125
330
20
100
AcDbEntity
  8
0
  6
Continuous
 62
     7
100
AcDbLine
 10
-25.5
 20
43.0
 30
0.0
 11
-25.0
 21
43.5
 31
0.0
  0
LINE
  5
126
330
20
100
AcDbEntity
  8
0
  6
Continuous
 62
     7
100
AcDbLine
 10
22.4999982292959
 20
33.99999822929589
 30
0.0
 11
24.5
 21
33.99999822929589
 31
0.0
  0
LINE
  5
127
330
20
100
AcDbEntity
  8
0
  6
Continuous
 62
     7
100
AcDbLine
 10
22.5
 20
42.99998620441534
 30
0.0
 11
23.66748155686296
 21
42.99998620441534
 31
0.0
  0
LINE
  5
128
330
20
100
AcDbEntity
  8
0
  6
Continuous
 62
     7
100
AcDbLine
 10
188.5
 20
34.0
 30
0.0
 11
190.5000214198105
 21
34.0
 31
0.0
  0
LINE
  5
129
330
20
100
AcDbEntity
  8
0
  6
Continuous
 62
     7
100
AcDbLine
 10
188.5
 20
43.0
 30
0.0
 11
190.5
 21
43.0
 31
0.0
  0
LINE
  5
12A
330
20
100
AcDbEntity
  8
0
  6
Continuous
 62
     7
100
AcDbLine
 10
16.5
 20
33.5
 30
0.0
 11
22.0
 21
33.5
 31
0.0
  0
LINE
  5
12B
330
20
100
AcDbEntity
  8
0
  6
Continuous
 62
     2
100
AcDbLine
 10
16.5
 20
34.0
 30
0.0
 11
22.5
 21
34.0
 31
0.0
  0
LINE
  5
12C
330
20
100
AcDbEntity
  8
0
  6
Continuous
 62
     2
100
AcDbLine
 10
16.5
 20
43.0
 30
0.0
 11
22.5
 21
43.0
 31
0.0
  0
LINE
  5
12D
330
20
100
AcDbEntity
  8
0
  6
Continuous
 62
     7
100
AcDbLine
 10
16.5
 20
43.5
 30
0.0
 11
22.0
 21
43.5
 31
0.0
  0
LINE
  5
12E
330
20
100
AcDbEntity
  8
0
  6
Continuous
 62
     7
100
AcDbLine
 10
196.5
 20
33.5
 30
0.0
 11
191.0
 21
33.5
 31
0.0
  0
LINE
  5
12F
330
20
100
AcDbEntity
  8
0
  6
Continuous
 62
     2
100
AcDbLine
 10
196.5
 20
34.0
 30
0.0
 11
190.5
 21
34.0
 31
0.0
  0
LINE
  5
130
330
20
100
AcDbEntity
  8
0
  6
Continuous
 62
     2
100
AcDbLine
 10
196.5
 20
43.0
 30
0.0
 11
190.5
 21
43.0
 31
0.0
  0
LINE
  5
131
330
20
100
AcDbEntity
  8
0
  6
Continuous
 62
     7
100
AcDbLine
 10
196.5
 20
43.5
 30
0.0
 11
191.0
 21
43.5
 31
0.0
  0
LINE
  5
132
330
20
100
AcDbEntity
  8
0
  6
Continuous
 62
     7
100
AcDbLine
 10
238.0
 20
43.5
 30
0.0
 11
238.0
 21
33.5
 31
0.0
  0
LINE
  5
133
330
20
100
AcDbEntity
  8
0
  6
Continuous
 62
     7
100
AcDbLine
 10
238.5
 20
43.0
 30
0.0
 11
238.5
 21
34.0
 31
0.0
  0
LINE
  5
134
330
20
100
AcDbEntity
  8
0
  6
Continuous
 62
     7
100
AcDbLine
 10
88.49999999999999
 20
8.70001220703125
 30
0.0
 11
196.5
 21
8.70001220703125
 31
0.0
  0
LINE
  5
135
330
20
100
AcDbEntity
  8
0
  6
Continuous
 62
     7
100
AcDbLine
 10
88.49999999999999
 20
30.29998779296875
 30
0.0
 11
196.5
 21
30.29998779296875
 31
0.0
  0
LINE
  5
136
330
20
100
AcDbEntity
  8
0
  6
Continuous
 62
     7
100
AcDbLine
 10
219.5
 20
4.0
 30
0.0
 11
196.5
 21
4.0
 31
0.0
  0
LINE
  5
137
330
20
100
AcDbEntity
  8
0
  6
Continuous
 62
     2
100
AcDbLine
 10
205.5
 20
26.0
 30
0.0
 11
205.5
 21
13.0
 31
0.0
  0
LINE
  5
138
330
20
100
AcDbEntity
  8
0
  6
Continuous
 62
     7
100
AcDbLine
 10
219.5
 20
31.57179260253907
 30
0.0
 11
222.5
 21
31.57179260253907
 31
0.0
  0
LINE
  5
139
330
20
100
AcDbEntity
  8
0
  6
Continuous
 62
     7
100
AcDbLine
 10
219.5
 20
0.0
 30
0.0
 11
196.5
 21
0.0
 31
0.0
  0
LINE
  5
13A
330
20
100
AcDbEntity
  8
0
  6
Continuous
 62
     2
100
AcDbLine
 10
206.0399932861328
 20
7.5
 30
0.0
 11
198.9600067138672
 21
7.5
 31
0.0
  0
LINE
  5
13B
330
20
100
AcDbEntity
  8
0
  6
Continuous
 62
     2
100
AcDbLine
 10
202.5
 20
11.03999328613281
 30
0.0
 11
202.5
 21
3.959991455078125
 31
0.0
  0
LINE
  5
13C
330
20
100
AcDbEntity
  8
0
  6
Continuous
 62
     7
100
AcDbLine
 10
219.5
 20
11.0
 30
0.0
 11
196.5
 21
11.0
 31
0.0
  0
LINE
  5
13D
330
20
100
AcDbEntity
  8
0
  6
Continuous
 62
     7
100
AcDbLine
 10
191.0
 20
43.5
 30
0.0
 11
191.0
 21
33.5
 31
0.0
  0
LINE
  5
13E
330
20
100
AcDbEntity
  8
0
  6
Continuous
 62
     7
100
AcDbLine
 10
190.5
 20
43.0
 30
0.0
 11
190.5
 21
34.0
 31
0.0
  0
LINE
  5
13F
330
20
100
AcDbEntity
  8
0
  6
Continuous
 62
     7
100
AcDbLine
 10
222.5
 20
41.96409606933594
 30
0.0
 11
219.5
 21
41.96409606933594
 31
0.0
  0
LINE
  5
140
330
20
100
AcDbEntity
  8
0
  6
Continuous
 62
     7
100
AcDbLine
 10
188.5
 20
43.0
 30
0.0
 11
188.5
 21
34.0
 31
0.0
  0
LINE
  5
141
330
20
100
AcDbEntity
  8
0
  6
Continuous
 62
     7
100
AcDbLine
 10
222.5
 20
35.03590393066407
 30
0.0
 11
219.5
 21
35.03590393066407
 31
0.0
  0
LINE
  5
142
330
20
100
AcDbEntity
  8
0
  6
Continuous
 62
     7
100
AcDbLine
 10
178.5
 20
40.0
 30
0.0
 11
178.5
 21
37.0
 31
0.0
  0
LINE
  5
143
330
20
100
AcDbEntity
  8
0
  6
Continuous
 62
     7
100
AcDbLine
 10
219.5
 20
35.0
 30
0.0
 11
196.5
 21
35.0
 31
0.0
  0
LINE
  5
144
330
20
100
AcDbEntity
  8
0
  6
Continuous
 62
     7
100
AcDbLine
 10
188.5
 20
37.0
 30
0.0
 11
178.5
 21
37.0
 31
0.0
  0
LINE
  5
145
330
20
100
AcDbEntity
  8
0
  6
Continuous
 62
     7
100
AcDbLine
 10
188.5
 20
40.0
 30
0.0
 11
178.5
 21
40.0
 31
0.0
  0
LINE
  5
146
330
20
100
AcDbEntity
  8
0
  6
Continuous
 62
     7
100
AcDbLine
 10
24.5
 20
12.5
 30
0.0
 11
88.49999999999999
 21
12.5
 31
0.0
  0
LINE
  5
147
330
20
100
AcDbEntity
  8
0
  6
Continuous
 62
     7
100
AcDbLine
 10
88.49999999999999
 20
44.0
 30
0.0
 11
86.89999389648438
 21
44.0
 31
0.0
  0
LINE
  5
148
330
20
100
AcDbEntity
  8
0
  6
Continuous
 62
     7
100
AcDbLine
 10
88.49999999999999
 20
44.0
 30
0.0
 11
88.49999999999999
 21
2.0
 31
0.0
  0
LINE
  5
149
330
20
100
AcDbEntity
  8
0
  6
Continuous
 62
     7
100
AcDbLine
 10
24.5
 20
44.0
 30
0.0
 11
24.5
 21
2.0
 31
0.0
  0
LINE
  5
14A
330
20
100
AcDbEntity
  8
0
  6
Continuous
 62
     2
100
AcDbLine
 10
7.5
 20
26.0
 30
0.0
 11
7.5
 21
13.0
 31
0.0
  0
LINE
  5
14B
330
20
100
AcDbEntity
  8
0
  6
Continuous
 62
     7
100
AcDbLine
 10
-6.5
 20
35.0
 30
0.0
 11
16.5
 21
35.0
 31
0.0
  0
LINE
  5
14C
330
20
100
AcDbEntity
  8
0
  6
Continuous
 62
     7
100
AcDbLine
 10
24.5
 20
2.0
 30
0.0
 11
88.49999999999999
 21
2.0
 31
0.0
  0
LINE
  5
14D
330
20
100
AcDbEntity
  8
0
  6
Continuous
 62
     7
100
AcDbLine
 10
-6.5
 20
0.0
 30
0.0
 11
16.5
 21
0.0
 31
0.0
  0
LINE
  5
14E
330
20
100
AcDbEntity
  8
0
  6
Continuous
 62
     7
100
AcDbLine
 10
16.5
 20
30.29998779296875
 30
0.0
 11
24.5
 21
30.29998779296875
 31
0.0
  0
LINE
  5
14F
330
20
100
AcDbEntity
  8
0
  6
Continuous
 62
     7
100
AcDbLine
 10
16.5
 20
8.70001220703125
 30
0.0
 11
24.5
 21
8.70001220703125
 31
0.0
  0
LINE
  5
150
330
20
100
AcDbEntity
  8
0
  6
Continuous
 62
     7
100
AcDbLine
 10
-6.5
 20
11.0
 30
0.0
 11
16.5
 21
11.0
 31
0.0
  0
LINE
  5
151
330
20
100
AcDbEntity
  8
0
  6
Continuous
 62
     7
100
AcDbLine
 10
-6.5
 20
4.0
 30
0.0
 11
16.5
 21
4.0
 31
0.0
  0
LINE
  5
152
330
20
100
AcDbEntity
  8
0
  6
Continuous
 62
     2
100
AcDbLine
 10
10.5
 20
11.03999328613281
 30
0.0
 11
10.5
 21
3.959991455078125
 31
0.0
  0
LINE
  5
153
330
20
100
AcDbEntity
  8
0
  6
Continuous
 62
     2
100
AcDbLine
 10
6.96002197265625
 20
7.5
 30
0.0
 11
14.03997802734375
 21
7.5
 31
0.0
  0
LINE
  5
154
330
20
100
AcDbEntity
  8
0
  6
Continuous
 62
     7
100
AcDbLine
 10
-25.0
 20
33.5
 30
0.0
 11
-9.5
 21
33.5
 31
0.0
  0
LINE
  5
155
330
20
100
AcDbEntity
  8
0
  6
Continuous
 62
     7
100
AcDbLine
 10
24.14999389648437
 20
23.05000305175781
 30
0.0
 11
24.5
 21
23.05000305175781
 31
0.0
  0
LINE
  5
156
330
20
100
AcDbEntity
  8
0
  6
Continuous
 62
     7
100
AcDbLine
 10
24.14999389648437
 20
15.44999694824219
 30
0.0
 11
24.5
 21
15.44999694824219
 31
0.0
  0
LINE
  5
157
330
20
100
AcDbEntity
  8
0
  6
Continuous
 62
     7
100
AcDbLine
 10
22.29998779296875
 20
16.26847839355469
 30
0.0
 11
22.29998779296875
 21
22.23152160644532
 31
0.0
  0
LINE
  5
158
330
20
100
AcDbEntity
  8
0
  6
Continuous
 62
     7
100
AcDbLine
 10
88.85000610351562
 20
23.05000305175781
 30
0.0
 11
88.49999999999999
 21
23.05000305175781
 31
0.0
  0
LINE
  5
159
330
20
100
AcDbEntity
  8
0
  6
Continuous
 62
     7
100
AcDbLine
 10
88.85000610351562
 20
15.44999694824219
 30
0.0
 11
88.49999999999999
 21
15.44999694824219
 31
0.0
  0
LINE
  5
15A
330
20
100
AcDbEntity
  8
0
  6
Continuous
 62
     7
100
AcDbLine
 10
90.70001220703124
 20
16.26847839355469
 30
0.0
 11
90.70001220703124
 21
22.23152160644532
 31
0.0
  0
LINE
  5
15B
330
20
100
AcDbEntity
  8
0
  6
Continuous
 62
     2
100
AcDbLine
 10
41.95999145507813
 20
8.0
 30
0.0
 11
49.04000854492188
 21
8.0
 31
0.0
  0
LINE
  5
15C
330
20
100
AcDbEntity
  8
0
  6
Continuous
 62
     2
100
AcDbLine
 10
45.49999999999999
 20
11.53999328613281
 30
0.0
 11
45.49999999999999
 21
4.460006713867188
 31
0.0
  0
LINE
  5
15D
330
20
100
AcDbEntity
  8
0
  6
Continuous
 62
     2
100
AcDbLine
 10
63.95999145507813
 20
8.0
 30
0.0
 11
71.04000854492188
 21
8.0
 31
0.0
  0
LINE
  5
15E
330
20
100
AcDbEntity
  8
0
  6
Continuous
 62
     2
100
AcDbLine
 10
-25.5
 20
43.0
 30
0.0
 11
-9.5
 21
43.0
 31
0.0
  0
LINE
  5
15F
330
20
100
AcDbEntity
  8
0
  6
Continuous
 62
     7
100
AcDbLine
 10
-25.0
 20
43.5
 30
0.0
 11
-9.5
 21
43.5
 31
0.0
  0
LINE
  5
160
330
20
100
AcDbEntity
  8
0
  6
Continuous
 62
     2
100
AcDbLine
 10
-27.5
 20
38.5
 30
0.0
 11
29.55691528320313
 21
38.5
 31
0.0
  0
LINE
  5
161
330
20
100
AcDbEntity
  8
0
  6
Continuous
 62
     7
100
AcDbLine
 10
-9.5
 20
41.96409606933594
 30
0.0
 11
-6.5
 21
41.96409606933594
 31
0.0
  0
LINE
  5
162
330
20
100
AcDbEntity
  8
0
  6
Continuous
 62
     7
100
AcDbLine
 10
22.5
 20
43.0
 30
0.0
 11
22.5
 21
42.42817687988281
 31
0.0
  0
LINE
  5
163
330
20
100
AcDbEntity
  8
0
  6
Continuous
 62
     7
100
AcDbLine
 10
22.0
 20
43.5
 30
0.0
 11
22.0
 21
33.5
 31
0.0
  0
LINE
  5
164
330
20
100
AcDbEntity
  8
0
  6
Continuous
 62
     7
100
AcDbLine
 10
24.5
 20
44.0
 30
0.0
 11
26.10000610351562
 21
44.0
 31
0.0
  0
LINE
  5
165
330
20
100
AcDbEntity
  8
0
  6
Continuous
 62
     2
100
AcDbLine
 10
67.5
 20
11.53999328613281
 30
0.0
 11
67.5
 21
4.460006713867188
 31
0.0
  0
LINE
  5
166
330
20
100
AcDbEntity
  8
0
  6
Continuous
 62
     2
100
AcDbLine
 10
-25.5
 20
34.0
 30
0.0
 11
-9.5
 21
34.0
 31
0.0
  0
LINE
  5
167
330
20
100
AcDbEntity
  8
0
  6
Continuous
 62
     7
100
AcDbLine
 10
-25.5
 20
43.0
 30
0.0
 11
-25.5
 21
34.0
 31
0.0
  0
LINE
  5
168
330
20
100
AcDbEntity
  8
0
  6
Continuous
 62
     7
100
AcDbLine
 10
-25.0
 20
43.5
 30
0.0
 11
-25.0
 21
33.5
 31
0.0
  0
LINE
  5
169
330
20
100
AcDbEntity
  8
0
  6
Continuous
 62
     7
100
AcDbLine
 10
-6.5
 20
31.57179260253907
 30
0.0
 11
-9.5
 21
31.57179260253907
 31
0.0
  0
LINE
  5
16A
330
20
100
AcDbEntity
  8
0
  6
Continuous
 62
     7
100
AcDbLine
 10
-9.5
 20
35.03590393066407
 30
0.0
 11
-6.5
 21
35.03590393066407
 31
0.0
  0
LINE
  5
16B
330
20
100
AcDbEntity
  8
0
  6
Continuous
 62
     7
100
AcDbLine
 10
22.29998779296875
 20
36.26847839355469
 30
0.0
 11
22.29998779296875
 21
42.23152160644531
 31
0.0
  0
LINE
  5
16C
330
20
100
AcDbEntity
  8
0
  6
Continuous
 62
     7
100
AcDbLine
 10
22.5
 20
36.07182312011719
 30
0.0
 11
22.5
 21
34.0
 31
0.0
  0
LINE
  5
16D
330
20
100
AcDbEntity
  8
0
  6
Continuous
 62
     7
100
AcDbLine
 10
24.5
 20
15.38674926757812
 30
0.0
 11
88.49999999999999
 21
15.38674926757812
 31
0.0
  0
LINE
  5
16E
330
20
100
AcDbEntity
  8
0
  6
Continuous
 62
     7
100
AcDbLine
 10
88.85000610351562
 20
35.44999694824219
 30
0.0
 11
88.49999999999999
 21
35.44999694824219
 31
0.0
  0
LINE
  5
16F
330
20
100
AcDbEntity
  8
0
  6
Continuous
 62
     7
100
AcDbLine
 10
88.85000610351562
 20
43.05000305175781
 30
0.0
 11
88.49999999999999
 21
43.05000305175781
 31
0.0
  0
LINE
  5
170
330
20
100
AcDbEntity
  8
0
  6
Continuous
 62
     7
100
AcDbLine
 10
90.70001220703124
 20
36.26847839355469
 30
0.0
 11
90.70001220703124
 21
42.23152160644531
 31
0.0
  0
LINE
  5
171
330
20
100
AcDbEntity
  8
0
  6
Continuous
 62
     7
100
AcDbLine
 10
24.14999389648437
 20
43.05000305175781
 30
0.0
 11
24.5
 21
43.05000305175781
 31
0.0
  0
LINE
  5
172
330
20
100
AcDbEntity
  8
0
  6
Continuous
 62
     7
100
AcDbLine
 10
24.14999389648437
 20
35.44999694824219
 30
0.0
 11
24.5
 21
35.44999694824219
 31
0.0
  0
LINE
  5
173
330
20
100
AcDbEntity
  8
0
  6
Continuous
 62
     2
100
AcDbLine
 10
-9.5
 20
19.5
 30
0.0
 11
222.5
 21
19.5
 31
0.0
  0
CIRCLE
  5
174
330
20
100
AcDbEntity
  8
0
  6
Continuous
 62
     7
100
AcDbCircle
 10
205.5
 20
19.5
 30
0.0
 40
1.700000047683715
  0
CIRCLE
  5
175
330
20
100
AcDbEntity
  8
0
  6
Continuous
 62
     2
100
AcDbCircle
 10
205.5
 20
19.5
 30
0.0
 40
4.849999904632568
  0
CIRCLE
  5
176
330
20
100
AcDbEntity
  8
0
  6
Continuous
 62
     7
100
AcDbCircle
 10
205.5
 20
19.5
 30
0.0
 40
4.150000095367431
  0
CIRCLE
  5
177
330
20
100
AcDbEntity
  8
0
  6
Continuous
 62
     7
100
AcDbCircle
 10
202.5
 20
7.5
 30
0.0
 40
0.6999999880790711
  0
CIRCLE
  5
178
330
20
100
AcDbEntity
  8
0
  6
Continuous
 62
     2
100
AcDbCircle
 10
202.5
 20
7.5
 30
0.0
 40
1.0
  0
CIRCLE
  5
179
330
20
100
AcDbEntity
  8
0
  6
Continuous
 62
     7
100
AcDbCircle
 10
7.5
 20
19.5
 30
0.0
 40
1.700000047683715
  0
CIRCLE
  5
17A
330
20
100
AcDbEntity
  8
0
  6
Continuous
 62
     2
100
AcDbCircle
 10
7.5
 20
19.5
 30
0.0
 40
4.849999904632568
  0
CIRCLE
  5
17B
330
20
100
AcDbEntity
  8
0
  6
Continuous
 62
     7
100
AcDbCircle
 10
7.5
 20
19.5
 30
0.0
 40
4.150000095367431
  0
CIRCLE
  5
17C
330
20
100
AcDbEntity
  8
0
  6
Continuous
 62
     7
100
AcDbCircle
 10
10.5
 20
7.5
 30
0.0
 40
0.6999999880790711
  0
CIRCLE
  5
17D
330
20
100
AcDbEntity
  8
0
  6
Continuous
 62
     2
100
AcDbCircle
 10
10.5
 20
7.5
 30
0.0
 40
1.0
  0
ARC
  5
17E
330
20
100
AcDbEntity
  8
0
  6
Continuous
 62
     7
100
AcDbCircle
 10
24.14999389648437
 20
20.55000305175781
 30
0.0
 40
2.5
100
AcDbArc
 50
90.00000250447817
 51
137.7314203114674
  0
ARC
  5
17F
330
20
100
AcDbEntity
  8
0
  6
Continuous
 62
     7
100
AcDbCircle
 10
24.14999389648437
 20
17.94999694824219
 30
0.0
 40
2.5
100
AcDbArc
 50
222.2685796885325
 51
269.9999974955218
  0
ARC
  5
180
330
20
100
AcDbEntity
  8
0
  6
Continuous
 62
     7
100
AcDbCircle
 10
88.85000610351562
 20
20.55000305175781
 30
0.0
 40
2.5
100
AcDbArc
 50
42.26858469748889
 51
90.00000250447817
  0
ARC
  5
181
330
20
100
AcDbEntity
  8
0
  6
Continuous
 62
     7
100
AcDbCircle
 10
88.85000610351562
 20
17.94999694824219
 30
0.0
 40
2.5
100
AcDbArc
 50
269.9999974955218
 51
317.7314153025112
  0
CIRCLE
  5
182
330
20
100
AcDbEntity
  8
0
  6
Continuous
 62
     7
100
AcDbCircle
 10
45.49999999999999
 20
8.0
 30
0.0
 40
0.5
  0
CIRCLE
  5
183
330
20
100
AcDbEntity
  8
0
  6
Continuous
 62
     2
100
AcDbCircle
 10
67.5
 20
8.0
 30
0.0
 40
1.0
  0
CIRCLE
  5
184
330
20
100
AcDbEntity
  8
0
  6
Continuous
 62
     2
100
AcDbCircle
 10
45.49999999999999
 20
8.0
 30
0.0
 40
1.0
  0
CIRCLE
  5
185
330
20
100
AcDbEntity
  8
0
  6
Continuous
 62
     7
100
AcDbCircle
 10
67.5
 20
8.0
 30
0.0
 40
0.5
  0
ARC
  5
186
330
20
100
AcDbEntity
  8
0
  6
Continuous
 62
     7
100
AcDbCircle
 10
24.14999389648437
 20
40.55000305175781
 30
0.0
 40
2.5
100
AcDbArc
 50
90.00000250447817
 51
137.7314203114674
  0
ARC
  5
187
330
20
100
AcDbEntity
  8
0
  6
Continuous
 62
     7
100
AcDbCircle
 10
24.14999389648437
 20
37.94999694824219
 30
0.0
 40
2.5
100
AcDbArc
 50
222.2685796885325
 51
269.9999974955218
  0
ARC
  5
188
330
20
100
AcDbEntity
  8
0
  6
Continuous
 62
     7
100
AcDbCircle
 10
88.85000610351562
 20
37.94999694824219
 30
0.0
 40
2.5
100
AcDbArc
 50
270.000004325711
 51
317.7314187176057
  0
ARC
  5
189
330
20
100
AcDbEntity
  8
0
  6
Continuous
 62
     7
100
AcDbCircle
 10
88.85000610351562
 20
40.55000305175781
 30
0.0
 40
2.5
100
AcDbArc
 50
42.2685812823943
 51
89.99999567428899
  0
LINE
  5
18A
330
20
100
AcDbEntity
  8
0
  6
Continuous
 62
     7
100
AcDbLine
 10
238.0
 20
33.5
 30
0.0
 11
222.5
 21
33.5
 31
0.0
  0
LINE
  5
18B
330
20
100
AcDbEntity
  8
0
  6
Continuous
 62
     2
100
AcDbLine
 10
238.5
 20
43.0
 30
0.0
 11
222.5
 21
43.0
 31
0.0
  0
LINE
  5
18C
330
20
100
AcDbEntity
  8
0
  6
Continuous
 62
     7
100
AcDbLine
 10
238.0
 20
43.5
 30
0.0
 11
222.5
 21
43.5
 31
0.0
  0
LINE
  5
18D
330
20
100
AcDbEntity
  8
0
  6
Continuous
 62
     2
100
AcDbLine
 10
241.4005889892578
 20
38.5
 30
0.0
 11
175.7417297363281
 21
38.5
 31
0.0
  0
LINE
  5
18E
330
20
100
AcDbEntity
  8
0
  6
Continuous
 62
     2
100
AcDbLine
 10
238.5
 20
34.0
 30
0.0
 11
222.5
 21
34.0
 31
0.0
  0
LINE
  5
18F
330
20
100
AcDbEntity
  8
0
  6
Continuous
 62
     7
100
AcDbLine
 10
219.5
 20
46.0
 30
0.0
 11
196.5
 21
46.0
 31
0.0
  0
LINE
  5
190
330
20
100
AcDbEntity
  8
0
  6
Continuous
 62
     7
100
AcDbLine
 10
219.5
 20
45.42820739746093
 30
0.0
 11
222.5
 21
45.42820739746093
 31
0.0
  0
LINE
  5
191
330
20
100
AcDbEntity
  8
0
  6
Continuous
 62
     7
100
AcDbLine
 10
26.10000610351562
 20
48.0
 30
0.0
 11
86.89999389648438
 21
48.0
 31
0.0
  0
LINE
  5
192
330
20
100
AcDbEntity
  8
0
  6
Continuous
 62
     7
100
AcDbLine
 10
-6.5
 20
46.0
 30
0.0
 11
16.5
 21
46.0
 31
0.0
  0
LINE
  5
193
330
20
100
AcDbEntity
  8
0
  6
Continuous
 62
     7
100
AcDbLine
 10
-6.5
 20
45.42820739746093
 30
0.0
 11
-9.5
 21
45.42820739746093
 31
0.0
  0
LINE
  5
194
330
20
100
AcDbEntity
  8
0
  6
Continuous
 62
     7
100
AcDbLine
 10
-9.5
 20
45.42820739746093
 30
0.0
 11
-9.5
 21
31.57179260253907
 31
0.0
  0
LINE
  5
195
330
20
100
AcDbEntity
  8
0
  6
Continuous
 62
     7
100
AcDbLine
 10
-6.5
 20
46.0
 30
0.0
 11
-6.5
 21
0.0
 31
0.0
  0
LINE
  5
196
330
20
100
AcDbEntity
  8
0
  6
Continuous
 62
     7
100
AcDbLine
 10
26.10000610351562
 20
48.0
 30
0.0
 11
26.10000610351562
 21
2.0
 31
0.0
  0
LINE
  5
197
330
20
100
AcDbEntity
  8
0
  6
Continuous
 62
     7
100
AcDbLine
 10
86.89999389648438
 20
48.0
 30
0.0
 11
86.89999389648438
 21
2.0
 31
0.0
  0
LINE
  5
198
330
20
100
AcDbEntity
  8
0
  6
Continuous
 62
     7
100
AcDbLine
 10
16.5
 20
46.0
 30
0.0
 11
16.5
 21
0.0
 31
0.0
  0
LINE
  5
199
330
20
100
AcDbEntity
  8
0
  6
Continuous
 62
     2
100
AcDbLine
 10
56.5
 20
54.16821515999301
 30
0.0
 11
56.5
 21
-2.60638427734375
 31
0.0
  0
LINE
  5
19A
330
20
100
AcDbEntity
  8
0
  6
Continuous
 62
     7
100
AcDbLine
 10
222.5
 20
45.42820739746093
 30
0.0
 11
222.5
 21
31.57179260253907
 31
0.0
  0
LINE
  5
19B
330
20
100
AcDbEntity
  8
0
  6
Continuous
 62
     7
100
AcDbLine
 10
196.5
 20
46.0
 30
0.0
 11
196.5
 21
0.0
 31
0.0
  0
LINE
  5
19C
330
20
100
AcDbEntity
  8
0
  6
Continuous
 62
     7
100
AcDbLine
 10
219.5
 20
46.0
 30
0.0
 11
219.5
 21
0.0
 31
0.0
  0
LINE
  5
19D
330
20
100
AcDbEntity
  8
0
  6
Continuous
 62
     2
100
AcDbLine
 10
0.0
 20
-3.0
 30
0.0
 11
0.0
 21
3.0
 31
0.0
  0
LINE
  5
19E
330
20
100
AcDbEntity
  8
0
  6
Continuous
 62
     2
100
AcDbLine
 10
213.0
 20
-3.0
 30
0.0
 11
213.0
 21
3.0
 31
0.0
  0
LINE
  5
19F
330
20
100
AcDbEntity
  8
0
  6
Continuous
 62
     2
100
AcDbLine
 10
34.5
 20
45.0
 30
0.0
 11
34.5
 21
51.0
 31
0.0
  0
LINE
  5
1A0
330
20
100
AcDbEntity
  8
0
  6
Continuous
 62
     2
100
AcDbLine
 10
78.5
 20
45.0
 30
0.0
 11
78.5
 21
51.0
 31
0.0
  0
LINE
  5
1A1
330
20
100
AcDbEntity
  8
0
  6
PHANTOM
 62
     3
100
AcDbLine
 10
123.5
 20
70.58265551030998
 30
0.0
 11
123.5
 21
-18.94122807017544
 31
0.0
  0
ENDBLK
  5
1A2
330
20
100
AcDbEntity
  8
0
100
AcDbBlockEnd
  0
ENDSEC
  0
SECTION
  2
ENTITIES
  0
LINE
  5
1A3
330
A
100
AcDbEntity
  8
0
  6
Continuous
 62
     7
100
AcDbLine
 10
-152.5750732421875
 20
-140.0
 30
0.0
 11
153.4249267578125
 21
-140.0
 31
0.0
  0
LINE
  5
1A4
330
A
100
AcDbEntity
  8
0
  6
Continuous
 62
     7
100
AcDbLine
 10
-152.5750732421875
 20
-132.0
 30
0.0
 11
153.4249267578125
 21
-132.0
 31
0.0
  0
LINE
  5
1A5
330
A
100
AcDbEntity
  8
0
  6
Continuous
 62
     7
100
AcDbLine
 10
-152.5750732421875
 20
-124.0
 30
0.0
 11
153.4249267578125
 21
-124.0
 31
0.0
  0
MTEXT
  5
1A6
330
A
100
AcDbEntity
  8
0
  6
Continuous
 62
     7
100
AcDbMText
 10
136.2686767703853
 20
-128.0
 30
0.0
 40
4.5
 41
0.0
 71
     4
 72
     5
  1
\W1.125;\A1;800
 73
     1
 44
1.0
1001
ACAD
1000
MTEXTBEGIN
1070
    73
1070
     1
1070
    44
1040
1.0
1070
    74
1070
     0
1000
MTEXTEND
  0
MTEXT
  5
1A7
330
A
100
AcDbEntity
  8
0
  6
Continuous
 62
     7
100
AcDbMText
 10
136.2686767703853
 20
-136.0
 30
0.0
 40
4.5
 41
0.0
 71
     4
 72
     5
  1
\W1.125;\A1;700
 73
     1
 44
1.0
1001
ACAD
1000
MTEXTBEGIN
1070
    73
1070
     1
1070
    44
1040
1.0
1070
    74
1070
     0
1000
MTEXTEND
  0
LINE
  5
1A8
330
A
100
AcDbEntity
  8
0
  6
Continuous
 62
     7
100
AcDbLine
 10
-152.5750732421875
 20
-124.0
 30
0.0
 11
-152.5750732421875
 21
-140.0
 31
0.0
  0
MTEXT
  5
1A9
330
A
100
AcDbEntity
  8
0
  6
Continuous
 62
     7
100
AcDbMText
 10
-147.3250732421875
 20
-128.0
 30
0.0
 40
4.5
 41
0.0
 71
     4
 72
     5
  1
\A1;STROKE
 73
     1
 44
1.0
1001
ACAD
1000
MTEXTBEGIN
1070
    73
1070
     1
1070
    44
1040
1.0
1070
    74
1070
     0
1000
MTEXTEND
  0
MTEXT
  5
1AA
330
A
100
AcDbEntity
  8
0
  6
Continuous
 62
     7
100
AcDbMText
 10
-149.5750732421875
 20
-136.0
 30
0.0
 40
4.5
 41
0.0
 71
     4
 72
     5
  1
\A1;STRETCH
 73
     1
 44
1.0
1001
ACAD
1000
MTEXTBEGIN
1070
    73
1070
     1
1070
    44
1040
1.0
1070
    74
1070
     0
1000
MTEXTEND
  0
MTEXT
  5
1AB
330
A
100
AcDbEntity
  8
0
  6
Continuous
 62
     7
100
AcDbMText
 10
-88.67507324218752
 20
-128.0
 30
0.0
 40
4.5
 41
0.0
 71
     4
 72
     5
  1
\W1.200;\A1;150
 73
     1
 44
1.0
1001
ACAD
1000
MTEXTBEGIN
1070
    73
1070
     1
1070
    44
1040
1.0
1070
    74
1070
     0
1000
MTEXTEND
  0
MTEXT
  5
1AC
330
A
100
AcDbEntity
  8
0
  6
Continuous
 62
     7
100
AcDbMText
 10
-86.50689141513892
 20
-136.0
 30
0.0
 40
4.5
 41
0.0
 71
     4
 72
     5
  1
\W1.091;\A1;50
 73
     1
 44
1.0
1001
ACAD
1000
MTEXTBEGIN
1070
    73
1070
     1
1070
    44
1040
1.0
1070
    74
1070
     0
1000
MTEXTEND
  0
MTEXT
  5
1AD
330
A
100
AcDbEntity
  8
0
  6
Continuous
 62
     7
100
AcDbMText
 10
-66.23132322961467
 20
-128.0
 30
0.0
 40
4.5
 41
0.0
 71
     4
 72
     5
  1
\W1.125;\A1;200
 73
     1
 44
1.0
1001
ACAD
1000
MTEXTBEGIN
1070
    73
1070
     1
1070
    44
1040
1.0
1070
    74
1070
     0
1000
MTEXTEND
  0
MTEXT
  5
1AE
330
A
100
AcDbEntity
  8
0
  6
Continuous
 62
     7
100
AcDbMText
 10
-66.11078751969097
 20
-136.0
 30
0.0
 40
4.5
 41
0.0
 71
     4
 72
     5
  1
\W1.286;\A1;100
 73
     1
 44
1.0
1001
ACAD
1000
MTEXTBEGIN
1070
    73
1070
     1
1070
    44
1040
1.0
1070
    74
1070
     0
1000
MTEXTEND
  0
MTEXT
  5
1AF
330
A
100
AcDbEntity
  8
0
  6
Continuous
 62
     7
100
AcDbMText
 10
-43.78095558956011
 20
-128.0
 30
0.0
 40
4.5
 41
0.0
 71
     4
 72
     5
  1
\W1.059;\A1;250
 73
     1
 44
1.0
1001
ACAD
1000
MTEXTBEGIN
1070
    73
1070
     1
1070
    44
1040
1.0
1070
    74
1070
     0
1000
MTEXTEND
  0
MTEXT
  5
1B0
330
A
100
AcDbEntity
  8
0
  6
Continuous
 62
     7
100
AcDbMText
 10
-43.67507324218752
 20
-136.0
 30
0.0
 40
4.5
 41
0.0
 71
     4
 72
     5
  1
\W1.200;\A1;150
 73
     1
 44
1.0
1001
ACAD
1000
MTEXTBEGIN
1070
    73
1070
     1
1070
    44
1040
1.0
1070
    74
1070
     0
1000
MTEXTEND
  0
MTEXT
  5
1B1
330
A
100
AcDbEntity
  8
0
  6
Continuous
 62
     7
100
AcDbMText
 10
-21.23132322961467
 20
-128.0
 30
0.0
 40
4.5
 41
0.0
 71
     4
 72
     5
  1
\W1.125;\A1;300
 73
     1
 44
1.0
1001
ACAD
1000
MTEXTBEGIN
1070
    73
1070
     1
1070
    44
1040
1.0
1070
    74
1070
     0
1000
MTEXTEND
  0
MTEXT
  5
1B2
330
A
100
AcDbEntity
  8
0
  6
Continuous
 62
     7
100
AcDbMText
 10
-21.23132322961467
 20
-136.0
 30
0.0
 40
4.5
 41
0.0
 71
     4
 72
     5
  1
\W1.125;\A1;200
 73
     1
 44
1.0
1001
ACAD
1000
MTEXTBEGIN
1070
    73
1070
     1
1070
    44
1040
1.0
1070
    74
1070
     0
1000
MTEXTEND
  0
MTEXT
  5
1B3
330
A
100
AcDbEntity
  8
0
  6
Continuous
 62
     7
100
AcDbMText
 10
1.219044410439923
 20
-128.0
 30
0.0
 40
4.5
 41
0.0
 71
     4
 72
     5
  1
\W1.059;\A1;350
 73
     1
 44
1.0
1001
ACAD
1000
MTEXTBEGIN
1070
    73
1070
     1
1070
    44
1040
1.0
1070
    74
1070
     0
1000
MTEXTEND
  0
MTEXT
  5
1B4
330
A
100
AcDbEntity
  8
0
  6
Continuous
 62
     7
100
AcDbMText
 10
1.219044410439923
 20
-136.0
 30
0.0
 40
4.5
 41
0.0
 71
     4
 72
     5
  1
\W1.059;\A1;250
 73
     1
 44
1.0
1001
ACAD
1000
MTEXTBEGIN
1070
    73
1070
     1
1070
    44
1040
1.0
1070
    74
1070
     0
1000
MTEXTEND
  0
LINE
  5
1B5
330
A
100
AcDbEntity
  8
0
  6
Continuous
 62
     7
100
AcDbLine
 10
-116.5750732421875
 20
-124.0
 30
0.0
 11
-116.5750732421875
 21
-140.0
 31
0.0
  0
LINE
  5
1B6
330
A
100
AcDbEntity
  8
0
  6
Continuous
 62
     7
100
AcDbLine
 10
-94.07507324218752
 20
-124.0
 30
0.0
 11
-94.07507324218752
 21
-140.0
 31
0.0
  0
LINE
  5
1B7
330
A
100
AcDbEntity
  8
0
  6
Continuous
 62
     7
100
AcDbLine
 10
-71.57507324218753
 20
-124.0
 30
0.0
 11
-71.57507324218753
 21
-140.0
 31
0.0
  0
LINE
  5
1B8
330
A
100
AcDbEntity
  8
0
  6
Continuous
 62
     7
100
AcDbLine
 10
-49.07507324218753
 20
-124.0
 30
0.0
 11
-49.07507324218753
 21
-140.0
 31
0.0
  0
LINE
  5
1B9
330
A
100
AcDbEntity
  8
0
  6
Continuous
 62
     7
100
AcDbLine
 10
-4.075073242187513
 20
-124.0
 30
0.0
 11
-4.075073242187513
 21
-140.0
 31
0.0
  0
LINE
  5
1BA
330
A
100
AcDbEntity
  8
0
  6
Continuous
 62
     7
100
AcDbLine
 10
-26.57507324218753
 20
-124.0
 30
0.0
 11
-26.57507324218753
 21
-140.0
 31
0.0
  0
LINE
  5
1BB
330
A
100
AcDbEntity
  8
0
  6
Continuous
 62
     7
100
AcDbLine
 10
40.92492675781249
 20
-124.0
 30
0.0
 11
40.92492675781249
 21
-140.0
 31
0.0
  0
LINE
  5
1BC
330
A
100
AcDbEntity
  8
0
  6
Continuous
 62
     7
100
AcDbLine
 10
18.42492675781249
 20
-124.0
 30
0.0
 11
18.42492675781249
 21
-140.0
 31
0.0
  0
LINE
  5
1BD
330
A
100
AcDbEntity
  8
0
  6
Continuous
 62
     7
100
AcDbLine
 10
63.42492675781249
 20
-124.0
 30
0.0
 11
63.42492675781249
 21
-140.0
 31
0.0
  0
MTEXT
  5
1BE
330
A
100
AcDbEntity
  8
0
  6
Continuous
 62
     7
100
AcDbMText
 10
-111.1107875196909
 20
-128.0
 30
0.0
 40
4.5
 41
0.0
 71
     4
 72
     5
  1
\W1.286;\A1;100
 73
     1
 44
1.0
1001
ACAD
1000
MTEXTBEGIN
1070
    73
1070
     1
1070
    44
1040
1.0
1070
    74
1070
     0
1000
MTEXTEND
  0
MTEXT
  5
1BF
330
A
100
AcDbEntity
  8
0
  6
Continuous
 62
     7
100
AcDbMText
 10
-106.6750732207298
 20
-136.0
 30
0.0
 40
4.5
 41
0.0
 71
     4
 72
     5
  1
\W1.200;\A1;0
 73
     1
 44
1.0
1001
ACAD
1000
MTEXTBEGIN
1070
    73
1070
     1
1070
    44
1040
1.0
1070
    74
1070
     0
1000
MTEXTEND
  0
MTEXT
  5
1C0
330
A
100
AcDbEntity
  8
0
  6
Continuous
 62
     7
100
AcDbMText
 10
23.76867677038533
 20
-128.0
 30
0.0
 40
4.5
 41
0.0
 71
     4
 72
     5
  1
\W1.125;\A1;400
 73
     1
 44
1.0
1001
ACAD
1000
MTEXTBEGIN
1070
    73
1070
     1
1070
    44
1040
1.0
1070
    74
1070
     0
1000
MTEXTEND
  0
MTEXT
  5
1C1
330
A
100
AcDbEntity
  8
0
  6
Continuous
 62
     7
100
AcDbMText
 10
23.76867677038533
 20
-136.0
 30
0.0
 40
4.5
 41
0.0
 71
     4
 72
     5
  1
\W1.125;\A1;300
 73
     1
 44
1.0
1001
ACAD
1000
MTEXTBEGIN
1070
    73
1070
     1
1070
    44
1040
1.0
1070
    74
1070
     0
1000
MTEXTEND
  0
MTEXT
  5
1C2
330
A
100
AcDbEntity
  8
0
  6
Continuous
 62
     7
100
AcDbMText
 10
46.21904441043989
 20
-128.0
 30
0.0
 40
4.5
 41
0.0
 71
     4
 72
     5
  1
\W1.059;\A1;450
 73
     1
 44
1.0
1001
ACAD
1000
MTEXTBEGIN
1070
    73
1070
     1
1070
    44
1040
1.0
1070
    74
1070
     0
1000
MTEXTEND
  0
MTEXT
  5
1C3
330
A
100
AcDbEntity
  8
0
  6
Continuous
 62
     7
100
AcDbMText
 10
46.21904441043989
 20
-136.0
 30
0.0
 40
4.5
 41
0.0
 71
     4
 72
     5
  1
\W1.059;\A1;350
 73
     1
 44
1.0
1001
ACAD
1000
MTEXTBEGIN
1070
    73
1070
     1
1070
    44
1040
1.0
1070
    74
1070
     0
1000
MTEXTEND
  0
MTEXT
  5
1C4
330
A
100
AcDbEntity
  8
0
  6
Continuous
 62
     7
100
AcDbMText
 10
68.76867677038532
 20
-128.0
 30
0.0
 40
4.5
 41
0.0
 71
     4
 72
     5
  1
\W1.125;\A1;500
 73
     1
 44
1.0
1001
ACAD
1000
MTEXTBEGIN
1070
    73
1070
     1
1070
    44
1040
1.0
1070
    74
1070
     0
1000
MTEXTEND
  0
MTEXT
  5
1C5
330
A
100
AcDbEntity
  8
0
  6
Continuous
 62
     7
100
AcDbMText
 10
68.76867677038532
 20
-136.0
 30
0.0
 40
4.5
 41
0.0
 71
     4
 72
     5
  1
\W1.125;\A1;400
 73
     1
 44
1.0
1001
ACAD
1000
MTEXTBEGIN
1070
    73
1070
     1
1070
    44
1040
1.0
1070
    74
1070
     0
1000
MTEXTEND
  0
LINE
  5
1C6
330
A
100
AcDbEntity
  8
0
  6
Continuous
 62
     7
100
AcDbLine
 10
85.92492675781249
 20
-124.0
 30
0.0
 11
85.92492675781249
 21
-140.0
 31
0.0
  0
MTEXT
  5
1C7
330
A
100
AcDbEntity
  8
0
  6
Continuous
 62
     7
100
AcDbMText
 10
91.26867677038534
 20
-128.0
 30
0.0
 40
4.5
 41
0.0
 71
     4
 72
     5
  1
\W1.125;\A1;600
 73
     1
 44
1.0
1001
ACAD
1000
MTEXTBEGIN
1070
    73
1070
     1
1070
    44
1040
1.0
1070
    74
1070
     0
1000
MTEXTEND
  0
MTEXT
  5
1C8
330
A
100
AcDbEntity
  8
0
  6
Continuous
 62
     7
100
AcDbMText
 10
91.26867677038534
 20
-136.0
 30
0.0
 40
4.5
 41
0.0
 71
     4
 72
     5
  1
\W1.125;\A1;500
 73
     1
 44
1.0
1001
ACAD
1000
MTEXTBEGIN
1070
    73
1070
     1
1070
    44
1040
1.0
1070
    74
1070
     0
1000
MTEXTEND
  0
LINE
  5
1C9
330
A
100
AcDbEntity
  8
0
  6
Continuous
 62
     7
100
AcDbLine
 10
108.4249267578125
 20
-124.0
 30
0.0
 11
108.4249267578125
 21
-140.0
 31
0.0
  0
MTEXT
  5
1CA
330
A
100
AcDbEntity
  8
0
  6
Continuous
 62
     7
100
AcDbMText
 10
113.7686767703853
 20
-128.0
 30
0.0
 40
4.5
 41
0.0
 71
     4
 72
     5
  1
\W1.125;\A1;700
 73
     1
 44
1.0
1001
ACAD
1000
MTEXTBEGIN
1070
    73
1070
     1
1070
    44
1040
1.0
1070
    74
1070
     0
1000
MTEXTEND
  0
MTEXT
  5
1CB
330
A
100
AcDbEntity
  8
0
  6
Continuous
 62
     7
100
AcDbMText
 10
113.7686767703853
 20
-136.0
 30
0.0
 40
4.5
 41
0.0
 71
     4
 72
     5
  1
\W1.125;\A1;600
 73
     1
 44
1.0
1001
ACAD
1000
MTEXTBEGIN
1070
    73
1070
     1
1070
    44
1040
1.0
1070
    74
1070
     0
1000
MTEXTEND
  0
LINE
  5
1CC
330
A
100
AcDbEntity
  8
0
  6
Continuous
 62
     7
100
AcDbLine
 10
130.9249267578125
 20
-124.0
 30
0.0
 11
130.9249267578125
 21
-140.0
 31
0.0
  0
MTEXT
  5
1CD
330
A
100
AcDbEntity
  8
0
  6
Continuous
 62
     7
100
AcDbMText
 10
-25.77625667554884
 20
-119.363768887954
 30
0.0
 40
4.5
 41
0.0
 71
     4
 72
     5
  1
\W1.065;\A1;STRETCH LIST
 73
     1
 44
1.0
1001
ACAD
1000
MTEXTBEGIN
1070
    73
1070
     1
1070
    44
1040
1.0
1070
    74
1070
     0
1000
MTEXTEND
  0
LINE
  5
1CE
330
A
100
AcDbEntity
  8
0
  6
Continuous
 62
     7
100
AcDbLine
 10
153.4249267578125
 20
-124.0
 30
0.0
 11
153.4249267578125
 21
-140.0
 31
0.0
  0
MTEXT
  5
1CF
330
A
100
AcDbEntity
  8
0
  6
Continuous
 62
     7
100
AcDbMText
 10
138.6805966608508
 20
-119.6279990710167
 30
0.0
 40
4.5
 41
0.0
 71
     4
 72
     5
  1
\W0.833;\A1;（ｍｍ）
 73
     1
 44
1.0
1001
ACAD
1000
MTEXTBEGIN
1070
    73
1070
     1
1070
    44
1040
1.0
1070
    74
1070
     0
1000
MTEXTEND
  0
INSERT
  5
1D0
330
A
100
AcDbEntity
  8
0
  6
ByBlock
100
AcDbBlockReference
  2
MRVZ28-K2-3
 10
-50.0
 20
-70.0
 30
0.0
  0
INSERT
  5
1D1
330
A
100
AcDbEntity
  8
0
  6
ByBlock
100
AcDbBlockReference
  2
MRVZ28-K2-2
 10
-180.0
 20
80.0
 30
0.0
  0
INSERT
  5
1D2
330
A
100
AcDbEntity
  8
0
  6
ByBlock
100
AcDbBlockReference
  2
MRVZ28-K2-1
 10
-50.0
 20
80.0
 30
0.0
  0
MTEXT
  5
1D3
330
A
100
AcDbEntity
  8
0
  6
Continuous
 62
     3
100
AcDbMText
 10
30.88894312599924
 20
128.0720371193364
 30
0.0
 40
6.300000190734863
 41
0.0
 71
     4
 72
     5
  1
\W1.065;\A1;STRETCH LINE
 73
     1
 44
1.0
1001
ACAD
1000
MTEXTBEGIN
1070
    73
1070
     1
1070
    44
1040
1.0
1070
    74
1070
     0
1000
MTEXTEND
  0
MTEXT
  5
1D4
330
A
100
AcDbEntity
  8
0
  6
Continuous
 62
     7
100
AcDbMText
 10
-248.5875008319637
 20
180.5
 30
0.0
 40
6.300000190734863
 41
0.0
 71
     4
 72
     5
  1
{\W0.964;CS-MRVZ28-K2}
 73
     1
 44
1.0
1001
ACAD
1000
ACAD_MTEXT_DEFINED_HEIGHT_BEGIN
1070
    46
1040
0.0
1000
ACAD_MTEXT_DEFINED_HEIGHT_END
1000
MTEXTBEGIN
1070
    73
1070
     1
1070
    44
1040
1.0
1070
    74
1070
     0
1000
MTEXTEND
  0
MTEXT
  5
1D5
330
A
100
AcDbEntity
  8
0
  6
Continuous
 62
     7
100
AcDbMText
 10
-270.5495648127721
 20
190.5
 30
0.0
 40
6.300000190734863
 41
0.0
 71
     4
 72
     5
  1
\W1.048;\A1;RODLESS CYLINDER
 73
     1
 44
1.0
1001
ACAD
1000
MTEXTBEGIN
1070
    73
1070
     1
1070
    44
1040
1.0
1070
    74
1070
     0
1000
MTEXTEND
  0
LINE
  5
1D6
330
A
100
AcDbEntity
  8
0
  6
Continuous
 62
     7
100
AcDbLine
 10
-281.25
 20
175.5
 30
0.0
 11
-161.25
 21
175.5
 31
0.0
  0
LINE
  5
1D7
330
A
100
AcDbEntity
  8
0
  6
Continuous
 62
     7
100
AcDbLine
 10
-161.25
 20
195.5
 30
0.0
 11
-161.25
 21
175.5
 31
0.0
  0
LINE
  5
1D8
330
A
100
AcDbEntity
  8
0
  6
Continuous
 62
     7
100
AcDbLine
 10
162.0999755859375
 20
-175.0
 30
0.0
 11
162.0999755859375
 21
-195.0
 31
0.0
  0
LINE
  5
1D9
330
A
100
AcDbEntity
  8
0
  6
Continuous
 62
     7
100
AcDbLine
 10
162.0999755859375
 20
-175.0
 30
0.0
 11
282.099853515625
 21
-175.0
 31
0.0
  0
MTEXT
  5
1DA
330
A
100
AcDbEntity
  8
0
  6
Continuous
 62
     7
100
AcDbMText
 10
170.2809980228688
 20
-185.0
 30
0.0
 40
9.0
 41
0.0
 71
     4
 72
     5
  1
\W1.121;\A1;KOGANEI CORP.
 73
     1
 44
1.0
1001
ACAD
1000
MTEXTBEGIN
1070
    73
1070
     1
1070
    44
1040
1.0
1070
    74
1070
     0
1000
MTEXTEND
  0
MTEXT
  5
1DB
330
A
100
AcDbEntity
  8
0
  6
Continuous
 62
     7
100
AcDbMText
 10
198.2770240315611
 20
185.5
 30
0.0
 40
6.300000190734863
 41
0.0
 71
     4
 72
     5
  1
\W1.311;\A1;Ver. 1.0
 73
     1
 44
1.0
1001
ACAD
1000
MTEXTBEGIN
1070
    73
1070
     1
1070
    44
1040
1.0
1070
    74
1070
     0
1000
MTEXTEND
  0
LINE
  5
1DC
330
A
100
AcDbEntity
  8
0
  6
Continuous
 62
     7
100
AcDbLine
 10
162.0999755859375
 20
175.5
 30
0.0
 11
282.099853515625
 21
175.5
 31
0.0
  0
LINE
  5
1DD
330
A
100
AcDbEntity
  8
0
  6
Continuous
 62
     7
100
AcDbLine
 10
162.0999755859375
 20
195.5
 30
0.0
 11
162.0999755859375
 21
175.5
 31
0.0
  0
LINE
  5
1DE
330
A
100
AcDbEntity
  8
0
  6
Continuous
 62
     7
100
AcDbLine
 10
282.099853515625
 20
195.5
 30
0.0
 11
282.099853515625
 21
-195.0
 31
0.0
  0
LINE
  5
1DF
330
A
100
AcDbEntity
  8
0
  6
Continuous
 62
     7
100
AcDbLine
 10
-281.25
 20
195.5
 30
0.0
 11
282.099853515625
 21
195.5
 31
0.0
  0
LINE
  5
1E0
330
A
100
AcDbEntity
  8
0
  6
Continuous
 62
     7
100
AcDbLine
 10
-281.25
 20
195.5
 30
0.0
 11
-281.25
 21
-195.0
 31
0.0
  0
LINE
  5
1E1
330
A
100
AcDbEntity
  8
0
  6
Continuous
 62
     7
100
AcDbLine
 10
-281.25
 20
-195.0
 30
0.0
 11
282.099853515625
 21
-195.0
 31
0.0
  0
MTEXT
  5
1E2
330
A
100
AcDbEntity
  8
0
  6
Continuous
 62
     7
100
AcDbMText
 10
-268.2679688147847
 20
160.5
 30
0.0
 40
6.300000190734863
 41
0.0
 71
     4
 72
     5
  1
{\W1.078;MODEL:CS-MRVZ28*ST(100)-K2}
 73
     1
 44
1.0
1001
ACAD
1000
ACAD_MTEXT_DEFINED_HEIGHT_BEGIN
1070
    46
1040
0.0
1000
ACAD_MTEXT_DEFINED_HEIGHT_END
1000
MTEXTBEGIN
1070
    73
1070
     1
1070
    44
1040
1.0
1070
    74
1070
     0
1000
MTEXTEND
  0
ENDSEC
  0
SECTION
  2
OBJECTS
  0
DICTIONARY
  5
19
330
0
100
AcDbDictionary
281
     1
  3
ACAD_COLOR
350
1EB
  3
ACAD_GROUP
350
1A
  3
ACAD_LAYOUT
350
1EE
  3
ACAD_MATERIAL
350
1EA
  3
ACAD_MLINESTYLE
350
1B
  3
ACAD_PLOTSETTINGS
350
1EF
  3
ACAD_PLOTSTYLENAME
350
1E8
  3
ACAD_TABLESTYLE
350
1EC
  3
ACDBHEADERROUNDTRIPXREC
350
1FA
  3
AcDbVariableDictionary
350
1F5
  0
DICTIONARY
  5
1EB
102
{ACAD_REACTORS
330
19
102
}
330
19
100
AcDbDictionary
281
     1
  0
DICTIONARY
  5
1A
102
{ACAD_REACTORS
330
19
102
}
330
19
100
AcDbDictionary
281
     1
  0
DICTIONARY
  5
1EE
102
{ACAD_REACTORS
330
19
102
}
330
19
100
AcDbDictionary
281
     1
  3
Model
350
1F0
  3
レイアウト1
350
1F1
  0
DICTIONARY
  5
1EA
102
{ACAD_REACTORS
330
19
102
}
330
19
100
AcDbDictionary
281
     1
  0
DICTIONARY
  5
1B
102
{ACAD_REACTORS
330
19
102
}
330
19
100
AcDbDictionary
281
     1
  3
STANDARD
350
1C
  0
DICTIONARY
  5
1EF
102
{ACAD_REACTORS
330
19
102
}
330
19
100
AcDbDictionary
281
     1
  0
ACDBDICTIONARYWDFLT
  5
1E8
102
{ACAD_REACTORS
330
19
102
}
330
19
100
AcDbDictionary
281
     1
  3
Normal
350
1E9
100
AcDbDictionaryWithDefault
340
1E9
  0
DICTIONARY
  5
1EC
102
{ACAD_REACTORS
330
19
102
}
330
19
100
AcDbDictionary
281
     1
  3
Standard
350
1ED
  0
DICTIONARY
  5
1FA
102
{ACAD_REACTORS
330
19
102
}
330
19
100
AcDbDictionary
281
     1
  0
DICTIONARY
  5
1F5
102
{ACAD_REACTORS
330
19
102
}
330
19
100
AcDbDictionary
281
     1
  3
CTABLESTYLE
350
1F6
  3
DIMASSOC
350
1F7
  3
PROJECTNAME
350
1F8
  0
LAYOUT
  5
1F0
102
{ACAD_XDICTIONARY
360
1FB
102
}
102
{ACAD_REACTORS
330
1EE
102
}
330
1EE
100
AcDbPlotSettings
  1

  2
\\Tg_salsvr02\DCCF450-41.214
  4

  6

 40
0.0
 41
0.0
 42
0.0
 43
0.0
 44
0.0
 45
0.0
 46
0.0
 47
0.0
 48
0.0
 49
0.0
140
0.0
141
0.0
142
1.0
143
1.0
 70
  1712
 72
     0
 73
     0
 74
     0
  7

 75
     0
147
1.0
148
0.0
149
0.0
100
AcDbLayout
  1
Model
 70
     1
 71
     0
 10
0.0
 20
0.0
 11
12.0
 21
9.0
 12
0.0
 22
0.0
 32
0.0
 14
0.0
 24
0.0
 34
0.0
 15
0.0
 25
0.0
 35
0.0
146
0.0
 13
0.0
 23
0.0
 33
0.0
 16
1.0
 26
0.0
 36
0.0
 17
0.0
 27
1.0
 37
0.0
 76
     0
330
A
  0
LAYOUT
  5
1F1
102
{ACAD_XDICTIONARY
360
1FD
102
}
102
{ACAD_REACTORS
330
1EE
102
}
330
1EE
100
AcDbPlotSettings
  1

  2
\\Tg_salsvr02\DCCF450-41.214
  4

  6

 40
0.0
 41
0.0
 42
0.0
 43
0.0
 44
0.0
 45
0.0
 46
0.0
 47
0.0
 48
0.0
 49
0.0
140
0.0
141
0.0
142
1.0
143
1.0
 70
   688
 72
     0
 73
     0
 74
     5
  7

 75
    16
147
1.0
148
0.0
149
0.0
100
AcDbLayout
  1
レイアウト1
 70
     0
 71
     1
 10
0.0
 20
0.0
 11
12.0
 21
9.0
 12
0.0
 22
0.0
 32
0.0
 14
1.000000000000000E+20
 24
1.000000000000000E+20
 34
1.000000000000000E+20
 15
-1.000000000000000E+20
 25
-1.000000000000000E+20
 35
-1.000000000000000E+20
146
0.0
 13
0.0
 23
0.0
 33
0.0
 16
1.0
 26
0.0
 36
0.0
 17
0.0
 27
1.0
 37
0.0
 76
     0
330
B
  0
MLINESTYLE
  5
1C
102
{ACAD_REACTORS
330
1B
102
}
330
1B
100
AcDbMlineStyle
  2
STANDARD
 70
     0
  3

 62
     0
 51
90.0
 52
90.0
 71
     2
 49
0.5
 62
   256
  6
BYLAYER
 49
-0.5
 62
   256
  6
BYLAYER
  0
ACDBPLACEHOLDER
  5
1E9
102
{ACAD_REACTORS
330
1E8
102
}
330
1E8
  0
TABLESTYLE
  5
1ED
102
{ACAD_REACTORS
330
1EC
102
}
330
1EC
100
AcDbTableStyle
  3
Standard
 70
     0
 71
     0
 40
0.06
 41
0.06
280
     0
281
     0
  7
MX_NOTE_STANDARD
140
0.18
170
     2
 62
     0
 63
     7
283
     0
274
    -2
284
     1
 64
     0
275
    -2
285
     1
 65
     0
276
    -2
286
     1
 66
     0
277
    -2
287
     1
 67
     0
278
    -2
288
     1
 68
     0
279
    -2
289
     1
 69
     0
  7
MX_NOTE_STANDARD
140
0.25
170
     5
 62
     0
 63
     7
283
     0
274
    -2
284
     1
 64
     0
275
    -2
285
     1
 65
     0
276
    -2
286
     1
 66
     0
277
    -2
287
     1
 67
     0
278
    -2
288
     1
 68
     0
279
    -2
289
     1
 69
     0
  7
MX_NOTE_STANDARD
140
0.18
170
     5
 62
     0
 63
     7
283
     0
274
    -2
284
     1
 64
     0
275
    -2
285
     1
 65
     0
276
    -2
286
     1
 66
     0
277
    -2
287
     1
 67
     0
278
    -2
288
     1
 68
     0
279
    -2
289
     1
 69
     0
  0
DICTIONARYVAR
  5
1F6
102
{ACAD_REACTORS
330
1F5
102
}
330
1F5
100
DictionaryVariables
280
     0
  1
STANDARD
  0
DICTIONARYVAR
  5
1F7
102
{ACAD_REACTORS
330
1F5
102
}
330
1F5
100
DictionaryVariables
280
     0
  1
1
  0
DICTIONARYVAR
  5
1F8
102
{ACAD_REACTORS
330
1F5
102
}
330
1F5
100
DictionaryVariables
280
     0
  1

  0
DICTIONARY
  5
1FB
330
1F0
100
AcDbDictionary
280
     1
281
     1
  3
ACAD_XREC_ROUNDTRIP
360
1FC
  0
DICTIONARY
  5
1FD
330
1F1
100
AcDbDictionary
280
     1
281
     1
  3
ACAD_XREC_ROUNDTRIP
360
1FE
  0
XRECORD
  5
1FC
102
{ACAD_REACTORS
330
1FB
102
}
330
1FB
100
AcDbXrecord
280
     1
102
SHADEPLOT
 70
     0
102
SHADEPLOTRESLEVEL
 70
     2
102
SHADEPLOTCUSTOMDPI
 70
   300
  0
XRECORD
  5
1FE
102
{ACAD_REACTORS
330
1FD
102
}
330
1FD
100
AcDbXrecord
280
     1
102
SHADEPLOT
 70
     0
102
SHADEPLOTRESLEVEL
 70
     2
102
SHADEPLOTCUSTOMDPI
 70
   300
  0
ENDSEC
  0
EOF
