  0
SECTION
  2
HEADER
  9
$ACADVER
  1
AC1015
  9
$ACADMAINTVER
 70
    20
  9
$DWGCODEPAGE
  3
ANSI_932
  9
$INSBASE
 10
0.0
 20
0.0
 30
0.0
  9
$EXTMIN
 10
-399.52490234375
 20
-276.5
 30
0.0
  9
$EXTMAX
 10
403.4838270778523
 20
276.5
 30
0.0
  9
$LIMMIN
 10
-399.52490234375
 20
-276.5
  9
$LIMMAX
 10
405.774914741516
 20
277.0000004768372
  9
$ORTHOMODE
 70
     0
  9
$REGENMODE
 70
     1
  9
$FILLMODE
 70
     1
  9
$QTEXTMODE
 70
     0
  9
$MIRRTEXT
 70
     1
  9
$LTSCALE
 40
1.0
  9
$ATTMODE
 70
     1
  9
$TEXTSIZE
 40
3.200000047683715
  9
$TRACEWID
 40
0.05
  9
$TEXTSTYLE
  7
MX_NOTE_STANDARD
  9
$CLAYER
  8
0
  9
$CELTYPE
  6
CONTINUOUS
  9
$CECOLOR
 62
   256
  9
$CELTSCALE
 40
1.0
  9
$DISPSILH
 70
     0
  9
$DIMSCALE
 40
1.0
  9
$DIMASZ
 40
2.5
  9
$DIMEXO
 40
1.5
  9
$DIMDLI
 40
3.75
  9
$DIMRND
 40
0.0
  9
$DIMDLE
 40
0.0
  9
$DIMEXE
 40
1.5
  9
$DIMTP
 40
0.0
  9
$DIMTM
 40
0.0
  9
$DIMTXT
 40
3.200000047683715
  9
$DIMCEN
 40
2.5
  9
$DIMTSZ
 40
0.0
  9
$DIMTOL
 70
     0
  9
$DIMLIM
 70
     0
  9
$DIMTIH
 70
     0
  9
$DIMTOH
 70
     0
  9
$DIMSE1
 70
     0
  9
$DIMSE2
 70
     0
  9
$DIMTAD
 70
     1
  9
$DIMZIN
 70
     8
  9
$DIMBLK
  1

  9
$DIMASO
 70
     1
  9
$DIMSHO
 70
     1
  9
$DIMPOST
  1

  9
$DIMAPOST
  1

  9
$DIMALT
 70
     0
  9
$DIMALTD
 70
     4
  9
$DIMALTF
 40
0.03937007874016
  9
$DIMLFAC
 40
1.0
  9
$DIMTOFL
 70
     1
  9
$DIMTVP
 40
0.0
  9
$DIMTIX
 70
     0
  9
$DIMSOXD
 70
     0
  9
$DIMSAH
 70
     0
  9
$DIMBLK1
  1

  9
$DIMBLK2
  1

  9
$DIMSTYLE
  2
MXDIMSTYLE
  9
$DIMCLRD
 70
     0
  9
$DIMCLRE
 70
     0
  9
$DIMCLRT
 70
     0
  9
$DIMTFAC
 40
1.0
  9
$DIMGAP
 40
1.0
  9
$DIMJUST
 70
     0
  9
$DIMSD1
 70
     0
  9
$DIMSD2
 70
     0
  9
$DIMTOLJ
 70
     1
  9
$DIMTZIN
 70
     0
  9
$DIMALTZ
 70
     0
  9
$DIMALTTZ
 70
     0
  9
$DIMUPT
 70
     1
  9
$DIMDEC
 70
     4
  9
$DIMTDEC
 70
     4
  9
$DIMALTU
 70
     2
  9
$DIMALTTD
 70
     4
  9
$DIMTXSTY
  7
MX_NOTE_STANDARD
  9
$DIMAUNIT
 70
     0
  9
$DIMADEC
 70
     0
  9
$DIMALTRND
 40
0.0
  9
$DIMAZIN
 70
     0
  9
$DIMDSEP
 70
    46
  9
$DIMATFIT
 70
     3
  9
$DIMFRAC
 70
     0
  9
$DIMLDRBLK
  1

  9
$DIMLUNIT
 70
     2
  9
$DIMLWD
 70
    -2
  9
$DIMLWE
 70
    -2
  9
$DIMTMOVE
 70
     0
  9
$LUNITS
 70
     2
  9
$LUPREC
 70
     4
  9
$SKETCHINC
 40
0.1
  9
$FILLETRAD
 40
0.0
  9
$AUNITS
 70
     0
  9
$AUPREC
 70
     0
  9
$MENU
  1
acad
  9
$ELEVATION
 40
0.0
  9
$PELEVATION
 40
0.0
  9
$THICKNESS
 40
0.0
  9
$LIMCHECK
 70
     0
  9
$CHAMFERA
 40
0.0
  9
$CHAMFERB
 40
0.0
  9
$CHAMFERC
 40
0.0
  9
$CHAMFERD
 40
0.0
  9
$SKPOLY
 70
     0
  9
$TDCREATE
 40
2453510.799872685
  9
$TDUCREATE
 40
2453510.424872686
  9
$TDUPDATE
 40
2454034.804736239
  9
$TDUUPDATE
 40
2454034.429736239
  9
$TDINDWG
 40
0.0004014120
  9
$TDUSRTIMER
 40
0.0004014120
  9
$USRTIMER
 70
     1
  9
$ANGBASE
 50
0.0
  9
$ANGDIR
 70
     0
  9
$PDMODE
 70
     0
  9
$PDSIZE
 40
0.0
  9
$PLINEWID
 40
0.0
  9
$SPLFRAME
 70
     0
  9
$SPLINETYPE
 70
     6
  9
$SPLINESEGS
 70
     8
  9
$HANDSEED
  5
360
  9
$SURFTAB1
 70
     6
  9
$SURFTAB2
 70
     6
  9
$SURFTYPE
 70
     6
  9
$SURFU
 70
     6
  9
$SURFV
 70
     6
  9
$UCSBASE
  2

  9
$UCSNAME
  2

  9
$UCSORG
 10
0.0
 20
0.0
 30
0.0
  9
$UCSXDIR
 10
1.0
 20
0.0
 30
0.0
  9
$UCSYDIR
 10
0.0
 20
1.0
 30
0.0
  9
$UCSORTHOREF
  2

  9
$UCSORTHOVIEW
 70
     0
  9
$UCSORGTOP
 10
0.0
 20
0.0
 30
0.0
  9
$UCSORGBOTTOM
 10
0.0
 20
0.0
 30
0.0
  9
$UCSORGLEFT
 10
0.0
 20
0.0
 30
0.0
  9
$UCSORGRIGHT
 10
0.0
 20
0.0
 30
0.0
  9
$UCSORGFRONT
 10
0.0
 20
0.0
 30
0.0
  9
$UCSORGBACK
 10
0.0
 20
0.0
 30
0.0
  9
$PUCSBASE
  2

  9
$PUCSNAME
  2

  9
$PUCSORG
 10
0.0
 20
0.0
 30
0.0
  9
$PUCSXDIR
 10
1.0
 20
0.0
 30
0.0
  9
$PUCSYDIR
 10
0.0
 20
1.0
 30
0.0
  9
$PUCSORTHOREF
  2

  9
$PUCSORTHOVIEW
 70
     0
  9
$PUCSORGTOP
 10
0.0
 20
0.0
 30
0.0
  9
$PUCSORGBOTTOM
 10
0.0
 20
0.0
 30
0.0
  9
$PUCSORGLEFT
 10
0.0
 20
0.0
 30
0.0
  9
$PUCSORGRIGHT
 10
0.0
 20
0.0
 30
0.0
  9
$PUCSORGFRONT
 10
0.0
 20
0.0
 30
0.0
  9
$PUCSORGBACK
 10
0.0
 20
0.0
 30
0.0
  9
$USERI1
 70
     0
  9
$USERI2
 70
     0
  9
$USERI3
 70
     0
  9
$USERI4
 70
     0
  9
$USERI5
 70
     0
  9
$USERR1
 40
0.0
  9
$USERR2
 40
0.0
  9
$USERR3
 40
0.0
  9
$USERR4
 40
0.0
  9
$USERR5
 40
0.0
  9
$WORLDVIEW
 70
     1
  9
$SHADEDGE
 70
     3
  9
$SHADEDIF
 70
    70
  9
$TILEMODE
 70
     1
  9
$MAXACTVP
 70
    16
  9
$PINSBASE
 10
0.0
 20
0.0
 30
0.0
  9
$PLIMCHECK
 70
     0
  9
$PEXTMIN
 10
1.000000000000000E+20
 20
1.000000000000000E+20
 30
1.000000000000000E+20
  9
$PEXTMAX
 10
-1.000000000000000E+20
 20
-1.000000000000000E+20
 30
-1.000000000000000E+20
  9
$PLIMMIN
 10
0.0
 20
0.0
  9
$PLIMMAX
 10
12.0
 20
9.0
  9
$UNITMODE
 70
     0
  9
$VISRETAIN
 70
     0
  9
$PLINEGEN
 70
     1
  9
$PSLTSCALE
 70
     0
  9
$TREEDEPTH
 70
  3020
  9
$CMLSTYLE
  2
STANDARD
  9
$CMLJUST
 70
     0
  9
$CMLSCALE
 40
1.0
  9
$PROXYGRAPHICS
 70
     1
  9
$MEASUREMENT
 70
     0
  9
$CELWEIGHT
370
    -1
  9
$ENDCAPS
280
     0
  9
$JOINSTYLE
280
     0
  9
$LWDISPLAY
290
     0
  9
$INSUNITS
 70
     0
  9
$HYPERLINKBASE
  1

  9
$STYLESHEET
  1

  9
$XEDIT
290
     1
  9
$CEPSNTYPE
380
     0
  9
$PSTYLEMODE
290
     1
  9
$FINGERPRINTGUID
  2
{7C4B524F-A45A-4A4F-92D7-8381BE182764}
  9
$VERSIONGUID
  2
{F5FEE83B-F8A9-4967-8424-E9D28402F68E}
  9
$EXTNAMES
290
     1
  9
$PSVPSCALE
 40
0.0
  9
$OLESTARTUP
290
     0
  0
ENDSEC
  0
SECTION
  2
CLASSES
  0
CLASS
  1
IMAGE
  2
AcDbRasterImage
  3
ISM
 90
    32895
280
     0
281
     1
  0
CLASS
  1
DICTIONARYVAR
  2
AcDbDictionaryVar
  3
ObjectDBX Classes
 90
        0
280
     0
281
     0
  0
CLASS
  1
RASTERVARIABLES
  2
AcDbRasterVariables
  3
ISM
 90
    32768
280
     0
281
     0
  0
CLASS
  1
IMAGEDEF
  2
AcDbRasterImageDef
  3
ISM
 90
    32768
280
     0
281
     0
  0
CLASS
  1
IMAGEDEF_REACTOR
  2
AcDbRasterImageDefReactor
  3
ISM
 90
    32769
280
     0
281
     0
  0
CLASS
  1
IDBUFFER
  2
AcDbIdBuffer
  3
ObjectDBX Classes
 90
    32768
280
     0
281
     0
  0
CLASS
  1
SPATIAL_FILTER
  2
AcDbSpatialFilter
  3
ObjectDBX Classes
 90
    32768
280
     0
281
     0
  0
CLASS
  1
SORTENTSTABLE
  2
AcDbSortentsTable
  3
ObjectDBX Classes
 90
    32768
280
     0
281
     0
  0
CLASS
  1
LAYER_INDEX
  2
AcDbLayerIndex
  3
ObjectDBX Classes
 90
    32768
280
     0
281
     0
  0
CLASS
  1
SPATIAL_INDEX
  2
AcDbSpatialIndex
  3
ObjectDBX Classes
 90
    32768
280
     0
281
     0
  0
CLASS
  1
OBJECT_PTR
  2
CAseDLPNTableRecord
  3
"ASE-LPNTableRecord"
 90
    32768
280
     0
281
     0
  0
CLASS
  1
LAYOUT
  2
AcDbLayout
  3
ObjectDBX Classes
 90
        0
280
     0
281
     0
  0
CLASS
  1
PLOTSETTINGS
  2
AcDbPlotSettings
  3
ObjectDBX Classes
 90
    32768
280
     0
281
     0
  0
CLASS
  1
ACDBDICTIONARYWDFLT
  2
AcDbDictionaryWithDefault
  3
ObjectDBX Classes
 90
        0
280
     0
281
     0
  0
CLASS
  1
ACDBPLACEHOLDER
  2
AcDbPlaceHolder
  3
ObjectDBX Classes
 90
        0
280
     0
281
     0
  0
CLASS
  1
TABLESTYLE
  2
AcDbTableStyle
  3
ObjectDBX Classes
 90
     2047
280
     0
281
     0
  0
ENDSEC
  0
SECTION
  2
TABLES
  0
TABLE
  2
VPORT
  5
7
330
0
100
AcDbSymbolTable
 70
     2
  0
VPORT
  5
35A
330
7
100
AcDbSymbolTableRecord
100
AcDbViewportTableRecord
  2
*Active
 70
     0
 10
0.0
 20
0.0
 11
1.0
 21
1.0
 12
3.125006198883113
 22
90.73226655252279
 13
0.0
 23
0.0
 14
1.0
 24
1.0
 15
0.0
 25
0.0
 16
0.0
 26
0.0
 36
1.0
 17
0.0
 27
0.0
 37
0.0
 40
739.9995331098139
 41
1.308483290488431
 42
50.0
 43
0.0
 44
0.0
 50
0.0
 51
0.0
 71
     0
 72
   100
 73
     1
 74
     1
 75
     0
 76
     0
 77
     0
 78
     0
281
     0
 65
     1
110
0.0
120
0.0
130
0.0
111
1.0
121
0.0
131
0.0
112
0.0
122
1.0
132
0.0
 79
     0
146
0.0
  0
ENDTAB
  0
TABLE
  2
LTYPE
  5
4
330
0
100
AcDbSymbolTable
 70
     3
  0
LTYPE
  5
11
330
4
100
AcDbSymbolTableRecord
100
AcDbLinetypeTableRecord
  2
BYBLOCK
 70
     0
  3

 72
    65
 73
     0
 40
0.0
  0
LTYPE
  5
12
330
4
100
AcDbSymbolTableRecord
100
AcDbLinetypeTableRecord
  2
BYLAYER
 70
     0
  3

 72
    65
 73
     0
 40
0.0
  0
LTYPE
  5
13
330
4
100
AcDbSymbolTableRecord
100
AcDbLinetypeTableRecord
  2
CONTINUOUS
 70
     0
  3
Solid line
 72
    65
 73
     0
 40
0.0
  0
LTYPE
  5
CB
330
4
100
AcDbSymbolTableRecord
100
AcDbLinetypeTableRecord
  2
PHANTOM
 70
     0
  3
Phantom ______  __  __  ______  __  __  ______
 72
    65
 73
     6
 40
30.0
 49
20.0
 74
     0
 49
-2.0
 74
     0
 49
2.0
 74
     0
 49
-2.0
 74
     0
 49
2.0
 74
     0
 49
-2.0
 74
     0
  0
LTYPE
  5
197
330
4
100
AcDbSymbolTableRecord
100
AcDbLinetypeTableRecord
  2
CENTER
 70
     0
  3
Center ____ _ ____ _ ____ _ ____ _ ____ _ ____
 72
    65
 73
     4
 40
26.0
 49
20.0
 74
     0
 49
-2.0
 74
     0
 49
2.0
 74
     0
 49
-2.0
 74
     0
  0
ENDTAB
  0
TABLE
  2
LAYER
  5
2
330
0
100
AcDbSymbolTable
 70
     2
  0
LAYER
  5
14
330
2
100
AcDbSymbolTableRecord
100
AcDbLayerTableRecord
  2
0
 70
     0
 62
     7
  6
CONTINUOUS
370
    -3
390
34A
  0
LAYER
  5
1D
330
2
100
AcDbSymbolTableRecord
100
AcDbLayerTableRecord
  2
DEFPOINTS
 70
     0
 62
     7
  6
CONTINUOUS
290
     0
370
    -3
390
34A
  0
ENDTAB
  0
TABLE
  2
STYLE
  5
3
330
0
100
AcDbSymbolTable
 70
     2
  0
STYLE
  5
17
330
3
100
AcDbSymbolTableRecord
100
AcDbTextStyleTableRecord
  2
MX_NOTE_STANDARD
 70
     0
 40
0.0
 41
1.0
 50
0.0
 71
     0
 42
3.200000047683715
  3
txt.shx
  4
extfont.shx
  0
STYLE
  5
348
330
3
100
AcDbSymbolTableRecord
100
AcDbTextStyleTableRecord
  2
Standard
 70
     0
 40
0.0
 41
1.0
 50
0.0
 71
     0
 42
0.2
  3

  4

  0
ENDTAB
  0
TABLE
  2
VIEW
  5
5
330
0
100
AcDbSymbolTable
 70
     0
  0
ENDTAB
  0
TABLE
  2
UCS
  5
6
330
0
100
AcDbSymbolTable
 70
     0
  0
ENDTAB
  0
TABLE
  2
APPID
  5
8
330
0
100
AcDbSymbolTable
 70
     1
  0
APPID
  5
16
330
8
100
AcDbSymbolTableRecord
100
AcDbRegAppTableRecord
  2
ACAD
 70
     0
  0
ENDTAB
  0
TABLE
  2
DIMSTYLE
  5
9
330
0
100
AcDbSymbolTable
 70
     1
100
AcDbDimStyleTable
 71
     0
  0
DIMSTYLE
105
18
330
9
100
AcDbSymbolTableRecord
100
AcDbDimStyleTableRecord
  2
MXDIMSTYLE
 70
     0
 41
2.5
 42
1.5
 43
3.75
 44
1.5
 73
     0
 74
     0
 77
     1
 78
     8
140
3.200000047683715
141
2.5
143
0.03937007874016
147
1.0
171
     4
172
     1
274
     4
288
     1
340
17
  0
ENDTAB
  0
TABLE
  2
BLOCK_RECORD
  5
1
330
0
100
AcDbSymbolTable
 70
     6
  0
BLOCK_RECORD
  5
A
330
1
100
AcDbSymbolTableRecord
100
AcDbBlockTableRecord
  2
*MODEL_SPACE
340
351
  0
BLOCK_RECORD
  5
B
330
1
100
AcDbSymbolTableRecord
100
AcDbBlockTableRecord
  2
*PAPER_SPACE
340
352
  0
BLOCK_RECORD
  5
1E
330
1
100
AcDbSymbolTableRecord
100
AcDbBlockTableRecord
  2
MRVS22-1
340
0
102
{BLKREFS
331
32E
102
}
  0
BLOCK_RECORD
  5
1F
330
1
100
AcDbSymbolTableRecord
100
AcDbBlockTableRecord
  2
MRVS22-2
340
0
102
{BLKREFS
331
32D
102
}
  0
BLOCK_RECORD
  5
20
330
1
100
AcDbSymbolTableRecord
100
AcDbBlockTableRecord
  2
MRVS22-3
340
0
102
{BLKREFS
331
32C
102
}
  0
BLOCK_RECORD
  5
21
330
1
100
AcDbSymbolTableRecord
100
AcDbBlockTableRecord
  2
MRVS22-4
340
0
102
{BLKREFS
331
32B
102
}
  0
BLOCK_RECORD
  5
22
330
1
100
AcDbSymbolTableRecord
100
AcDbBlockTableRecord
  2
MRVS22-5
340
0
102
{BLKREFS
331
32A
102
}
  0
BLOCK_RECORD
  5
23
330
1
100
AcDbSymbolTableRecord
100
AcDbBlockTableRecord
  2
MRVS22-6
340
0
102
{BLKREFS
331
329
102
}
  0
ENDTAB
  0
ENDSEC
  0
SECTION
  2
BLOCKS
  0
BLOCK
  5
D
330
A
100
AcDbEntity
  8
0
100
AcDbBlockBegin
  2
*MODEL_SPACE
 70
     0
 10
0.0
 20
0.0
 30
0.0
  3
*MODEL_SPACE
  1

  0
ENDBLK
  5
E
330
A
100
AcDbEntity
  8
0
100
AcDbBlockEnd
  0
BLOCK
  5
F
330
B
100
AcDbEntity
 67
     1
  8
0
100
AcDbBlockBegin
  2
*PAPER_SPACE
 70
     0
 10
0.0
 20
0.0
 30
0.0
  3
*PAPER_SPACE
  1

  0
ENDBLK
  5
10
330
B
100
AcDbEntity
 67
     1
  8
0
100
AcDbBlockEnd
  0
BLOCK
  5
24
330
1E
100
AcDbEntity
  8
0
100
AcDbBlockBegin
  2
MRVS22-1
 70
     0
 10
0.0
 20
0.0
 30
0.0
  3
MRVS22-1
  1

  0
LINE
  5
25
330
1E
100
AcDbEntity
  8
0
  6
Continuous
 62
     2
100
AcDbLine
 10
5.5
 20
-53.0
 30
0.0
 11
5.5
 21
-46.0
 31
0.0
  0
LINE
  5
26
330
1E
100
AcDbEntity
  8
0
  6
Continuous
 62
     2
100
AcDbLine
 10
186.5
 20
-53.0
 30
0.0
 11
186.5
 21
-46.0
 31
0.0
  0
LINE
  5
27
330
1E
100
AcDbEntity
  8
0
  6
Continuous
 62
     7
100
AcDbLine
 10
76.64999389648437
 20
-46.20001220703125
 30
0.0
 11
76.64999389648437
 21
-41.79998779296875
 31
0.0
  0
LINE
  5
28
330
1E
100
AcDbEntity
  8
0
  6
Continuous
 62
     7
100
AcDbLine
 10
75.0
 20
8.850006103515625
 30
0.0
 11
75.48114013671875
 21
8.850006103515625
 31
0.0
  0
LINE
  5
29
330
1E
100
AcDbEntity
  8
0
  6
Continuous
 62
     7
100
AcDbLine
 10
75.0
 20
-46.85000610351561
 30
0.0
 11
75.48114013671875
 21
-46.85000610351561
 31
0.0
  0
LINE
  5
2A
330
1E
100
AcDbEntity
  8
0
  6
Continuous
 62
     7
100
AcDbLine
 10
75.0
 20
-41.14999389648438
 30
0.0
 11
75.48114013671875
 21
-41.14999389648438
 31
0.0
  0
LINE
  5
2B
330
1E
100
AcDbEntity
  8
0
  6
Continuous
 62
     7
100
AcDbLine
 10
75.0
 20
3.149993896484375
 30
0.0
 11
75.48114013671875
 21
3.149993896484375
 31
0.0
  0
LINE
  5
2C
330
1E
100
AcDbEntity
  8
0
  6
Continuous
 62
     7
100
AcDbLine
 10
76.64999389648437
 20
3.79998779296875
 30
0.0
 11
76.64999389648437
 21
8.20001220703125
 31
0.0
  0
LINE
  5
2D
330
1E
100
AcDbEntity
  8
0
  6
Continuous
 62
     7
100
AcDbLine
 10
15.35000610351562
 20
-46.20001220703125
 30
0.0
 11
15.35000610351562
 21
-41.79998779296875
 31
0.0
  0
LINE
  5
2E
330
1E
100
AcDbEntity
  8
0
  6
Continuous
 62
     7
100
AcDbLine
 10
17.0
 20
-46.85000610351561
 30
0.0
 11
16.51885986328125
 21
-46.85000610351561
 31
0.0
  0
LINE
  5
2F
330
1E
100
AcDbEntity
  8
0
  6
Continuous
 62
     7
100
AcDbLine
 10
17.0
 20
-41.14999389648438
 30
0.0
 11
16.51885986328125
 21
-41.14999389648438
 31
0.0
  0
LINE
  5
30
330
1E
100
AcDbEntity
  8
0
  6
Continuous
 62
     7
100
AcDbLine
 10
17.0
 20
8.850006103515625
 30
0.0
 11
16.51885986328125
 21
8.850006103515625
 31
0.0
  0
LINE
  5
31
330
1E
100
AcDbEntity
  8
0
  6
Continuous
 62
     7
100
AcDbLine
 10
17.0
 20
3.149993896484375
 30
0.0
 11
16.51885986328125
 21
3.149993896484375
 31
0.0
  0
LINE
  5
32
330
1E
100
AcDbEntity
  8
0
  6
Continuous
 62
     7
100
AcDbLine
 10
15.35000610351562
 20
3.79998779296875
 30
0.0
 11
15.35000610351562
 21
8.20001220703125
 31
0.0
  0
LINE
  5
33
330
1E
100
AcDbEntity
  8
0
  6
Continuous
 62
     2
100
AcDbLine
 10
71.03999328613281
 20
-42.0
 30
0.0
 11
60.96000671386718
 21
-42.0
 31
0.0
  0
LINE
  5
34
330
1E
100
AcDbEntity
  8
0
  6
Continuous
 62
     7
100
AcDbLine
 10
75.0
 20
10.0
 30
0.0
 11
75.0
 21
-48.0
 31
0.0
  0
LINE
  5
35
330
1E
100
AcDbEntity
  8
0
  6
Continuous
 62
     7
100
AcDbLine
 10
17.0
 20
-48.0
 30
0.0
 11
75.0
 21
-48.0
 31
0.0
  0
LINE
  5
36
330
1E
100
AcDbEntity
  8
0
  6
Continuous
 62
     7
100
AcDbLine
 10
17.0
 20
-48.0
 30
0.0
 11
17.0
 21
10.0
 31
0.0
  0
LINE
  5
37
330
1E
100
AcDbEntity
  8
0
  6
Continuous
 62
     7
100
AcDbLine
 10
18.60000610351562
 20
-48.0
 30
0.0
 11
18.60000610351562
 21
10.0
 31
0.0
  0
LINE
  5
38
330
1E
100
AcDbEntity
  8
0
  6
Continuous
 62
     2
100
AcDbLine
 10
46.0
 20
21.78538833835813
 30
0.0
 11
46.0
 21
-61.75981372980562
 31
0.0
  0
LINE
  5
39
330
1E
100
AcDbEntity
  8
0
  6
Continuous
 62
     2
100
AcDbLine
 10
71.03999328613281
 20
4.0
 30
0.0
 11
60.96000671386718
 21
4.0
 31
0.0
  0
LINE
  5
3A
330
1E
100
AcDbEntity
  8
0
  6
Continuous
 62
     7
100
AcDbLine
 10
73.39999389648437
 20
10.0
 30
0.0
 11
73.39999389648437
 21
-48.0
 31
0.0
  0
LINE
  5
3B
330
1E
100
AcDbEntity
  8
0
  6
Continuous
 62
     2
100
AcDbLine
 10
20.96000671386719
 20
4.0
 30
0.0
 11
31.03999328613281
 21
4.0
 31
0.0
  0
LINE
  5
3C
330
1E
100
AcDbEntity
  8
0
  6
Continuous
 62
     2
100
AcDbLine
 10
26.0
 20
9.039993286132812
 30
0.0
 11
26.0
 21
-1.039993286132812
 31
0.0
  0
LINE
  5
3D
330
1E
100
AcDbEntity
  8
0
  6
Continuous
 62
     7
100
AcDbLine
 10
75.0
 20
-37.50001525878906
 30
0.0
 11
179.7014083862304
 21
-37.50001525878906
 31
0.0
  0
LINE
  5
3E
330
1E
100
AcDbEntity
  8
0
  6
Continuous
 62
     2
100
AcDbLine
 10
-9.0
 20
-19.0
 30
0.0
 11
201.0
 21
-19.0
 31
0.0
  0
LINE
  5
3F
330
1E
100
AcDbEntity
  8
0
  6
Continuous
 62
     7
100
AcDbLine
 10
18.60000610351562
 20
-34.0
 30
0.0
 11
73.39999389648437
 21
-34.0
 31
0.0
  0
LINE
  5
40
330
1E
100
AcDbEntity
  8
0
  6
Continuous
 62
     2
100
AcDbLine
 10
26.0
 20
-47.03999328613281
 30
0.0
 11
26.0
 21
-36.96000671386719
 31
0.0
  0
LINE
  5
41
330
1E
100
AcDbEntity
  8
0
  6
Continuous
 62
     2
100
AcDbLine
 10
20.96000671386719
 20
-42.0
 30
0.0
 11
31.03999328613281
 21
-42.0
 31
0.0
  0
LINE
  5
42
330
1E
100
AcDbEntity
  8
0
  6
Continuous
 62
     2
100
AcDbLine
 10
66.0
 20
9.039993286132812
 30
0.0
 11
66.0
 21
-1.039993286132812
 31
0.0
  0
LINE
  5
43
330
1E
100
AcDbEntity
  8
0
  6
Continuous
 62
     7
100
AcDbLine
 10
18.60000610351562
 20
-4.0
 30
0.0
 11
73.39999389648437
 21
-4.0
 31
0.0
  0
LINE
  5
44
330
1E
100
AcDbEntity
  8
0
  6
Continuous
 62
     7
100
AcDbLine
 10
75.0
 20
-0.4999847412109375
 30
0.0
 11
179.7013854980469
 21
-0.4999847412109375
 31
0.0
  0
LINE
  5
45
330
1E
100
AcDbEntity
  8
0
  6
Continuous
 62
     7
100
AcDbLine
 10
17.0
 20
10.0
 30
0.0
 11
75.0
 21
10.0
 31
0.0
  0
LINE
  5
46
330
1E
100
AcDbEntity
  8
0
  6
Continuous
 62
     7
100
AcDbLine
 10
12.29861450195312
 20
-0.4999847412109375
 30
0.0
 11
17.0
 21
-0.4999847412109375
 31
0.0
  0
LINE
  5
47
330
1E
100
AcDbEntity
  8
0
  6
Continuous
 62
     7
100
AcDbLine
 10
12.29859924316406
 20
-37.50001525878906
 30
0.0
 11
17.0
 21
-37.50001525878906
 31
0.0
  0
LINE
  5
48
330
1E
100
AcDbEntity
  8
0
  6
Continuous
 62
     2
100
AcDbLine
 10
66.0
 20
-47.03999328613281
 30
0.0
 11
66.0
 21
-36.96000671386719
 31
0.0
  0
LINE
  5
49
330
1E
100
AcDbEntity
  8
0
  6
Continuous
 62
     7
100
AcDbLine
 10
198.0
 20
11.5
 30
0.0
 11
198.0
 21
-49.5
 31
0.0
  0
LINE
  5
4A
330
1E
100
AcDbEntity
  8
0
  6
Continuous
 62
     2
100
AcDbLine
 10
192.0
 20
-7.28997802734375
 30
0.0
 11
192.0
 21
7.290008544921875
 31
0.0
  0
LINE
  5
4B
330
1E
100
AcDbEntity
  8
0
  6
Continuous
 62
     2
100
AcDbLine
 10
192.0
 20
-30.71002197265625
 30
0.0
 11
192.0
 21
-45.28997802734375
 31
0.0
  0
LINE
  5
4C
330
1E
100
AcDbEntity
  8
0
  6
Continuous
 62
     7
100
AcDbLine
 10
198.0
 20
11.5
 30
0.0
 11
180.0
 21
11.5
 31
0.0
  0
LINE
  5
4D
330
1E
100
AcDbEntity
  8
0
  6
Continuous
 62
     7
100
AcDbLine
 10
198.0
 20
-49.5
 30
0.0
 11
180.0
 21
-49.5
 31
0.0
  0
LINE
  5
4E
330
1E
100
AcDbEntity
  8
0
  6
Continuous
 62
     2
100
AcDbLine
 10
199.2900009155273
 20
-38.0
 30
0.0
 11
184.2783050537109
 21
-38.0
 31
0.0
  0
LINE
  5
4F
330
1E
100
AcDbEntity
  8
0
  6
Continuous
 62
     2
100
AcDbLine
 10
199.2900009155273
 20
0.0
 30
0.0
 11
183.5958557128906
 21
0.0
 31
0.0
  0
LINE
  5
50
330
1E
100
AcDbEntity
  8
0
  6
Continuous
 62
     7
100
AcDbLine
 10
186.5
 20
-49.5
 30
0.0
 11
186.5
 21
11.5
 31
0.0
  0
LINE
  5
51
330
1E
100
AcDbEntity
  8
0
  6
Continuous
 62
     7
100
AcDbLine
 10
178.0
 20
4.0517578125
 30
0.0
 11
178.0
 21
5.54827880859375
 31
0.0
  0
LINE
  5
52
330
1E
100
AcDbEntity
  8
0
  6
Continuous
 62
     7
100
AcDbLine
 10
178.0
 20
-42.0517578125
 30
0.0
 11
178.0
 21
-43.54827880859375
 31
0.0
  0
LINE
  5
53
330
1E
100
AcDbEntity
  8
0
  6
Continuous
 62
     7
100
AcDbLine
 10
178.0
 20
-3.948272705078125
 30
0.0
 11
178.0
 21
-2.45172119140625
 31
0.0
  0
LINE
  5
54
330
1E
100
AcDbEntity
  8
0
  6
Continuous
 62
     7
100
AcDbLine
 10
180.0
 20
11.5
 30
0.0
 11
180.0
 21
-49.5
 31
0.0
  0
LINE
  5
55
330
1E
100
AcDbEntity
  8
0
  6
Continuous
 62
     7
100
AcDbLine
 10
178.0
 20
8.0
 30
0.0
 11
178.0
 21
10.0
 31
0.0
  0
LINE
  5
56
330
1E
100
AcDbEntity
  8
0
  6
Continuous
 62
     7
100
AcDbLine
 10
178.2479124876317
 20
3.756297879145676
 30
0.0
 11
179.9999974799193
 21
3.447358013584562
 31
0.0
  0
LINE
  5
57
330
1E
100
AcDbEntity
  8
0
  6
Continuous
 62
     7
100
AcDbLine
 10
178.2479033383806
 20
7.706261823796921
 30
0.0
 11
180.0000033576416
 21
7.397319308574878
 31
0.0
  0
LINE
  5
58
330
1E
100
AcDbEntity
  8
0
  6
Continuous
 62
     7
100
AcDbLine
 10
178.247904404885
 20
10.29371211890429
 30
0.0
 11
180.0000119376327
 21
10.6026559589568
 31
0.0
  0
LINE
  5
59
330
1E
100
AcDbEntity
  8
0
  6
Continuous
 62
     7
100
AcDbLine
 10
178.2479135799585
 20
-0.2437108467038343
 30
0.0
 11
179.9999985722461
 21
-0.5526507122649491
 31
0.0
  0
LINE
  5
5A
330
1E
100
AcDbEntity
  8
0
  6
Continuous
 62
     7
100
AcDbLine
 10
178.2479091478581
 20
5.843722442356465
 30
0.0
 11
180.0000016536324
 21
6.152663632748044
 31
0.0
  0
LINE
  5
5B
330
1E
100
AcDbEntity
  8
0
  6
Continuous
 62
     7
100
AcDbLine
 10
178.2479080555313
 20
1.843713716506954
 30
0.0
 11
180.0000005613055
 21
2.152654906898532
 31
0.0
  0
LINE
  5
5C
330
1E
100
AcDbEntity
  8
0
  6
Continuous
 62
     7
100
AcDbLine
 10
178.2479069632045
 20
-2.156295009342557
 30
0.0
 11
179.9999994689788
 21
-1.847353818950978
 31
0.0
  0
LINE
  5
5D
330
1E
100
AcDbEntity
  8
0
  6
Continuous
 62
     7
100
AcDbLine
 10
178.2479146722853
 20
-4.243719572553345
 30
0.0
 11
179.9999996645729
 21
-4.55265943811446
 31
0.0
  0
LINE
  5
5E
330
1E
100
AcDbEntity
  8
0
  6
Continuous
 62
     7
100
AcDbLine
 10
198.0
 20
-30.0
 30
0.0
 11
180.0
 21
-30.0
 31
0.0
  0
LINE
  5
5F
330
1E
100
AcDbEntity
  8
0
  6
Continuous
 62
     7
100
AcDbLine
 10
198.0
 20
-8.0
 30
0.0
 11
180.0
 21
-8.0
 31
0.0
  0
LINE
  5
60
330
1E
100
AcDbEntity
  8
0
  6
Continuous
 62
     7
100
AcDbLine
 10
178.0
 20
0.0517578125
 30
0.0
 11
178.0
 21
1.54827880859375
 31
0.0
  0
LINE
  5
61
330
1E
100
AcDbEntity
  8
0
  6
Continuous
 62
     7
100
AcDbLine
 10
178.0
 20
-34.05172729492188
 30
0.0
 11
178.0
 21
-35.54827880859375
 31
0.0
  0
LINE
  5
62
330
1E
100
AcDbEntity
  8
0
  6
Continuous
 62
     7
100
AcDbLine
 10
178.0
 20
-46.0
 30
0.0
 11
178.0
 21
-48.0
 31
0.0
  0
LINE
  5
63
330
1E
100
AcDbEntity
  8
0
  6
Continuous
 62
     7
100
AcDbLine
 10
178.2479071182206
 20
-41.75632058322846
 30
0.0
 11
179.9999996239948
 21
-41.44737939283686
 31
0.0
  0
LINE
  5
64
330
1E
100
AcDbEntity
  8
0
  6
Continuous
 62
     7
100
AcDbLine
 10
178.2479054824561
 20
-45.70628320304922
 30
0.0
 11
180.0000055017171
 21
-45.39734068782717
 31
0.0
  0
LINE
  5
65
330
1E
100
AcDbEntity
  8
0
  6
Continuous
 62
     7
100
AcDbLine
 10
178.2479000466446
 20
-48.29370211937931
 30
0.0
 11
180.000015092879
 21
-48.60264728426228
 31
0.0
  0
LINE
  5
66
330
1E
100
AcDbEntity
  8
0
  6
Continuous
 62
     7
100
AcDbLine
 10
178.2479123031044
 20
-43.84371376766193
 30
0.0
 11
179.9999972953919
 21
-44.15265363322304
 31
0.0
  0
LINE
  5
67
330
1E
100
AcDbEntity
  8
0
  6
Continuous
 62
     7
100
AcDbLine
 10
178.2479082105474
 20
-37.75631185737893
 30
0.0
 11
180.0000007163216
 21
-37.44737066698736
 31
0.0
  0
LINE
  5
68
330
1E
100
AcDbEntity
  8
0
  6
Continuous
 62
     7
100
AcDbLine
 10
178.2479059114558
 20
-39.84373509575926
 30
0.0
 11
179.9999909037433
 21
-40.15267496132036
 31
0.0
  0
LINE
  5
69
330
1E
100
AcDbEntity
  8
0
  6
Continuous
 62
     7
100
AcDbLine
 10
178.2479093028741
 20
-33.75630313152942
 30
0.0
 11
179.9999942951617
 21
-33.44736326596831
 31
0.0
  0
LINE
  5
6A
330
1E
100
AcDbEntity
  8
0
  6
Continuous
 62
     7
100
AcDbLine
 10
178.2479048191289
 20
-35.84372636990975
 30
0.0
 11
179.9999898114165
 21
-36.15266623547087
 31
0.0
  0
LINE
  5
6B
330
1E
100
AcDbEntity
  8
0
  6
Continuous
 62
     7
100
AcDbLine
 10
178.0
 20
-38.0517578125
 30
0.0
 11
178.0
 21
-39.54827880859375
 31
0.0
  0
LINE
  5
6C
330
1E
100
AcDbEntity
  8
0
  6
Continuous
 62
     7
100
AcDbLine
 10
14.0
 20
-38.0517578125
 30
0.0
 11
14.0
 21
-39.54827880859375
 31
0.0
  0
LINE
  5
6D
330
1E
100
AcDbEntity
  8
0
  6
Continuous
 62
     7
100
AcDbLine
 10
13.75210283266824
 20
-35.84371509230187
 30
0.0
 11
12.00001784038068
 21
-36.15265495786298
 31
0.0
  0
LINE
  5
6E
330
1E
100
AcDbEntity
  8
0
  6
Continuous
 62
     7
100
AcDbLine
 10
13.75210099858395
 20
-33.75629938216389
 30
0.0
 11
12.00001600629639
 21
-33.44735951660277
 31
0.0
  0
LINE
  5
6F
330
1E
100
AcDbEntity
  8
0
  6
Continuous
 62
     7
100
AcDbLine
 10
13.75210174034146
 20
-39.84372381815138
 30
0.0
 11
12.00001674805389
 21
-40.15266368371249
 31
0.0
  0
LINE
  5
70
330
1E
100
AcDbEntity
  8
0
  6
Continuous
 62
     7
100
AcDbLine
 10
13.75210209091074
 20
-37.7563081080134
 30
0.0
 11
12.00000207164976
 21
-37.44736559279136
 31
0.0
  0
LINE
  5
71
330
1E
100
AcDbEntity
  8
0
  6
Continuous
 62
     7
100
AcDbLine
 10
13.75209534869282
 20
-43.84370249005406
 30
0.0
 11
12.00001035640525
 21
-44.15264235561516
 31
0.0
  0
LINE
  5
72
330
1E
100
AcDbEntity
  8
0
  6
Continuous
 62
     7
100
AcDbLine
 10
13.75210760515256
 20
-48.29369084177142
 30
0.0
 11
11.99999255891816
 21
-48.60263600665438
 31
0.0
  0
LINE
  5
73
330
1E
100
AcDbEntity
  8
0
  6
Continuous
 62
     7
100
AcDbLine
 10
13.75209730551523
 20
-45.70627812885321
 30
0.0
 11
11.99999728625425
 21
-45.39733561363119
 31
0.0
  0
LINE
  5
74
330
1E
100
AcDbEntity
  8
0
  6
Continuous
 62
     7
100
AcDbLine
 10
13.75210318323752
 20
-41.7563168338629
 30
0.0
 11
12.00000316397654
 21
-41.44737431864086
 31
0.0
  0
LINE
  5
75
330
1E
100
AcDbEntity
  8
0
  6
Continuous
 62
     7
100
AcDbLine
 10
14.0
 20
-46.0
 30
0.0
 11
14.0
 21
-48.0
 31
0.0
  0
LINE
  5
76
330
1E
100
AcDbEntity
  8
0
  6
Continuous
 62
     7
100
AcDbLine
 10
14.0
 20
-34.05172729492188
 30
0.0
 11
14.0
 21
-35.54827880859375
 31
0.0
  0
LINE
  5
77
330
1E
100
AcDbEntity
  8
0
  6
Continuous
 62
     7
100
AcDbLine
 10
14.0
 20
0.0517578125
 30
0.0
 11
14.0
 21
1.54827880859375
 31
0.0
  0
LINE
  5
78
330
1E
100
AcDbEntity
  8
0
  6
Continuous
 62
     7
100
AcDbLine
 10
-6.0
 20
-8.0
 30
0.0
 11
12.0
 21
-8.0
 31
0.0
  0
LINE
  5
79
330
1E
100
AcDbEntity
  8
0
  6
Continuous
 62
     7
100
AcDbLine
 10
-6.0
 20
-30.0
 30
0.0
 11
12.0
 21
-30.0
 31
0.0
  0
LINE
  5
7A
330
1E
100
AcDbEntity
  8
0
  6
Continuous
 62
     7
100
AcDbLine
 10
13.75209297951187
 20
-4.243708294945464
 30
0.0
 11
12.00000798722431
 21
-4.552648160506577
 31
0.0
  0
LINE
  5
7B
330
1E
100
AcDbEntity
  8
0
  6
Continuous
 62
     7
100
AcDbLine
 10
13.75209582476691
 20
-2.15628993514656
 30
0.0
 11
12.00001083247935
 21
-1.847350069585445
 31
0.0
  0
LINE
  5
7C
330
1E
100
AcDbEntity
  8
0
  6
Continuous
 62
     7
100
AcDbLine
 10
13.75209473244012
 20
1.843718790702951
 30
0.0
 11
12.00000974015256
 21
2.152658656264065
 31
0.0
  0
LINE
  5
7D
330
1E
100
AcDbEntity
  8
0
  6
Continuous
 62
     7
100
AcDbLine
 10
13.75208834079149
 20
5.843697462605632
 30
0.0
 11
12.00000334850392
 21
6.152637328166748
 31
0.0
  0
LINE
  5
7E
330
1E
100
AcDbEntity
  8
0
  6
Continuous
 62
     7
100
AcDbLine
 10
13.75209407183865
 20
-0.243699569095952
 30
0.0
 11
12.00000907955109
 21
-0.5526394346570669
 31
0.0
  0
LINE
  5
7F
330
1E
100
AcDbEntity
  8
0
  6
Continuous
 62
     7
100
AcDbLine
 10
13.75210059725122
 20
10.293685814323
 30
0.0
 11
11.99998555101683
 21
10.60263097920596
 31
0.0
  0
LINE
  5
80
330
1E
100
AcDbEntity
  8
0
  6
Continuous
 62
     7
100
AcDbLine
 10
13.75210431341657
 20
7.706273101404804
 30
0.0
 11
12.00000429415559
 21
7.397330586182761
 31
0.0
  0
LINE
  5
81
330
1E
100
AcDbEntity
  8
0
  6
Continuous
 62
     7
100
AcDbLine
 10
13.75209516416544
 20
3.756309156753559
 30
0.0
 11
12.00001017187787
 21
3.447369291192444
 31
0.0
  0
LINE
  5
82
330
1E
100
AcDbEntity
  8
0
  6
Continuous
 62
     7
100
AcDbLine
 10
14.0
 20
8.0
 30
0.0
 11
14.0
 21
10.0
 31
0.0
  0
LINE
  5
83
330
1E
100
AcDbEntity
  8
0
  6
Continuous
 62
     7
100
AcDbLine
 10
12.0
 20
11.5
 30
0.0
 11
12.0
 21
-49.5
 31
0.0
  0
LINE
  5
84
330
1E
100
AcDbEntity
  8
0
  6
Continuous
 62
     7
100
AcDbLine
 10
14.0
 20
-3.948272705078125
 30
0.0
 11
14.0
 21
-2.45172119140625
 31
0.0
  0
LINE
  5
85
330
1E
100
AcDbEntity
  8
0
  6
Continuous
 62
     7
100
AcDbLine
 10
14.0
 20
-42.0517578125
 30
0.0
 11
14.0
 21
-43.54827880859375
 31
0.0
  0
LINE
  5
86
330
1E
100
AcDbEntity
  8
0
  6
Continuous
 62
     7
100
AcDbLine
 10
14.0
 20
4.0517578125
 30
0.0
 11
14.0
 21
5.54827880859375
 31
0.0
  0
LINE
  5
87
330
1E
100
AcDbEntity
  8
0
  6
Continuous
 62
     7
100
AcDbLine
 10
5.5
 20
-49.5
 30
0.0
 11
5.5
 21
11.5
 31
0.0
  0
LINE
  5
88
330
1E
100
AcDbEntity
  8
0
  6
Continuous
 62
     2
100
AcDbLine
 10
-7.290008544921875
 20
0.0
 30
0.0
 11
8.404144287109375
 21
0.0
 31
0.0
  0
LINE
  5
89
330
1E
100
AcDbEntity
  8
0
  6
Continuous
 62
     2
100
AcDbLine
 10
-7.290008544921875
 20
-38.0
 30
0.0
 11
7.721694946289062
 21
-38.0
 31
0.0
  0
LINE
  5
8A
330
1E
100
AcDbEntity
  8
0
  6
Continuous
 62
     7
100
AcDbLine
 10
-6.0
 20
-49.5
 30
0.0
 11
12.0
 21
-49.5
 31
0.0
  0
LINE
  5
8B
330
1E
100
AcDbEntity
  8
0
  6
Continuous
 62
     7
100
AcDbLine
 10
-6.0
 20
11.5
 30
0.0
 11
12.0
 21
11.5
 31
0.0
  0
LINE
  5
8C
330
1E
100
AcDbEntity
  8
0
  6
Continuous
 62
     2
100
AcDbLine
 10
0.0
 20
-30.71002197265625
 30
0.0
 11
0.0
 21
-45.28997802734375
 31
0.0
  0
LINE
  5
8D
330
1E
100
AcDbEntity
  8
0
  6
Continuous
 62
     2
100
AcDbLine
 10
0.0
 20
-7.28997802734375
 30
0.0
 11
0.0
 21
7.290008544921875
 31
0.0
  0
LINE
  5
8E
330
1E
100
AcDbEntity
  8
0
  6
Continuous
 62
     7
100
AcDbLine
 10
-6.0
 20
11.5
 30
0.0
 11
-6.0
 21
-49.5
 31
0.0
  0
LINE
  5
8F
330
1E
100
AcDbEntity
  8
0
  6
Continuous
 62
     7
100
AcDbLine
 10
193.0
 20
-55.69999694824218
 30
0.0
 11
-1.0
 21
-55.69999694824218
 31
0.0
  0
LINE
  5
90
330
1E
100
AcDbEntity
  8
0
  6
Continuous
 62
     7
100
AcDbLine
 10
193.0
 20
-55.69999694824218
 30
0.0
 11
193.0
 21
-49.5
 31
0.0
  0
LINE
  5
91
330
1E
100
AcDbEntity
  8
0
  6
Continuous
 62
     7
100
AcDbLine
 10
-1.0
 20
-55.69999694824218
 30
0.0
 11
-1.0
 21
-49.5
 31
0.0
  0
LINE
  5
92
330
1E
100
AcDbEntity
  8
0
  6
Continuous
 62
     7
100
AcDbLine
 10
180.0
 20
-48.5
 30
0.0
 11
12.58204650878906
 21
-48.5
 31
0.0
  0
ARC
  5
93
330
1E
100
AcDbEntity
  8
0
  6
Continuous
 62
     7
100
AcDbCircle
 10
74.89483642578125
 20
-44.41973876953125
 30
0.0
 40
2.5
100
AcDbArc
 50
283.5636671870891
 51
314.5931516996599
  0
ARC
  5
94
330
1E
100
AcDbEntity
  8
0
  6
Continuous
 62
     7
100
AcDbCircle
 10
74.89483642578125
 20
5.58026123046875
 30
0.0
 40
2.5
100
AcDbArc
 50
283.5636671870891
 51
314.5931516996599
  0
ARC
  5
95
330
1E
100
AcDbEntity
  8
0
  6
Continuous
 62
     7
100
AcDbCircle
 10
74.89483642578125
 20
6.41973876953125
 30
0.0
 40
2.5
100
AcDbArc
 50
45.40684830034007
 51
76.43633281291086
  0
ARC
  5
96
330
1E
100
AcDbEntity
  8
0
  6
Continuous
 62
     7
100
AcDbCircle
 10
74.89483642578125
 20
-43.58026123046875
 30
0.0
 40
2.5
100
AcDbArc
 50
45.40684830034007
 51
76.43633281291086
  0
ARC
  5
97
330
1E
100
AcDbEntity
  8
0
  6
Continuous
 62
     7
100
AcDbCircle
 10
17.10516357421875
 20
-44.41973876953125
 30
0.0
 40
2.5
100
AcDbArc
 50
225.4068467064783
 51
256.4363346341437
  0
ARC
  5
98
330
1E
100
AcDbEntity
  8
0
  6
Continuous
 62
     7
100
AcDbCircle
 10
17.10516357421875
 20
-43.58026123046875
 30
0.0
 40
2.5
100
AcDbArc
 50
103.5636653658563
 51
134.5931532935217
  0
ARC
  5
99
330
1E
100
AcDbEntity
  8
0
  6
Continuous
 62
     7
100
AcDbCircle
 10
17.10516357421875
 20
5.58026123046875
 30
0.0
 40
2.5
100
AcDbArc
 50
225.4068467064783
 51
256.4363346341437
  0
ARC
  5
9A
330
1E
100
AcDbEntity
  8
0
  6
Continuous
 62
     7
100
AcDbCircle
 10
17.10516357421875
 20
6.41973876953125
 30
0.0
 40
2.5
100
AcDbArc
 50
103.5636653658563
 51
134.5931532935217
  0
CIRCLE
  5
9B
330
1E
100
AcDbEntity
  8
0
  6
Continuous
 62
     7
100
AcDbCircle
 10
26.0
 20
4.0
 30
0.0
 40
2.0
  0
CIRCLE
  5
9C
330
1E
100
AcDbEntity
  8
0
  6
Continuous
 62
     2
100
AcDbCircle
 10
26.0
 20
4.0
 30
0.0
 40
2.5
  0
CIRCLE
  5
9D
330
1E
100
AcDbEntity
  8
0
  6
Continuous
 62
     2
100
AcDbCircle
 10
66.0
 20
4.0
 30
0.0
 40
2.5
  0
CIRCLE
  5
9E
330
1E
100
AcDbEntity
  8
0
  6
Continuous
 62
     7
100
AcDbCircle
 10
66.0
 20
4.0
 30
0.0
 40
2.0
  0
CIRCLE
  5
9F
330
1E
100
AcDbEntity
  8
0
  6
Continuous
 62
     7
100
AcDbCircle
 10
26.0
 20
-42.0
 30
0.0
 40
2.0
  0
CIRCLE
  5
A0
330
1E
100
AcDbEntity
  8
0
  6
Continuous
 62
     2
100
AcDbCircle
 10
26.0
 20
-42.0
 30
0.0
 40
2.5
  0
CIRCLE
  5
A1
330
1E
100
AcDbEntity
  8
0
  6
Continuous
 62
     2
100
AcDbCircle
 10
66.0
 20
-42.0
 30
0.0
 40
2.5
  0
CIRCLE
  5
A2
330
1E
100
AcDbEntity
  8
0
  6
Continuous
 62
     7
100
AcDbCircle
 10
66.0
 20
-42.0
 30
0.0
 40
2.0
  0
CIRCLE
  5
A3
330
1E
100
AcDbEntity
  8
0
  6
Continuous
 62
     7
100
AcDbCircle
 10
192.0
 20
0.0
 30
0.0
 40
4.75
  0
CIRCLE
  5
A4
330
1E
100
AcDbEntity
  8
0
  6
Continuous
 62
     7
100
AcDbCircle
 10
192.0
 20
0.0
 30
0.0
 40
2.900000095367431
  0
CIRCLE
  5
A5
330
1E
100
AcDbEntity
  8
0
  6
Continuous
 62
     7
100
AcDbCircle
 10
192.0
 20
-38.0
 30
0.0
 40
4.75
  0
ARC
  5
A6
330
1E
100
AcDbEntity
  8
0
  6
Continuous
 62
     7
100
AcDbCircle
 10
178.3000030517578
 20
-2.45172119140625
 30
0.0
 40
0.3000000119209289
100
AcDbArc
 50
100.0000005060238
 51
180.0000050089563
  0
ARC
  5
A7
330
1E
100
AcDbEntity
  8
0
  6
Continuous
 62
     7
100
AcDbCircle
 10
178.3000030517578
 20
0.0517578125
 30
0.0
 40
0.3000000119209289
100
AcDbArc
 50
179.999991348578
 51
260.0000026816997
  0
ARC
  5
A8
330
1E
100
AcDbEntity
  8
0
  6
Continuous
 62
     7
100
AcDbCircle
 10
178.3000030517578
 20
1.54827880859375
 30
0.0
 40
0.3000000119209289
100
AcDbArc
 50
100.0000005060238
 51
180.0000050089563
  0
CIRCLE
  5
A9
330
1E
100
AcDbEntity
  8
0
  6
Continuous
 62
     7
100
AcDbCircle
 10
192.0
 20
-38.0
 30
0.0
 40
2.900000095367431
  0
ARC
  5
AA
330
1E
100
AcDbEntity
  8
0
  6
Continuous
 62
     7
100
AcDbCircle
 10
178.3000030517578
 20
4.0517578125
 30
0.0
 40
0.3000000119209289
100
AcDbArc
 50
179.999991348578
 51
260.0000026816997
  0
ARC
  5
AB
330
1E
100
AcDbEntity
  8
0
  6
Continuous
 62
     7
100
AcDbCircle
 10
178.3000030517578
 20
8.001708984375
 30
0.0
 40
0.3000000119209289
100
AcDbArc
 50
179.999991348578
 51
260.0000026816997
  0
ARC
  5
AC
330
1E
100
AcDbEntity
  8
0
  6
Continuous
 62
     7
100
AcDbCircle
 10
178.3000030517578
 20
9.998260498046876
 30
0.0
 40
0.3000000119209289
100
AcDbArc
 50
100.0000005060238
 51
180.0000050089563
  0
ARC
  5
AD
330
1E
100
AcDbEntity
  8
0
  6
Continuous
 62
     7
100
AcDbCircle
 10
178.3000030517578
 20
5.54827880859375
 30
0.0
 40
0.3000000119209289
100
AcDbArc
 50
100.0000005060238
 51
180.0000050089563
  0
ARC
  5
AE
330
1E
100
AcDbEntity
  8
0
  6
Continuous
 62
     7
100
AcDbCircle
 10
178.3000030517578
 20
-43.54827880859375
 30
0.0
 40
0.3000000119209289
100
AcDbArc
 50
179.999991348578
 51
260.0000026816997
  0
ARC
  5
AF
330
1E
100
AcDbEntity
  8
0
  6
Continuous
 62
     7
100
AcDbCircle
 10
178.3000030517578
 20
-47.99826049804688
 30
0.0
 40
0.3000000119209289
100
AcDbArc
 50
179.999991348578
 51
260.0000026816997
  0
ARC
  5
B0
330
1E
100
AcDbEntity
  8
0
  6
Continuous
 62
     7
100
AcDbCircle
 10
178.3000030517578
 20
-46.00170898437499
 30
0.0
 40
0.3000000119209289
100
AcDbArc
 50
100.0000005060238
 51
180.0000050089563
  0
ARC
  5
B1
330
1E
100
AcDbEntity
  8
0
  6
Continuous
 62
     7
100
AcDbCircle
 10
178.3000030517578
 20
-42.0517578125
 30
0.0
 40
0.3000000119209289
100
AcDbArc
 50
100.0000005060238
 51
180.0000050089563
  0
ARC
  5
B2
330
1E
100
AcDbEntity
  8
0
  6
Continuous
 62
     7
100
AcDbCircle
 10
178.3000030517578
 20
-39.54827880859375
 30
0.0
 40
0.3000000119209289
100
AcDbArc
 50
179.999991348578
 51
260.0000026816997
  0
ARC
  5
B3
330
1E
100
AcDbEntity
  8
0
  6
Continuous
 62
     7
100
AcDbCircle
 10
178.3000030517578
 20
-38.0517578125
 30
0.0
 40
0.3000000119209289
100
AcDbArc
 50
100.0000005060238
 51
180.0000050089563
  0
ARC
  5
B4
330
1E
100
AcDbEntity
  8
0
  6
Continuous
 62
     7
100
AcDbCircle
 10
178.3000030517578
 20
-35.54827880859375
 30
0.0
 40
0.3000000119209289
100
AcDbArc
 50
179.999991348578
 51
260.0000026816997
  0
ARC
  5
B5
330
1E
100
AcDbEntity
  8
0
  6
Continuous
 62
     7
100
AcDbCircle
 10
178.3000030517578
 20
-34.05172729492188
 30
0.0
 40
0.3000000119209289
100
AcDbArc
 50
100.0000005060238
 51
180.0000050089563
  0
ARC
  5
B6
330
1E
100
AcDbEntity
  8
0
  6
Continuous
 62
     7
100
AcDbCircle
 10
178.3000030517578
 20
-3.948272705078125
 30
0.0
 40
0.3000000119209289
100
AcDbArc
 50
179.999991348578
 51
260.0000026816997
  0
ARC
  5
B7
330
1E
100
AcDbEntity
  8
0
  6
Continuous
 62
     7
100
AcDbCircle
 10
13.69999694824219
 20
-3.948272705078125
 30
0.0
 40
0.3000000119209289
100
AcDbArc
 50
280.0000023272566
 51
0.0000050089565381
  0
ARC
  5
B8
330
1E
100
AcDbEntity
  8
0
  6
Continuous
 62
     7
100
AcDbCircle
 10
13.69999694824219
 20
-34.05172729492188
 30
0.0
 40
0.3000000119209289
100
AcDbArc
 50
359.9999949910439
 51
79.99999767274336
  0
ARC
  5
B9
330
1E
100
AcDbEntity
  8
0
  6
Continuous
 62
     7
100
AcDbCircle
 10
13.69999694824219
 20
-35.54827880859375
 30
0.0
 40
0.3000000119209289
100
AcDbArc
 50
280.0000023272566
 51
0.0000050089565381
  0
ARC
  5
BA
330
1E
100
AcDbEntity
  8
0
  6
Continuous
 62
     7
100
AcDbCircle
 10
13.69999694824219
 20
-38.0517578125
 30
0.0
 40
0.3000000119209289
100
AcDbArc
 50
359.9999949910439
 51
79.99999767274336
  0
ARC
  5
BB
330
1E
100
AcDbEntity
  8
0
  6
Continuous
 62
     7
100
AcDbCircle
 10
13.69999694824219
 20
-39.54827880859375
 30
0.0
 40
0.3000000119209289
100
AcDbArc
 50
280.0000023272566
 51
0.0000050089565381
  0
ARC
  5
BC
330
1E
100
AcDbEntity
  8
0
  6
Continuous
 62
     7
100
AcDbCircle
 10
13.69999694824219
 20
-42.0517578125
 30
0.0
 40
0.3000000119209289
100
AcDbArc
 50
359.9999949910439
 51
79.99999767274336
  0
ARC
  5
BD
330
1E
100
AcDbEntity
  8
0
  6
Continuous
 62
     7
100
AcDbCircle
 10
13.69999694824219
 20
-46.00170898437499
 30
0.0
 40
0.3000000119209289
100
AcDbArc
 50
359.9999949910439
 51
79.99999767274336
  0
ARC
  5
BE
330
1E
100
AcDbEntity
  8
0
  6
Continuous
 62
     7
100
AcDbCircle
 10
13.69999694824219
 20
-47.99826049804688
 30
0.0
 40
0.3000000119209289
100
AcDbArc
 50
280.0000023272566
 51
0.0000050089565381
  0
ARC
  5
BF
330
1E
100
AcDbEntity
  8
0
  6
Continuous
 62
     7
100
AcDbCircle
 10
13.69999694824219
 20
-43.54827880859375
 30
0.0
 40
0.3000000119209289
100
AcDbArc
 50
280.0000023272566
 51
0.0000050089565381
  0
ARC
  5
C0
330
1E
100
AcDbEntity
  8
0
  6
Continuous
 62
     7
100
AcDbCircle
 10
13.69999694824219
 20
5.54827880859375
 30
0.0
 40
0.3000000119209289
100
AcDbArc
 50
359.9999949910439
 51
79.99999767274336
  0
ARC
  5
C1
330
1E
100
AcDbEntity
  8
0
  6
Continuous
 62
     7
100
AcDbCircle
 10
13.69999694824219
 20
9.998260498046876
 30
0.0
 40
0.3000000119209289
100
AcDbArc
 50
359.9999949910439
 51
79.99999767274336
  0
ARC
  5
C2
330
1E
100
AcDbEntity
  8
0
  6
Continuous
 62
     7
100
AcDbCircle
 10
13.69999694824219
 20
8.001708984375
 30
0.0
 40
0.3000000119209289
100
AcDbArc
 50
280.0000023272566
 51
0.0000050089565381
  0
ARC
  5
C3
330
1E
100
AcDbEntity
  8
0
  6
Continuous
 62
     7
100
AcDbCircle
 10
13.69999694824219
 20
4.0517578125
 30
0.0
 40
0.3000000119209289
100
AcDbArc
 50
280.0000023272566
 51
0.0000050089565381
  0
CIRCLE
  5
C4
330
1E
100
AcDbEntity
  8
0
  6
Continuous
 62
     7
100
AcDbCircle
 10
0.0
 20
-38.0
 30
0.0
 40
2.900000095367431
  0
ARC
  5
C5
330
1E
100
AcDbEntity
  8
0
  6
Continuous
 62
     7
100
AcDbCircle
 10
13.69999694824219
 20
1.54827880859375
 30
0.0
 40
0.3000000119209289
100
AcDbArc
 50
359.9999949910439
 51
79.99999767274336
  0
ARC
  5
C6
330
1E
100
AcDbEntity
  8
0
  6
Continuous
 62
     7
100
AcDbCircle
 10
13.69999694824219
 20
0.0517578125
 30
0.0
 40
0.3000000119209289
100
AcDbArc
 50
280.0000023272566
 51
0.0000050089565381
  0
ARC
  5
C7
330
1E
100
AcDbEntity
  8
0
  6
Continuous
 62
     7
100
AcDbCircle
 10
13.69999694824219
 20
-2.45172119140625
 30
0.0
 40
0.3000000119209289
100
AcDbArc
 50
359.9999949910439
 51
79.99999767274336
  0
CIRCLE
  5
C8
330
1E
100
AcDbEntity
  8
0
  6
Continuous
 62
     7
100
AcDbCircle
 10
0.0
 20
-38.0
 30
0.0
 40
4.75
  0
CIRCLE
  5
C9
330
1E
100
AcDbEntity
  8
0
  6
Continuous
 62
     7
100
AcDbCircle
 10
0.0
 20
0.0
 30
0.0
 40
2.900000095367431
  0
CIRCLE
  5
CA
330
1E
100
AcDbEntity
  8
0
  6
Continuous
 62
     7
100
AcDbCircle
 10
0.0
 20
0.0
 30
0.0
 40
4.75
  0
LINE
  5
CC
330
1E
100
AcDbEntity
  8
0
  6
PHANTOM
 62
     3
100
AcDbLine
 10
116.0
 20
51.0
 30
0.0
 11
116.0
 21
-75.09578920648812
 31
0.0
  0
ENDBLK
  5
CD
330
1E
100
AcDbEntity
  8
0
100
AcDbBlockEnd
  0
BLOCK
  5
CE
330
1F
100
AcDbEntity
  8
0
100
AcDbBlockBegin
  2
MRVS22-2
 70
     0
 10
0.0
 20
0.0
 30
0.0
  3
MRVS22-2
  1

  0
CIRCLE
  5
CF
330
1F
100
AcDbEntity
  8
0
  6
Continuous
 62
     7
100
AcDbCircle
 10
26.0
 20
8.0
 30
0.0
 40
2.0
  0
CIRCLE
  5
D0
330
1F
100
AcDbEntity
  8
0
  6
Continuous
 62
     7
100
AcDbCircle
 10
16.5
 20
-28.69998168945313
 30
0.0
 40
5.5
  0
ARC
  5
D1
330
1F
100
AcDbEntity
  8
0
  6
Continuous
 62
     7
100
AcDbCircle
 10
9.0
 20
-55.20001220703125
 30
0.0
 40
0.5
100
AcDbArc
 50
269.9999949910439
 51
0.0000025044781673
  0
CIRCLE
  5
D2
330
1F
100
AcDbEntity
  8
0
  6
Continuous
 62
     7
100
AcDbCircle
 10
26.0
 20
-46.0
 30
0.0
 40
2.0
  0
ARC
  5
D3
330
1F
100
AcDbEntity
  8
0
  6
Continuous
 62
     7
100
AcDbCircle
 10
6.0
 20
-53.10000610351561
 30
0.0
 40
2.099999904632568
100
AcDbArc
 50
359.9999956742889
 51
180.0000006832453
  0
ARC
  5
D4
330
1F
100
AcDbEntity
  8
0
  6
Continuous
 62
     7
100
AcDbCircle
 10
3.0
 20
-55.20001220703125
 30
0.0
 40
0.5
100
AcDbArc
 50
179.9999974955218
 51
270.0000086514222
  0
ARC
  5
D5
330
1F
100
AcDbEntity
  8
0
  6
Continuous
 62
     7
100
AcDbCircle
 10
29.5
 20
9.0
 30
0.0
 40
1.0
100
AcDbArc
 50
359.9999956742889
 51
90.00000500895634
  0
ARC
  5
D6
330
1F
100
AcDbEntity
  8
0
  6
Continuous
 62
     7
100
AcDbCircle
 10
29.5
 20
-47.0
 30
0.0
 40
1.0
100
AcDbArc
 50
269.9999949910439
 51
359.9999956742889
  0
ARC
  5
D7
330
1F
100
AcDbEntity
  8
0
  6
Continuous
 62
     7
100
AcDbCircle
 10
28.0
 20
-48.5
 30
0.0
 40
1.0
100
AcDbArc
 50
269.9999949910439
 51
359.9999956742889
  0
ARC
  5
D8
330
1F
100
AcDbEntity
  8
0
  6
Continuous
 62
     7
100
AcDbCircle
 10
28.0
 20
10.5
 30
0.0
 40
1.0
100
AcDbArc
 50
359.9999956742889
 51
90.00000500895634
  0
ARC
  5
D9
330
1F
100
AcDbEntity
  8
0
  6
Continuous
 62
     7
100
AcDbCircle
 10
30.0
 20
9.0
 30
0.0
 40
1.0
100
AcDbArc
 50
359.9999956742889
 51
90.00000500895634
  0
ARC
  5
DA
330
1F
100
AcDbEntity
  8
0
  6
Continuous
 62
     7
100
AcDbCircle
 10
30.0
 20
-47.0
 30
0.0
 40
1.0
100
AcDbArc
 50
269.9999949910439
 51
359.9999956742889
  0
CIRCLE
  5
DB
330
1F
100
AcDbEntity
  8
0
  6
Continuous
 62
     7
100
AcDbCircle
 10
16.5
 20
-28.69998168945313
 30
0.0
 40
4.0
  0
CIRCLE
  5
DC
330
1F
100
AcDbEntity
  8
0
  6
Continuous
 62
     7
100
AcDbCircle
 10
10.49998474121093
 20
-19.0
 30
0.0
 40
3.25
  0
CIRCLE
  5
DD
330
1F
100
AcDbEntity
  8
0
  6
Continuous
 62
     7
100
AcDbCircle
 10
22.5
 20
-19.0
 30
0.0
 40
3.25
  0
LINE
  5
DE
330
1F
100
AcDbEntity
  8
0
  6
Continuous
 62
     7
100
AcDbLine
 10
0.0
 20
-30.0
 30
0.0
 11
0.0
 21
-49.5
 31
0.0
  0
LINE
  5
DF
330
1F
100
AcDbEntity
  8
0
  6
Continuous
 62
     7
100
AcDbLine
 10
0.0000147176569953
 20
-7.99997920199803
 30
0.0
 11
0.3000193519710592
 21
-8.299983836312094
 31
0.0
  0
LINE
  5
E0
330
1F
100
AcDbEntity
  8
0
  6
Continuous
 62
     7
100
AcDbLine
 10
0.0000039280639612
 20
-29.99999176737401
 30
0.0
 11
0.3000193519710592
 21
-29.69997634346692
 31
0.0
  0
LINE
  5
E1
330
1F
100
AcDbEntity
  8
0
  6
Continuous
 62
     7
100
AcDbLine
 10
0.3000030517578125
 20
-8.29998779296875
 30
0.0
 11
0.3000030517578125
 21
-29.70001220703125
 31
0.0
  0
LINE
  5
E2
330
1F
100
AcDbEntity
  8
0
  6
Continuous
 62
     7
100
AcDbLine
 10
3.899993896484375
 20
-53.10000610351561
 30
0.0
 11
3.899993896484375
 21
-54.69998168945313
 31
0.0
  0
LINE
  5
E3
330
1F
100
AcDbEntity
  8
0
  6
Continuous
 62
     7
100
AcDbLine
 10
29.00000774017689
 20
-31.49999875455478
 30
0.0
 11
28.49999641978911
 21
-30.999987434167
 31
0.0
  0
LINE
  5
E4
330
1F
100
AcDbEntity
  8
0
  6
Continuous
 62
     7
100
AcDbLine
 10
9.0
 20
-55.70001220703125
 30
0.0
 11
7.600006103515625
 21
-55.70001220703125
 31
0.0
  0
LINE
  5
E5
330
1F
100
AcDbEntity
  8
0
  6
Continuous
 62
     7
100
AcDbLine
 10
3.0
 20
-55.70001220703125
 30
0.0
 11
4.399993896484375
 21
-55.70001220703125
 31
0.0
  0
LINE
  5
E6
330
1F
100
AcDbEntity
  8
0
  6
Continuous
 62
     7
100
AcDbLine
 10
28.5
 20
-7.0
 30
0.0
 11
28.5
 21
-31.0
 31
0.0
  0
LINE
  5
E7
330
1F
100
AcDbEntity
  8
0
  6
Continuous
 62
     7
100
AcDbLine
 10
29.00001313497341
 20
-6.499999188799847
 30
0.0
 11
28.50000181458563
 21
-7.000010509187632
 31
0.0
  0
LINE
  5
E8
330
1F
100
AcDbEntity
  8
0
  6
Continuous
 62
     7
100
AcDbLine
 10
8.100006103515625
 20
-53.10000610351561
 30
0.0
 11
8.100006103515625
 21
-54.70001220703125
 31
0.0
  0
LINE
  5
E9
330
1F
100
AcDbEntity
  8
0
  6
Continuous
 62
     7
100
AcDbLine
 10
9.5
 20
10.5
 30
0.0
 11
9.5
 21
11.5
 31
0.0
  0
LINE
  5
EA
330
1F
100
AcDbEntity
  8
0
  6
Continuous
 62
     7
100
AcDbLine
 10
29.0
 20
10.5
 30
0.0
 11
29.0
 21
-6.5
 31
0.0
  0
LINE
  5
EB
330
1F
100
AcDbEntity
  8
0
  6
Continuous
 62
     7
100
AcDbLine
 10
29.0
 20
-31.5
 30
0.0
 11
29.0
 21
-48.5
 31
0.0
  0
LINE
  5
EC
330
1F
100
AcDbEntity
  8
0
  6
Continuous
 62
     7
100
AcDbLine
 10
9.5
 20
-55.20001220703125
 30
0.0
 11
9.5
 21
-48.5
 31
0.0
  0
LINE
  5
ED
330
1F
100
AcDbEntity
  8
0
  6
Continuous
 62
     7
100
AcDbLine
 10
30.5
 20
9.0
 30
0.0
 11
30.5
 21
-47.0
 31
0.0
  0
LINE
  5
EE
330
1F
100
AcDbEntity
  8
0
  6
Continuous
 62
     7
100
AcDbLine
 10
9.5
 20
10.5
 30
0.0
 11
2.5
 21
10.5
 31
0.0
  0
LINE
  5
EF
330
1F
100
AcDbEntity
  8
0
  6
Continuous
 62
     7
100
AcDbLine
 10
2.5
 20
-55.20001220703125
 30
0.0
 11
2.5
 21
-48.5
 31
0.0
  0
LINE
  5
F0
330
1F
100
AcDbEntity
  8
0
  6
Continuous
 62
     7
100
AcDbLine
 10
2.5
 20
11.5
 30
0.0
 11
0.0
 21
11.5
 31
0.0
  0
LINE
  5
F1
330
1F
100
AcDbEntity
  8
0
  6
Continuous
 62
     7
100
AcDbLine
 10
2.5
 20
10.5
 30
0.0
 11
2.5
 21
11.5
 31
0.0
  0
LINE
  5
F2
330
1F
100
AcDbEntity
  8
0
  6
Continuous
 62
     7
100
AcDbLine
 10
31.0
 20
-34.0
 30
0.0
 11
31.0
 21
-47.0
 31
0.0
  0
LINE
  5
F3
330
1F
100
AcDbEntity
  8
0
  6
Continuous
 62
     7
100
AcDbLine
 10
31.0000098633559
 20
-33.99999061893549
 30
0.0
 11
30.50002012215419
 21
-33.50000087773378
 31
0.0
  0
LINE
  5
F4
330
1F
100
AcDbEntity
  8
0
  6
Continuous
 62
     7
100
AcDbLine
 10
31.00001525815241
 20
-4.000007324419129
 30
0.0
 11
30.5000255169507
 21
-4.499997065620846
 31
0.0
  0
LINE
  5
F5
330
1F
100
AcDbEntity
  8
0
  6
Continuous
 62
     7
100
AcDbLine
 10
11.22166442871093
 20
-17.75
 30
0.0
 11
9.778305053710935
 21
-17.75
 31
0.0
  0
LINE
  5
F6
330
1F
100
AcDbEntity
  8
0
  6
Continuous
 62
     7
100
AcDbLine
 10
11.22172333778326
 20
-17.75000933178217
 30
0.0
 11
11.94340302528326
 21
-18.99999519488756
 31
0.0
  0
LINE
  5
F7
330
1F
100
AcDbEntity
  8
0
  6
Continuous
 62
     7
100
AcDbLine
 10
9.778317336677446
 20
-17.74998387419145
 30
0.0
 11
9.056622390388383
 21
-18.99999616629429
 31
0.0
  0
LINE
  5
F8
330
1F
100
AcDbEntity
  8
0
  6
Continuous
 62
     7
100
AcDbLine
 10
9.778339554681224
 20
-20.24999519488756
 30
0.0
 11
9.056659867181224
 21
-19.00000933178217
 31
0.0
  0
LINE
  5
F9
330
1F
100
AcDbEntity
  8
0
  6
Continuous
 62
     7
100
AcDbLine
 10
11.22168586099042
 20
-20.24999616629429
 30
0.0
 11
11.94338080727948
 21
-18.99998387419145
 31
0.0
  0
LINE
  5
FA
330
1F
100
AcDbEntity
  8
0
  6
Continuous
 62
     7
100
AcDbLine
 10
11.22166442871093
 20
-20.25
 30
0.0
 11
9.778305053710935
 21
-20.25
 31
0.0
  0
LINE
  5
FB
330
1F
100
AcDbEntity
  8
0
  6
Continuous
 62
     7
100
AcDbLine
 10
21.7783203125
 20
-17.75
 30
0.0
 11
23.2216796875
 21
-17.75
 31
0.0
  0
LINE
  5
FC
330
1F
100
AcDbEntity
  8
0
  6
Continuous
 62
     7
100
AcDbLine
 10
21.77830276672785
 20
-17.74997564875048
 30
0.0
 11
21.05660782043878
 21
-18.99998794085332
 31
0.0
  0
LINE
  5
FD
330
1F
100
AcDbEntity
  8
0
  6
Continuous
 62
     7
100
AcDbLine
 10
23.22169555333493
 20
-17.75002518661767
 30
0.0
 11
23.94337524083493
 21
-19.00001104972307
 31
0.0
  0
LINE
  5
FE
330
1F
100
AcDbEntity
  8
0
  6
Continuous
 62
     7
100
AcDbLine
 10
23.22167129104082
 20
-20.24998794085332
 30
0.0
 11
23.94336623732989
 21
-18.99997564875048
 31
0.0
  0
LINE
  5
FF
330
1F
100
AcDbEntity
  8
0
  6
Continuous
 62
     7
100
AcDbLine
 10
21.77831177023291
 20
-20.25001104972307
 30
0.0
 11
21.05663208273291
 21
-19.00002518661768
 31
0.0
  0
LINE
  5
100
330
1F
100
AcDbEntity
  8
0
  6
Continuous
 62
     7
100
AcDbLine
 10
21.7783203125
 20
-20.25
 30
0.0
 11
23.2216796875
 21
-20.25
 31
0.0
  0
LINE
  5
101
330
1F
100
AcDbEntity
  8
0
  6
Continuous
 62
     7
100
AcDbLine
 10
13.31306538110266
 20
-26.28264968150507
 30
0.0
 11
20.18691725378585
 21
-30.25126998179803
 31
0.0
  0
LINE
  5
102
330
1F
100
AcDbEntity
  8
0
  6
Continuous
 62
     7
100
AcDbLine
 10
28.0
 20
11.5
 30
0.0
 11
9.5
 21
11.5
 31
0.0
  0
LINE
  5
103
330
1F
100
AcDbEntity
  8
0
  6
Continuous
 62
     7
100
AcDbLine
 10
0.0
 20
11.5
 30
0.0
 11
0.0
 21
-8.0
 31
0.0
  0
LINE
  5
104
330
1F
100
AcDbEntity
  8
0
  6
Continuous
 62
     7
100
AcDbLine
 10
30.0
 20
10.0
 30
0.0
 11
29.0
 21
10.0
 31
0.0
  0
LINE
  5
105
330
1F
100
AcDbEntity
  8
0
  6
Continuous
 62
     7
100
AcDbLine
 10
30.0
 20
-48.0
 30
0.0
 11
29.0
 21
-48.0
 31
0.0
  0
LINE
  5
106
330
1F
100
AcDbEntity
  8
0
  6
Continuous
 62
     7
100
AcDbLine
 10
31.0
 20
9.0
 30
0.0
 11
31.0
 21
-4.0
 31
0.0
  0
LINE
  5
107
330
1F
100
AcDbEntity
  8
0
  6
Continuous
 62
     7
100
AcDbLine
 10
0.0
 20
-49.5
 30
0.0
 11
2.5
 21
-49.5
 31
0.0
  0
LINE
  5
108
330
1F
100
AcDbEntity
  8
0
  6
Continuous
 62
     7
100
AcDbLine
 10
4.399993896484375
 20
-55.70001220703125
 30
0.0
 11
4.399993896484375
 21
-55.19998168945313
 31
0.0
  0
LINE
  5
109
330
1F
100
AcDbEntity
  8
0
  6
Continuous
 62
     7
100
AcDbLine
 10
12.81305216660394
 20
-27.14866744035135
 30
0.0
 11
19.68691725378585
 21
-31.11729537003885
 31
0.0
  0
LINE
  5
10A
330
1F
100
AcDbEntity
  8
0
  6
Continuous
 62
     7
100
AcDbLine
 10
8.100026553409861
 20
-54.69997590922185
 30
0.0
 11
7.600015233022077
 21
-55.19998722960963
 31
0.0
  0
LINE
  5
10B
330
1F
100
AcDbEntity
  8
0
  6
Continuous
 62
     7
100
AcDbLine
 10
3.900026410571172
 20
-54.69997590922185
 30
0.0
 11
4.400037730958956
 21
-55.19998722960963
 31
0.0
  0
LINE
  5
10C
330
1F
100
AcDbEntity
  8
0
  6
Continuous
 62
     7
100
AcDbLine
 10
7.600006103515625
 20
-55.70001220703125
 30
0.0
 11
7.600006103515625
 21
-55.20001220703125
 31
0.0
  0
LINE
  5
10D
330
1F
100
AcDbEntity
  8
0
  6
Continuous
 62
     2
100
AcDbLine
 10
34.0
 20
-19.0
 30
0.0
 11
-4.991276668330385
 21
-19.0
 31
0.0
  0
LINE
  5
10E
330
1F
100
AcDbEntity
  8
0
  6
Continuous
 62
     2
100
AcDbLine
 10
23.53999328613281
 20
-28.69998168945313
 30
0.0
 11
9.460006713867187
 21
-28.69998168945313
 31
0.0
  0
LINE
  5
10F
330
1F
100
AcDbEntity
  8
0
  6
Continuous
 62
     2
100
AcDbLine
 10
6.0
 20
-47.68200683593749
 30
0.0
 11
6.0
 21
-56.39181518554688
 31
0.0
  0
LINE
  5
110
330
1F
100
AcDbEntity
  8
0
  6
Continuous
 62
     2
100
AcDbLine
 10
16.5
 20
-52.5
 30
0.0
 11
16.5
 21
14.5
 31
0.0
  0
LINE
  5
111
330
1F
100
AcDbEntity
  8
0
  6
Continuous
 62
     7
100
AcDbLine
 10
9.5
 20
-48.5
 30
0.0
 11
2.5
 21
-48.5
 31
0.0
  0
LINE
  5
112
330
1F
100
AcDbEntity
  8
0
  6
Continuous
 62
     7
100
AcDbLine
 10
9.5
 20
-49.5
 30
0.0
 11
28.0
 21
-49.5
 31
0.0
  0
CIRCLE
  5
113
330
1F
100
AcDbEntity
  8
0
  6
Continuous
 62
     7
100
AcDbCircle
 10
5.349999997275176
 20
-53.20001268468479
 30
0.0
 40
0.5
  0
CIRCLE
  5
114
330
1F
100
AcDbEntity
  8
0
  6
Continuous
 62
     7
100
AcDbCircle
 10
5.349999997275176
 20
-53.20001268468479
 30
0.0
 40
0.29
  0
CIRCLE
  5
115
330
1F
100
AcDbEntity
  8
0
  6
Continuous
 62
     7
100
AcDbCircle
 10
6.0
 20
-53.20001268468479
 30
0.0
 40
1.300000000000011
  0
LINE
  5
116
330
1F
100
AcDbEntity
  8
0
  6
Continuous
 62
     7
100
AcDbLine
 10
7.5
 20
-55.70001220703125
 30
0.0
 11
4.5
 21
-55.70001220703125
 31
0.0
  0
LINE
  5
117
330
1F
100
AcDbEntity
  8
0
  6
Continuous
 62
     7
100
AcDbLine
 10
7.25
 20
-55.93741160885373
 30
0.0
 11
4.75
 21
-55.93741160885373
 31
0.0
  0
LINE
  5
118
330
1F
100
AcDbEntity
  8
0
  6
Continuous
 62
     7
100
AcDbLine
 10
7.050000000000011
 20
-56.13741160885375
 30
0.0
 11
4.949999999999988
 21
-56.13741160885375
 31
0.0
  0
ARC
  5
119
330
1F
100
AcDbEntity
  8
0
  6
Continuous
 62
     7
100
AcDbCircle
 10
6.0
 20
-53.15001220703125
 30
0.0
 40
2.049999999999996
100
AcDbArc
 50
12.68038349181954
 51
167.3196165081805
  0
LINE
  5
11A
330
1F
100
AcDbEntity
  8
0
  6
Continuous
 62
     7
100
AcDbLine
 10
4.75
 20
-55.93741160885373
 30
0.0
 11
4.75
 21
-55.70001220703125
 31
0.0
  0
LINE
  5
11B
330
1F
100
AcDbEntity
  8
0
  6
Continuous
 62
     7
100
AcDbLine
 10
4.949999999999988
 20
-56.13741160885375
 30
0.0
 11
4.75
 21
-55.93741160885373
 31
0.0
  0
LINE
  5
11C
330
1F
100
AcDbEntity
  8
0
  6
Continuous
 62
     2
100
AcDbLine
 10
4.949999999999988
 20
-55.70001220703125
 30
0.0
 11
4.949999999999988
 21
-56.13741160885375
 31
0.0
  0
CIRCLE
  5
11D
330
1F
100
AcDbEntity
  8
0
  6
Continuous
 62
     7
100
AcDbCircle
 10
6.650000002724767
 20
-53.2000126846848
 30
0.0
 40
0.5
  0
CIRCLE
  5
11E
330
1F
100
AcDbEntity
  8
0
  6
Continuous
 62
     7
100
AcDbCircle
 10
6.650000002724767
 20
-53.2000126846848
 30
0.0
 40
0.29
  0
LINE
  5
11F
330
1F
100
AcDbEntity
  8
0
  6
Continuous
 62
     7
100
AcDbLine
 10
8.0
 20
-54.65027262369792
 30
0.0
 11
7.5
 21
-55.15287679036458
 31
0.0
  0
LINE
  5
120
330
1F
100
AcDbEntity
  8
0
  6
Continuous
 62
     7
100
AcDbLine
 10
7.5
 20
-55.15287679036458
 30
0.0
 11
7.5
 21
-55.70001220975601
 31
0.0
  0
LINE
  5
121
330
1F
100
AcDbEntity
  8
0
  6
Continuous
 62
     7
100
AcDbLine
 10
7.25
 20
-55.70001220703125
 30
0.0
 11
7.25
 21
-55.93741160885373
 31
0.0
  0
LINE
  5
122
330
1F
100
AcDbEntity
  8
0
  6
Continuous
 62
     7
100
AcDbLine
 10
7.25
 20
-55.93741160885373
 30
0.0
 11
7.050000000000011
 21
-56.13741160885375
 31
0.0
  0
LINE
  5
123
330
1F
100
AcDbEntity
  8
0
  6
Continuous
 62
     2
100
AcDbLine
 10
7.050000000000011
 20
-55.70001220703125
 30
0.0
 11
7.050000000000011
 21
-56.13741160885375
 31
0.0
  0
LINE
  5
124
330
1F
100
AcDbEntity
  8
0
  6
Continuous
 62
     7
100
AcDbLine
 10
8.0
 20
-52.70001220703125
 30
0.0
 11
8.0
 21
-54.65027262369792
 31
0.0
  0
LINE
  5
125
330
1F
100
AcDbEntity
  8
0
  6
Continuous
 62
     7
100
AcDbLine
 10
4.0
 20
-52.70001220703125
 30
0.0
 11
4.0
 21
-54.65001220703125
 31
0.0
  0
LINE
  5
126
330
1F
100
AcDbEntity
  8
0
  6
Continuous
 62
     7
100
AcDbLine
 10
4.500000006130732
 20
-55.15001221316202
 30
0.0
 11
4.0
 21
-54.65001220703125
 31
0.0
  0
LINE
  5
127
330
1F
100
AcDbEntity
  8
0
  6
Continuous
 62
     7
100
AcDbLine
 10
4.5
 20
-55.15001220703125
 30
0.0
 11
4.5
 21
-55.70001220975601
 31
0.0
  0
LINE
  5
128
330
1F
100
AcDbEntity
  8
0
  6
Continuous
 62
     2
100
AcDbLine
 10
-3.0
 20
0.0
 30
0.0
 11
3.0
 21
0.0
 31
0.0
  0
LINE
  5
129
330
1F
100
AcDbEntity
  8
0
  6
Continuous
 62
     2
100
AcDbLine
 10
-3.0
 20
-38.0
 30
0.0
 11
3.0
 21
-38.0
 31
0.0
  0
LINE
  5
12A
330
1F
100
AcDbEntity
  8
0
  6
Continuous
 62
     2
100
AcDbLine
 10
28.0
 20
4.0
 30
0.0
 11
34.0
 21
4.0
 31
0.0
  0
LINE
  5
12B
330
1F
100
AcDbEntity
  8
0
  6
Continuous
 62
     2
100
AcDbLine
 10
28.0
 20
-42.0
 30
0.0
 11
34.0
 21
-42.0
 31
0.0
  0
ENDBLK
  5
12C
330
1F
100
AcDbEntity
  8
0
100
AcDbBlockEnd
  0
BLOCK
  5
12D
330
20
100
AcDbEntity
  8
0
100
AcDbBlockBegin
  2
MRVS22-3
 70
     0
 10
0.0
 20
0.0
 30
0.0
  3
MRVS22-3
  1

  0
LINE
  5
12E
330
20
100
AcDbEntity
  8
0
  6
Continuous
 62
     2
100
AcDbLine
 10
-9.0
 20
16.5
 30
0.0
 11
201.0
 21
16.5
 31
0.0
  0
LINE
  5
12F
330
20
100
AcDbEntity
  8
0
  6
Continuous
 62
     7
100
AcDbLine
 10
17.0
 20
13.64999389648437
 30
0.0
 11
16.51885986328125
 21
13.64999389648437
 31
0.0
  0
LINE
  5
130
330
20
100
AcDbEntity
  8
0
  6
Continuous
 62
     7
100
AcDbLine
 10
17.0
 20
19.35000610351562
 30
0.0
 11
16.51885986328125
 21
19.35000610351562
 31
0.0
  0
LINE
  5
131
330
20
100
AcDbEntity
  8
0
  6
Continuous
 62
     7
100
AcDbLine
 10
15.35000610351562
 20
14.30000305175781
 30
0.0
 11
15.35000610351562
 21
18.69999694824219
 31
0.0
  0
LINE
  5
132
330
20
100
AcDbEntity
  8
0
  6
Continuous
 62
     7
100
AcDbLine
 10
18.60000610351562
 20
31.0
 30
0.0
 11
18.60000610351562
 21
9.5
 31
0.0
  0
LINE
  5
133
330
20
100
AcDbEntity
  8
0
  6
Continuous
 62
     7
100
AcDbLine
 10
73.39999389648437
 20
31.0
 30
0.0
 11
73.39999389648437
 21
9.5
 31
0.0
  0
LINE
  5
134
330
20
100
AcDbEntity
  8
0
  6
Continuous
 62
     7
100
AcDbLine
 10
18.60000610351562
 20
31.0
 30
0.0
 11
73.39999389648437
 21
31.0
 31
0.0
  0
LINE
  5
135
330
20
100
AcDbEntity
  8
0
  6
Continuous
 62
     2
100
AcDbLine
 10
46.0
 20
37.2263832931345
 30
0.0
 11
46.0
 21
-4.42364501953125
 31
0.0
  0
LINE
  5
136
330
20
100
AcDbEntity
  8
0
  6
Continuous
 62
     7
100
AcDbLine
 10
75.0
 20
30.5
 30
0.0
 11
75.0
 21
9.5
 31
0.0
  0
LINE
  5
137
330
20
100
AcDbEntity
  8
0
  6
Continuous
 62
     7
100
AcDbLine
 10
17.0
 20
30.5
 30
0.0
 11
17.0
 21
9.5
 31
0.0
  0
LINE
  5
138
330
20
100
AcDbEntity
  8
0
  6
Continuous
 62
     7
100
AcDbLine
 10
18.60000610351562
 20
30.5
 30
0.0
 11
17.0
 21
30.5
 31
0.0
  0
LINE
  5
139
330
20
100
AcDbEntity
  8
0
  6
Continuous
 62
     7
100
AcDbLine
 10
73.39999389648437
 20
30.5
 30
0.0
 11
75.0
 21
30.5
 31
0.0
  0
LINE
  5
13A
330
20
100
AcDbEntity
  8
0
  6
Continuous
 62
     7
100
AcDbLine
 10
75.0
 20
25.29998779296875
 30
0.0
 11
178.0
 21
25.29998779296875
 31
0.0
  0
LINE
  5
13B
330
20
100
AcDbEntity
  8
0
  6
Continuous
 62
     7
100
AcDbLine
 10
-6.0
 20
2.5
 30
0.0
 11
198.0
 21
2.5
 31
0.0
  0
LINE
  5
13C
330
20
100
AcDbEntity
  8
0
  6
Continuous
 62
     7
100
AcDbLine
 10
17.0
 20
2.0
 30
0.0
 11
75.0
 21
2.0
 31
0.0
  0
LINE
  5
13D
330
20
100
AcDbEntity
  8
0
  6
Continuous
 62
     7
100
AcDbLine
 10
14.0
 20
25.29998779296875
 30
0.0
 11
17.0
 21
25.29998779296875
 31
0.0
  0
LINE
  5
13E
330
20
100
AcDbEntity
  8
0
  6
Continuous
 62
     2
100
AcDbLine
 10
186.5
 20
21.53999328613281
 30
0.0
 11
186.5
 21
11.46000671386719
 31
0.0
  0
LINE
  5
13F
330
20
100
AcDbEntity
  8
0
  6
Continuous
 62
     7
100
AcDbLine
 10
14.0
 20
23.60438537597657
 30
0.0
 11
14.0
 21
28.39561462402344
 31
0.0
  0
LINE
  5
140
330
20
100
AcDbEntity
  8
0
  6
Continuous
 62
     7
100
AcDbLine
 10
5.5
 20
23.0
 30
0.0
 11
12.0
 21
23.0
 31
0.0
  0
LINE
  5
141
330
20
100
AcDbEntity
  8
0
  6
Continuous
 62
     7
100
AcDbLine
 10
198.0
 20
0.0
 30
0.0
 11
180.0
 21
0.0
 31
0.0
  0
LINE
  5
142
330
20
100
AcDbEntity
  8
0
  6
Continuous
 62
     7
100
AcDbLine
 10
198.0
 20
29.0
 30
0.0
 11
180.0
 21
29.0
 31
0.0
  0
LINE
  5
143
330
20
100
AcDbEntity
  8
0
  6
Continuous
 62
     7
100
AcDbLine
 10
198.0
 20
29.0
 30
0.0
 11
198.0
 21
0.0
 31
0.0
  0
LINE
  5
144
330
20
100
AcDbEntity
  8
0
  6
Continuous
 62
     7
100
AcDbLine
 10
180.0
 20
29.0
 30
0.0
 11
180.0
 21
9.5
 31
0.0
  0
LINE
  5
145
330
20
100
AcDbEntity
  8
0
  6
Continuous
 62
     7
100
AcDbLine
 10
-6.0
 20
9.5
 30
0.0
 11
198.0
 21
9.5
 31
0.0
  0
LINE
  5
146
330
20
100
AcDbEntity
  8
0
  6
Continuous
 62
     2
100
AcDbLine
 10
5.5
 20
21.53999328613281
 30
0.0
 11
5.5
 21
11.46000671386719
 31
0.0
  0
LINE
  5
147
330
20
100
AcDbEntity
  8
0
  6
Continuous
 62
     7
100
AcDbLine
 10
-6.0
 20
0.0
 30
0.0
 11
12.0
 21
0.0
 31
0.0
  0
LINE
  5
148
330
20
100
AcDbEntity
  8
0
  6
Continuous
 62
     7
100
AcDbLine
 10
-6.0
 20
29.0
 30
0.0
 11
12.0
 21
29.0
 31
0.0
  0
LINE
  5
149
330
20
100
AcDbEntity
  8
0
  6
Continuous
 62
     7
100
AcDbLine
 10
-6.0
 20
29.0
 30
0.0
 11
-6.0
 21
0.0
 31
0.0
  0
LINE
  5
14A
330
20
100
AcDbEntity
  8
0
  6
Continuous
 62
     7
100
AcDbLine
 10
12.0
 20
29.0
 30
0.0
 11
12.0
 21
9.5
 31
0.0
  0
LINE
  5
14B
330
20
100
AcDbEntity
  8
0
  6
Continuous
 62
     7
100
AcDbLine
 10
75.0
 20
13.64999389648437
 30
0.0
 11
75.48114013671875
 21
13.64999389648437
 31
0.0
  0
LINE
  5
14C
330
20
100
AcDbEntity
  8
0
  6
Continuous
 62
     7
100
AcDbLine
 10
75.0
 20
19.35000610351562
 30
0.0
 11
75.48114013671875
 21
19.35000610351562
 31
0.0
  0
LINE
  5
14D
330
20
100
AcDbEntity
  8
0
  6
Continuous
 62
     7
100
AcDbLine
 10
76.64999389648437
 20
14.30000305175781
 30
0.0
 11
76.64999389648437
 21
18.69999694824219
 31
0.0
  0
LINE
  5
14E
330
20
100
AcDbEntity
  8
0
  6
Continuous
 62
     7
100
AcDbLine
 10
186.5
 20
23.0
 30
0.0
 11
180.0
 21
23.0
 31
0.0
  0
LINE
  5
14F
330
20
100
AcDbEntity
  8
0
  6
Continuous
 62
     7
100
AcDbLine
 10
178.0
 20
23.60438537597657
 30
0.0
 11
178.0
 21
28.39561462402344
 31
0.0
  0
LINE
  5
150
330
20
100
AcDbEntity
  8
0
  6
Continuous
 62
     7
100
AcDbLine
 10
186.5
 20
29.0
 30
0.0
 11
186.5
 21
23.0
 31
0.0
  0
LINE
  5
151
330
20
100
AcDbEntity
  8
0
  6
Continuous
 62
     7
100
AcDbLine
 10
17.0
 20
11.49998474121094
 30
0.0
 11
19.5
 21
11.49998474121094
 31
0.0
  0
LINE
  5
152
330
20
100
AcDbEntity
  8
0
  6
Continuous
 62
     7
100
AcDbLine
 10
17.0
 20
14.0980224609375
 30
0.0
 11
75.0
 21
14.0980224609375
 31
0.0
  0
LINE
  5
153
330
20
100
AcDbEntity
  8
0
  6
Continuous
 62
     7
100
AcDbLine
 10
178.2479106068385
 20
23.30894237653001
 30
0.0
 11
179.9999955991261
 21
23.00000251096889
 31
0.0
  0
LINE
  5
154
330
20
100
AcDbEntity
  8
0
  6
Continuous
 62
     7
100
AcDbLine
 10
178.2479133339666
 20
28.69106530533054
 30
0.0
 11
179.9999983262542
 21
29.00000517089165
 31
0.0
  0
LINE
  5
155
330
20
100
AcDbEntity
  8
0
  6
Continuous
 62
     7
100
AcDbLine
 10
180.0
 20
28.0
 30
0.0
 11
186.5
 21
28.0
 31
0.0
  0
LINE
  5
156
330
20
100
AcDbEntity
  8
0
  6
Continuous
 62
     7
100
AcDbLine
 10
5.5
 20
29.0
 30
0.0
 11
5.5
 21
23.0
 31
0.0
  0
LINE
  5
157
330
20
100
AcDbEntity
  8
0
  6
Continuous
 62
     7
100
AcDbLine
 10
13.75207715415945
 20
23.30893465267309
 30
0.0
 11
11.99999216187188
 21
22.99999478711197
 31
0.0
  0
LINE
  5
158
330
20
100
AcDbEntity
  8
0
  6
Continuous
 62
     7
100
AcDbLine
 10
13.75210315614777
 20
28.6910602163789
 30
0.0
 11
12.0000181638602
 21
29.00000008194002
 31
0.0
  0
LINE
  5
159
330
20
100
AcDbEntity
  8
0
  6
Continuous
 62
     7
100
AcDbLine
 10
12.0
 20
28.0
 30
0.0
 11
5.5
 21
28.0
 31
0.0
  0
LINE
  5
15A
330
20
100
AcDbEntity
  8
0
  6
Continuous
 62
     7
100
AcDbLine
 10
20.13035583496094
 20
11.21129608154296
 30
0.0
 11
71.73164367675781
 21
11.21129608154296
 31
0.0
  0
LINE
  5
15B
330
20
100
AcDbEntity
  8
0
  6
Continuous
 62
     7
100
AcDbLine
 10
19.5
 20
13.74996948242187
 30
0.0
 11
72.5
 21
13.74996948242187
 31
0.0
  0
LINE
  5
15C
330
20
100
AcDbEntity
  8
0
  6
Continuous
 62
     7
100
AcDbLine
 10
19.5
 20
13.31695556640625
 30
0.0
 11
72.5
 21
13.31695556640625
 31
0.0
  0
LINE
  5
15D
330
20
100
AcDbEntity
  8
0
  6
Continuous
 62
     7
100
AcDbLine
 10
72.5
 20
9.5
 30
0.0
 11
72.5
 21
13.74996948242187
 31
0.0
  0
LINE
  5
15E
330
20
100
AcDbEntity
  8
0
  6
Continuous
 62
     7
100
AcDbLine
 10
19.5
 20
9.5
 30
0.0
 11
19.5
 21
13.74996948242187
 31
0.0
  0
LINE
  5
15F
330
20
100
AcDbEntity
  8
0
  6
Continuous
 62
     7
100
AcDbLine
 10
72.5
 20
11.49998474121094
 30
0.0
 11
75.0
 21
11.49998474121094
 31
0.0
  0
LINE
  5
160
330
20
100
AcDbEntity
  8
0
  6
Continuous
 62
     7
100
AcDbLine
 10
31.5
 20
10.25
 30
0.0
 11
60.5
 21
10.25
 31
0.0
  0
LINE
  5
161
330
20
100
AcDbEntity
  8
0
  6
Continuous
 62
     7
100
AcDbLine
 10
60.5
 20
10.25
 30
0.0
 11
60.5
 21
9.5
 31
0.0
  0
LINE
  5
162
330
20
100
AcDbEntity
  8
0
  6
Continuous
 62
     7
100
AcDbLine
 10
31.5
 20
10.25
 30
0.0
 11
31.5
 21
9.5
 31
0.0
  0
LINE
  5
163
330
20
100
AcDbEntity
  8
0
  6
Continuous
 62
     7
100
AcDbLine
 10
-1.0
 20
9.5
 30
0.0
 11
-1.0
 21
2.5
 31
0.0
  0
LINE
  5
164
330
20
100
AcDbEntity
  8
0
  6
Continuous
 62
     7
100
AcDbLine
 10
-1.0
 20
7.600006103515625
 30
0.0
 11
6.418075561523437
 21
7.600006103515625
 31
0.0
  0
LINE
  5
165
330
20
100
AcDbEntity
  8
0
  6
Continuous
 62
     7
100
AcDbLine
 10
8.883909793214797
 20
5.116107954456992
 30
0.0
 11
7.116142870502471
 21
6.883874877169318
 31
0.0
  0
LINE
  5
166
330
20
100
AcDbEntity
  8
0
  6
Continuous
 62
     7
100
AcDbLine
 10
-1.0
 20
4.399993896484375
 30
0.0
 11
6.418075561523437
 21
4.399993896484375
 31
0.0
  0
LINE
  5
167
330
20
100
AcDbEntity
  8
0
  6
Continuous
 62
     7
100
AcDbLine
 10
7.116140173104212
 20
5.116105257058734
 30
0.0
 11
8.883909793214797
 21
6.883874877169318
 31
0.0
  0
LINE
  5
168
330
20
100
AcDbEntity
  8
0
  6
Continuous
 62
     7
100
AcDbLine
 10
9.58192443847656
 20
4.399993896484375
 30
0.0
 11
181.9180755615234
 21
4.399993896484375
 31
0.0
  0
LINE
  5
169
330
20
100
AcDbEntity
  8
0
  6
Continuous
 62
     7
100
AcDbLine
 10
17.0
 20
2.5
 30
0.0
 11
17.0
 21
2.0
 31
0.0
  0
LINE
  5
16A
330
20
100
AcDbEntity
  8
0
  6
Continuous
 62
     7
100
AcDbLine
 10
18.60000610351562
 20
2.5
 30
0.0
 11
18.60000610351562
 21
2.0
 31
0.0
  0
LINE
  5
16B
330
20
100
AcDbEntity
  8
0
  6
Continuous
 62
     7
100
AcDbLine
 10
12.0
 20
2.5
 30
0.0
 11
12.0
 21
0.0
 31
0.0
  0
LINE
  5
16C
330
20
100
AcDbEntity
  8
0
  6
Continuous
 62
     7
100
AcDbLine
 10
193.0
 20
4.399993896484375
 30
0.0
 11
186.0819244384765
 21
4.399993896484375
 31
0.0
  0
LINE
  5
16D
330
20
100
AcDbEntity
  8
0
  6
Continuous
 62
     7
100
AcDbLine
 10
184.5
 20
3.75
 30
0.0
 11
183.5
 21
3.75
 31
0.0
  0
LINE
  5
16E
330
20
100
AcDbEntity
  8
0
  6
Continuous
 62
     7
100
AcDbLine
 10
193.0
 20
9.5
 30
0.0
 11
193.0
 21
2.5
 31
0.0
  0
LINE
  5
16F
330
20
100
AcDbEntity
  8
0
  6
Continuous
 62
     7
100
AcDbLine
 10
184.8838772026913
 20
5.116124138846544
 30
0.0
 11
183.116121069572
 21
6.883880271965836
 31
0.0
  0
LINE
  5
170
330
20
100
AcDbEntity
  8
0
  6
Continuous
 62
     7
100
AcDbLine
 10
184.5
 20
8.25
 30
0.0
 11
183.5
 21
8.25
 31
0.0
  0
LINE
  5
171
330
20
100
AcDbEntity
  8
0
  6
Continuous
 62
     7
100
AcDbLine
 10
193.0
 20
7.600006103515625
 30
0.0
 11
186.0819244384765
 21
7.600006103515625
 31
0.0
  0
LINE
  5
172
330
20
100
AcDbEntity
  8
0
  6
Continuous
 62
     7
100
AcDbLine
 10
183.116121069572
 20
5.11611334925351
 30
0.0
 11
184.8838879922844
 21
6.883880271965836
 31
0.0
  0
LINE
  5
173
330
20
100
AcDbEntity
  8
0
  6
Continuous
 62
     7
100
AcDbLine
 10
9.58192443847656
 20
7.600006103515625
 30
0.0
 11
181.9180755615234
 21
7.600006103515625
 31
0.0
  0
LINE
  5
174
330
20
100
AcDbEntity
  8
0
  6
Continuous
 62
     7
100
AcDbLine
 10
180.0
 20
2.5
 30
0.0
 11
180.0
 21
0.0
 31
0.0
  0
LINE
  5
175
330
20
100
AcDbEntity
  8
0
  6
Continuous
 62
     7
100
AcDbLine
 10
73.39999389648437
 20
2.5
 30
0.0
 11
73.39999389648437
 21
2.0
 31
0.0
  0
LINE
  5
176
330
20
100
AcDbEntity
  8
0
  6
Continuous
 62
     7
100
AcDbLine
 10
75.0
 20
2.5
 30
0.0
 11
75.0
 21
2.0
 31
0.0
  0
ARC
  5
177
330
20
100
AcDbEntity
  8
0
  6
Continuous
 62
     7
100
AcDbCircle
 10
17.10516357421875
 20
16.91972351074219
 30
0.0
 40
2.5
100
AcDbArc
 50
103.5636653658563
 51
134.5931532935217
  0
ARC
  5
178
330
20
100
AcDbEntity
  8
0
  6
Continuous
 62
     7
100
AcDbCircle
 10
17.10516357421875
 20
16.08027648925781
 30
0.0
 40
2.5
100
AcDbArc
 50
225.4068467064783
 51
256.4363346341437
  0
ARC
  5
179
330
20
100
AcDbEntity
  8
0
  6
Continuous
 62
     7
100
AcDbCircle
 10
74.89483642578125
 20
16.91972351074219
 30
0.0
 40
2.5
100
AcDbArc
 50
45.40684488524547
 51
76.43633964310002
  0
CIRCLE
  5
17A
330
20
100
AcDbEntity
  8
0
  6
Continuous
 62
     7
100
AcDbCircle
 10
186.5
 20
16.5
 30
0.0
 40
2.0
  0
CIRCLE
  5
17B
330
20
100
AcDbEntity
  8
0
  6
Continuous
 62
     2
100
AcDbCircle
 10
186.5
 20
16.5
 30
0.0
 40
2.5
  0
CIRCLE
  5
17C
330
20
100
AcDbEntity
  8
0
  6
Continuous
 62
     7
100
AcDbCircle
 10
5.5
 20
16.5
 30
0.0
 40
2.0
  0
CIRCLE
  5
17D
330
20
100
AcDbEntity
  8
0
  6
Continuous
 62
     2
100
AcDbCircle
 10
5.5
 20
16.5
 30
0.0
 40
2.5
  0
ARC
  5
17E
330
20
100
AcDbEntity
  8
0
  6
Continuous
 62
     7
100
AcDbCircle
 10
74.89483642578125
 20
16.08027648925781
 30
0.0
 40
2.5
100
AcDbArc
 50
283.5636603569
 51
314.5931551147545
  0
ARC
  5
17F
330
20
100
AcDbEntity
  8
0
  6
Continuous
 62
     7
100
AcDbCircle
 10
178.3000030517578
 20
28.39561462402344
 30
0.0
 40
0.3000000119209289
100
AcDbArc
 50
100.0000005060238
 51
180.0000050089563
  0
ARC
  5
180
330
20
100
AcDbEntity
  8
0
  6
Continuous
 62
     7
100
AcDbCircle
 10
178.3000030517578
 20
23.60438537597657
 30
0.0
 40
0.3000000119209289
100
AcDbArc
 50
180.000008651422
 51
259.9999926637871
  0
ARC
  5
181
330
20
100
AcDbEntity
  8
0
  6
Continuous
 62
     7
100
AcDbCircle
 10
13.70001220703125
 20
28.39561462402344
 30
0.0
 40
0.3000000119209289
100
AcDbArc
 50
359.999997495522
 51
79.99999767274336
  0
ARC
  5
182
330
20
100
AcDbEntity
  8
0
  6
Continuous
 62
     7
100
AcDbCircle
 10
13.70001220703125
 20
23.60438537597657
 30
0.0
 40
0.3000000119209289
100
AcDbArc
 50
280.0000091574457
 51
359.999997495522
  0
CIRCLE
  5
183
330
20
100
AcDbEntity
  8
0
  6
Continuous
 62
     7
100
AcDbCircle
 10
8.0
 20
6.0
 30
0.0
 40
1.75
  0
CIRCLE
  5
184
330
20
100
AcDbEntity
  8
0
  6
Continuous
 62
     7
100
AcDbCircle
 10
8.0
 20
6.0
 30
0.0
 40
2.25
  0
CIRCLE
  5
185
330
20
100
AcDbEntity
  8
0
  6
Continuous
 62
     7
100
AcDbCircle
 10
184.0
 20
6.0
 30
0.0
 40
1.75
  0
ARC
  5
186
330
20
100
AcDbEntity
  8
0
  6
Continuous
 62
     7
100
AcDbCircle
 10
184.5
 20
6.0
 30
0.0
 40
2.25
100
AcDbArc
 50
269.9999974955218
 51
90.00000250447817
  0
ARC
  5
187
330
20
100
AcDbEntity
  8
0
  6
Continuous
 62
     7
100
AcDbCircle
 10
183.5
 20
6.0
 30
0.0
 40
2.25
100
AcDbArc
 50
90.00000250447817
 51
270.0000006832453
  0
LINE
  5
188
330
20
100
AcDbEntity
  8
0
  6
Continuous
 62
     2
100
AcDbLine
 10
50.0
 20
8.94285714285715
 30
0.0
 11
50.0
 21
2.700015326576532
 31
0.0
  0
LINE
  5
189
330
20
100
AcDbEntity
  8
0
  6
Continuous
 62
     2
100
AcDbLine
 10
34.24769053117785
 20
7.300000000000011
 30
0.0
 11
32.74653579676675
 21
4.700000000000002
 31
0.0
  0
LINE
  5
18A
330
20
100
AcDbEntity
  8
0
  6
Continuous
 62
     7
100
AcDbLine
 10
36.5
 20
4.700000000000002
 30
0.0
 11
32.74653579676675
 21
4.700000000000002
 31
0.0
  0
LINE
  5
18B
330
20
100
AcDbEntity
  8
0
  6
Continuous
 62
     7
100
AcDbLine
 10
36.5
 20
7.300000000000011
 30
0.0
 11
34.24769053117785
 21
7.300000000000011
 31
0.0
  0
LINE
  5
18C
330
20
100
AcDbEntity
  8
0
  6
Continuous
 62
     7
100
AcDbLine
 10
48.10000000000002
 20
4.5
 30
0.0
 11
48.10000000000002
 21
7.5
 31
0.0
  0
LINE
  5
18D
330
20
100
AcDbEntity
  8
0
  6
Continuous
 62
     7
100
AcDbLine
 10
41.60000000000001
 20
4.5
 30
0.0
 11
41.60000000000001
 21
7.5
 31
0.0
  0
LINE
  5
18E
330
20
100
AcDbEntity
  8
0
  6
Continuous
 62
     7
100
AcDbLine
 10
52.00000000476837
 20
4.399993896484375
 30
0.0
 11
52.00000000476837
 21
7.600006103515625
 31
0.0
  0
LINE
  5
18F
330
20
100
AcDbEntity
  8
0
  6
Continuous
 62
     7
100
AcDbLine
 10
36.5
 20
4.399993896484375
 30
0.0
 11
36.5
 21
7.600006103515625
 31
0.0
  0
LINE
  5
190
330
20
100
AcDbEntity
  8
0
  6
Continuous
 62
     7
100
AcDbLine
 10
52.00000000476837
 20
7.5
 30
0.0
 11
36.5
 21
7.5
 31
0.0
  0
LINE
  5
191
330
20
100
AcDbEntity
  8
0
  6
Continuous
 62
     7
100
AcDbLine
 10
52.00000000476837
 20
4.5
 30
0.0
 11
36.5
 21
4.5
 31
0.0
  0
CIRCLE
  5
192
330
20
100
AcDbEntity
  8
0
  6
Continuous
 62
     7
100
AcDbCircle
 10
50.0
 20
6.0
 30
0.0
 40
1.399999999999999
  0
CIRCLE
  5
193
330
20
100
AcDbEntity
  8
0
  6
Continuous
 62
     7
100
AcDbCircle
 10
50.0
 20
6.0
 30
0.0
 40
1.25
  0
CIRCLE
  5
194
330
20
100
AcDbEntity
  8
0
  6
Continuous
 62
     2
100
AcDbCircle
 10
50.0
 20
6.0
 30
0.0
 40
1.05
  0
LINE
  5
195
330
20
100
AcDbEntity
  8
0
  6
Continuous
 62
     7
100
AcDbLine
 10
51.04280210609307
 20
5.310751302120991
 30
0.0
 11
49.31075130212099
 21
7.042802106093034
 31
0.0
  0
LINE
  5
196
330
20
100
AcDbEntity
  8
0
  6
Continuous
 62
     7
100
AcDbLine
 10
50.68924868583679
 20
4.957197927747444
 30
0.0
 11
48.95719789232527
 21
6.689248721258991
 31
0.0
  0
LINE
  5
198
330
20
100
AcDbEntity
  8
0
  6
CENTER
 62
     2
100
AcDbLine
 10
53.41040175778528
 20
6.0
 30
0.0
 11
30.4971131639723
 21
6.0
 31
0.0
  0
LINE
  5
199
330
20
100
AcDbEntity
  8
0
  6
Continuous
 62
     2
100
AcDbLine
 10
149.9999999952316
 20
8.94285714285715
 30
0.0
 11
149.9999999952316
 21
2.700015326576532
 31
0.0
  0
LINE
  5
19A
330
20
100
AcDbEntity
  8
0
  6
CENTER
 62
     2
100
AcDbLine
 10
153.4104017530169
 20
6.0
 30
0.0
 11
130.4971131592039
 21
6.0
 31
0.0
  0
LINE
  5
19B
330
20
100
AcDbEntity
  8
0
  6
Continuous
 62
     7
100
AcDbLine
 10
150.6892486810684
 20
4.957197927747444
 30
0.0
 11
148.9571978875569
 21
6.689248721258991
 31
0.0
  0
LINE
  5
19C
330
20
100
AcDbEntity
  8
0
  6
Continuous
 62
     7
100
AcDbLine
 10
151.0428021013247
 20
5.310751302120991
 30
0.0
 11
149.3107512973526
 21
7.042802106093034
 31
0.0
  0
CIRCLE
  5
19D
330
20
100
AcDbEntity
  8
0
  6
Continuous
 62
     2
100
AcDbCircle
 10
149.9999999952316
 20
6.0
 30
0.0
 40
1.05
  0
CIRCLE
  5
19E
330
20
100
AcDbEntity
  8
0
  6
Continuous
 62
     7
100
AcDbCircle
 10
149.9999999952316
 20
6.0
 30
0.0
 40
1.25
  0
CIRCLE
  5
19F
330
20
100
AcDbEntity
  8
0
  6
Continuous
 62
     7
100
AcDbCircle
 10
149.9999999952316
 20
6.0
 30
0.0
 40
1.399999999999999
  0
LINE
  5
1A0
330
20
100
AcDbEntity
  8
0
  6
Continuous
 62
     7
100
AcDbLine
 10
152.0
 20
4.5
 30
0.0
 11
136.4999999952316
 21
4.5
 31
0.0
  0
LINE
  5
1A1
330
20
100
AcDbEntity
  8
0
  6
Continuous
 62
     7
100
AcDbLine
 10
152.0
 20
7.5
 30
0.0
 11
136.4999999952316
 21
7.5
 31
0.0
  0
LINE
  5
1A2
330
20
100
AcDbEntity
  8
0
  6
Continuous
 62
     7
100
AcDbLine
 10
136.4999999952316
 20
4.399993896484375
 30
0.0
 11
136.4999999952316
 21
7.600006103515625
 31
0.0
  0
LINE
  5
1A3
330
20
100
AcDbEntity
  8
0
  6
Continuous
 62
     7
100
AcDbLine
 10
152.0
 20
4.399993896484375
 30
0.0
 11
152.0
 21
7.600006103515625
 31
0.0
  0
LINE
  5
1A4
330
20
100
AcDbEntity
  8
0
  6
Continuous
 62
     7
100
AcDbLine
 10
141.5999999952316
 20
4.5
 30
0.0
 11
141.5999999952316
 21
7.5
 31
0.0
  0
LINE
  5
1A5
330
20
100
AcDbEntity
  8
0
  6
Continuous
 62
     7
100
AcDbLine
 10
148.0999999952316
 20
4.5
 30
0.0
 11
148.0999999952316
 21
7.5
 31
0.0
  0
LINE
  5
1A6
330
20
100
AcDbEntity
  8
0
  6
Continuous
 62
     7
100
AcDbLine
 10
136.4999999952316
 20
7.300000000000011
 30
0.0
 11
134.2476905264095
 21
7.300000000000011
 31
0.0
  0
LINE
  5
1A7
330
20
100
AcDbEntity
  8
0
  6
Continuous
 62
     7
100
AcDbLine
 10
136.4999999952316
 20
4.700000000000002
 30
0.0
 11
132.7465357919983
 21
4.700000000000002
 31
0.0
  0
LINE
  5
1A8
330
20
100
AcDbEntity
  8
0
  6
Continuous
 62
     2
100
AcDbLine
 10
134.2476905264095
 20
7.300000000000011
 30
0.0
 11
132.7465357919983
 21
4.700000000000002
 31
0.0
  0
LINE
  5
1A9
330
20
100
AcDbEntity
  8
0
  6
Continuous
 62
     2
100
AcDbLine
 10
26.0
 20
28.0
 30
0.0
 11
26.0
 21
34.0
 31
0.0
  0
LINE
  5
1AA
330
20
100
AcDbEntity
  8
0
  6
Continuous
 62
     2
100
AcDbLine
 10
66.0
 20
28.0
 30
0.0
 11
66.0
 21
34.0
 31
0.0
  0
LINE
  5
1AB
330
20
100
AcDbEntity
  8
0
  6
Continuous
 62
     2
100
AcDbLine
 10
0.0
 20
-3.0
 30
0.0
 11
0.0
 21
3.0
 31
0.0
  0
LINE
  5
1AC
330
20
100
AcDbEntity
  8
0
  6
Continuous
 62
     2
100
AcDbLine
 10
192.0
 20
-3.0
 30
0.0
 11
192.0
 21
3.0
 31
0.0
  0
LINE
  5
1AD
330
20
100
AcDbEntity
  8
0
  6
PHANTOM
 62
     3
100
AcDbLine
 10
116.0
 20
79.9042107935119
 30
0.0
 11
116.0
 21
-13.95894736842106
 31
0.0
  0
ENDBLK
  5
1AE
330
20
100
AcDbEntity
  8
0
100
AcDbBlockEnd
  0
BLOCK
  5
1AF
330
21
100
AcDbEntity
  8
0
100
AcDbBlockBegin
  2
MRVS22-4
 70
     0
 10
0.0
 20
0.0
 30
0.0
  3
MRVS22-4
  1

  0
LINE
  5
1B0
330
21
100
AcDbEntity
  8
0
  6
Continuous
 62
     2
100
AcDbLine
 10
186.5
 20
-53.0
 30
0.0
 11
186.5
 21
-46.0
 31
0.0
  0
LINE
  5
1B1
330
21
100
AcDbEntity
  8
0
  6
Continuous
 62
     2
100
AcDbLine
 10
5.5
 20
-53.0
 30
0.0
 11
5.5
 21
-46.0
 31
0.0
  0
LINE
  5
1B2
330
21
100
AcDbEntity
  8
0
  6
Continuous
 62
     7
100
AcDbLine
 10
75.0
 20
8.850006103515625
 30
0.0
 11
75.48114013671875
 21
8.850006103515625
 31
0.0
  0
LINE
  5
1B3
330
21
100
AcDbEntity
  8
0
  6
Continuous
 62
     7
100
AcDbLine
 10
75.0
 20
-46.85000610351561
 30
0.0
 11
75.48114013671875
 21
-46.85000610351561
 31
0.0
  0
LINE
  5
1B4
330
21
100
AcDbEntity
  8
0
  6
Continuous
 62
     7
100
AcDbLine
 10
75.0
 20
-41.14999389648438
 30
0.0
 11
75.48114013671875
 21
-41.14999389648438
 31
0.0
  0
LINE
  5
1B5
330
21
100
AcDbEntity
  8
0
  6
Continuous
 62
     7
100
AcDbLine
 10
75.0
 20
3.149993896484375
 30
0.0
 11
75.48114013671875
 21
3.149993896484375
 31
0.0
  0
LINE
  5
1B6
330
21
100
AcDbEntity
  8
0
  6
Continuous
 62
     7
100
AcDbLine
 10
17.0
 20
-46.85000610351561
 30
0.0
 11
16.51885986328125
 21
-46.85000610351561
 31
0.0
  0
LINE
  5
1B7
330
21
100
AcDbEntity
  8
0
  6
Continuous
 62
     7
100
AcDbLine
 10
17.0
 20
-41.14999389648438
 30
0.0
 11
16.51885986328125
 21
-41.14999389648438
 31
0.0
  0
LINE
  5
1B8
330
21
100
AcDbEntity
  8
0
  6
Continuous
 62
     7
100
AcDbLine
 10
17.0
 20
8.850006103515625
 30
0.0
 11
16.51885986328125
 21
8.850006103515625
 31
0.0
  0
LINE
  5
1B9
330
21
100
AcDbEntity
  8
0
  6
Continuous
 62
     7
100
AcDbLine
 10
17.0
 20
3.149993896484375
 30
0.0
 11
16.51885986328125
 21
3.149993896484375
 31
0.0
  0
LINE
  5
1BA
330
21
100
AcDbEntity
  8
0
  6
Continuous
 62
     2
100
AcDbLine
 10
71.03999328613281
 20
-42.0
 30
0.0
 11
60.96000671386718
 21
-42.0
 31
0.0
  0
LINE
  5
1BB
330
21
100
AcDbEntity
  8
0
  6
Continuous
 62
     7
100
AcDbLine
 10
75.0
 20
10.0
 30
0.0
 11
75.0
 21
-48.0
 31
0.0
  0
LINE
  5
1BC
330
21
100
AcDbEntity
  8
0
  6
Continuous
 62
     7
100
AcDbLine
 10
17.0
 20
-48.0
 30
0.0
 11
75.0
 21
-48.0
 31
0.0
  0
LINE
  5
1BD
330
21
100
AcDbEntity
  8
0
  6
Continuous
 62
     7
100
AcDbLine
 10
17.0
 20
-48.0
 30
0.0
 11
17.0
 21
10.0
 31
0.0
  0
LINE
  5
1BE
330
21
100
AcDbEntity
  8
0
  6
Continuous
 62
     7
100
AcDbLine
 10
18.60000610351562
 20
-48.0
 30
0.0
 11
18.60000610351562
 21
10.0
 31
0.0
  0
LINE
  5
1BF
330
21
100
AcDbEntity
  8
0
  6
Continuous
 62
     2
100
AcDbLine
 10
71.03999328613281
 20
4.0
 30
0.0
 11
60.96000671386718
 21
4.0
 31
0.0
  0
LINE
  5
1C0
330
21
100
AcDbEntity
  8
0
  6
Continuous
 62
     7
100
AcDbLine
 10
73.39999389648437
 20
10.0
 30
0.0
 11
73.39999389648437
 21
-48.0
 31
0.0
  0
LINE
  5
1C1
330
21
100
AcDbEntity
  8
0
  6
Continuous
 62
     2
100
AcDbLine
 10
20.96000671386719
 20
4.0
 30
0.0
 11
31.03999328613281
 21
4.0
 31
0.0
  0
LINE
  5
1C2
330
21
100
AcDbEntity
  8
0
  6
Continuous
 62
     2
100
AcDbLine
 10
26.0
 20
9.039993286132812
 30
0.0
 11
26.0
 21
-1.039993286132812
 31
0.0
  0
LINE
  5
1C3
330
21
100
AcDbEntity
  8
0
  6
Continuous
 62
     7
100
AcDbLine
 10
75.0
 20
-37.50001525878906
 30
0.0
 11
75.5
 21
-37.50001525878906
 31
0.0
  0
LINE
  5
1C4
330
21
100
AcDbEntity
  8
0
  6
Continuous
 62
     2
100
AcDbLine
 10
-9.0
 20
-19.0
 30
0.0
 11
201.0
 21
-19.0
 31
0.0
  0
LINE
  5
1C5
330
21
100
AcDbEntity
  8
0
  6
Continuous
 62
     7
100
AcDbLine
 10
18.60000610351562
 20
-34.0
 30
0.0
 11
73.39999389648437
 21
-34.0
 31
0.0
  0
LINE
  5
1C6
330
21
100
AcDbEntity
  8
0
  6
Continuous
 62
     2
100
AcDbLine
 10
26.0
 20
-47.03999328613281
 30
0.0
 11
26.0
 21
-36.96000671386719
 31
0.0
  0
LINE
  5
1C7
330
21
100
AcDbEntity
  8
0
  6
Continuous
 62
     2
100
AcDbLine
 10
20.96000671386719
 20
-42.0
 30
0.0
 11
31.03999328613281
 21
-42.0
 31
0.0
  0
LINE
  5
1C8
330
21
100
AcDbEntity
  8
0
  6
Continuous
 62
     2
100
AcDbLine
 10
66.0
 20
9.039993286132812
 30
0.0
 11
66.0
 21
-1.039993286132812
 31
0.0
  0
LINE
  5
1C9
330
21
100
AcDbEntity
  8
0
  6
Continuous
 62
     7
100
AcDbLine
 10
18.60000610351562
 20
-4.0
 30
0.0
 11
73.39999389648437
 21
-4.0
 31
0.0
  0
LINE
  5
1CA
330
21
100
AcDbEntity
  8
0
  6
Continuous
 62
     7
100
AcDbLine
 10
75.0
 20
-0.4999847412109375
 30
0.0
 11
75.5
 21
-0.4999847412109375
 31
0.0
  0
LINE
  5
1CB
330
21
100
AcDbEntity
  8
0
  6
Continuous
 62
     7
100
AcDbLine
 10
17.0
 20
10.0
 30
0.0
 11
75.0
 21
10.0
 31
0.0
  0
LINE
  5
1CC
330
21
100
AcDbEntity
  8
0
  6
Continuous
 62
     7
100
AcDbLine
 10
16.5
 20
-0.4999847412109375
 30
0.0
 11
17.0
 21
-0.4999847412109375
 31
0.0
  0
LINE
  5
1CD
330
21
100
AcDbEntity
  8
0
  6
Continuous
 62
     7
100
AcDbLine
 10
16.5
 20
-37.50001525878906
 30
0.0
 11
17.0
 21
-37.50001525878906
 31
0.0
  0
LINE
  5
1CE
330
21
100
AcDbEntity
  8
0
  6
Continuous
 62
     2
100
AcDbLine
 10
66.0
 20
-47.03999328613281
 30
0.0
 11
66.0
 21
-36.96000671386719
 31
0.0
  0
LINE
  5
1CF
330
21
100
AcDbEntity
  8
0
  6
Continuous
 62
     7
100
AcDbLine
 10
198.0
 20
11.5
 30
0.0
 11
198.0
 21
-49.5
 31
0.0
  0
LINE
  5
1D0
330
21
100
AcDbEntity
  8
0
  6
Continuous
 62
     2
100
AcDbLine
 10
192.0
 20
-7.28997802734375
 30
0.0
 11
192.0
 21
7.290008544921875
 31
0.0
  0
LINE
  5
1D1
330
21
100
AcDbEntity
  8
0
  6
Continuous
 62
     2
100
AcDbLine
 10
192.0
 20
-30.71002197265625
 30
0.0
 11
192.0
 21
-45.28997802734375
 31
0.0
  0
LINE
  5
1D2
330
21
100
AcDbEntity
  8
0
  6
Continuous
 62
     7
100
AcDbLine
 10
198.0
 20
11.5
 30
0.0
 11
180.0
 21
11.5
 31
0.0
  0
LINE
  5
1D3
330
21
100
AcDbEntity
  8
0
  6
Continuous
 62
     7
100
AcDbLine
 10
198.0
 20
-49.5
 30
0.0
 11
180.0
 21
-49.5
 31
0.0
  0
LINE
  5
1D4
330
21
100
AcDbEntity
  8
0
  6
Continuous
 62
     2
100
AcDbLine
 10
199.2900009155273
 20
-38.0
 30
0.0
 11
184.2783050537109
 21
-38.0
 31
0.0
  0
LINE
  5
1D5
330
21
100
AcDbEntity
  8
0
  6
Continuous
 62
     2
100
AcDbLine
 10
199.2900009155273
 20
0.0
 30
0.0
 11
183.5958557128906
 21
0.0
 31
0.0
  0
LINE
  5
1D6
330
21
100
AcDbEntity
  8
0
  6
Continuous
 62
     7
100
AcDbLine
 10
186.5
 20
-49.5
 30
0.0
 11
186.5
 21
11.5
 31
0.0
  0
LINE
  5
1D7
330
21
100
AcDbEntity
  8
0
  6
Continuous
 62
     7
100
AcDbLine
 10
180.0
 20
11.5
 30
0.0
 11
180.0
 21
-49.5
 31
0.0
  0
LINE
  5
1D8
330
21
100
AcDbEntity
  8
0
  6
Continuous
 62
     7
100
AcDbLine
 10
198.0
 20
-30.0
 30
0.0
 11
186.5
 21
-30.0
 31
0.0
  0
LINE
  5
1D9
330
21
100
AcDbEntity
  8
0
  6
Continuous
 62
     7
100
AcDbLine
 10
198.0
 20
-8.0
 30
0.0
 11
186.5
 21
-8.0
 31
0.0
  0
LINE
  5
1DA
330
21
100
AcDbEntity
  8
0
  6
Continuous
 62
     7
100
AcDbLine
 10
-6.0
 20
-8.0
 30
0.0
 11
5.5
 21
-8.0
 31
0.0
  0
LINE
  5
1DB
330
21
100
AcDbEntity
  8
0
  6
Continuous
 62
     7
100
AcDbLine
 10
-6.0
 20
-30.0
 30
0.0
 11
5.5
 21
-30.0
 31
0.0
  0
LINE
  5
1DC
330
21
100
AcDbEntity
  8
0
  6
Continuous
 62
     7
100
AcDbLine
 10
5.5
 20
-49.5
 30
0.0
 11
5.5
 21
11.5
 31
0.0
  0
LINE
  5
1DD
330
21
100
AcDbEntity
  8
0
  6
Continuous
 62
     2
100
AcDbLine
 10
-7.290008544921875
 20
0.0
 30
0.0
 11
8.404144287109375
 21
0.0
 31
0.0
  0
LINE
  5
1DE
330
21
100
AcDbEntity
  8
0
  6
Continuous
 62
     2
100
AcDbLine
 10
-7.290008544921875
 20
-38.0
 30
0.0
 11
7.721694946289062
 21
-38.0
 31
0.0
  0
LINE
  5
1DF
330
21
100
AcDbEntity
  8
0
  6
Continuous
 62
     7
100
AcDbLine
 10
-6.0
 20
-49.5
 30
0.0
 11
7.525070190429686
 21
-49.5
 31
0.0
  0
LINE
  5
1E0
330
21
100
AcDbEntity
  8
0
  6
Continuous
 62
     7
100
AcDbLine
 10
-6.0
 20
11.5
 30
0.0
 11
7.525070190429686
 21
11.5
 31
0.0
  0
LINE
  5
1E1
330
21
100
AcDbEntity
  8
0
  6
Continuous
 62
     2
100
AcDbLine
 10
0.0
 20
-30.71002197265625
 30
0.0
 11
0.0
 21
-45.28997802734375
 31
0.0
  0
LINE
  5
1E2
330
21
100
AcDbEntity
  8
0
  6
Continuous
 62
     2
100
AcDbLine
 10
0.0
 20
-7.28997802734375
 30
0.0
 11
0.0
 21
7.290008544921875
 31
0.0
  0
LINE
  5
1E3
330
21
100
AcDbEntity
  8
0
  6
Continuous
 62
     7
100
AcDbLine
 10
-6.0
 20
11.5
 30
0.0
 11
-6.0
 21
-49.5
 31
0.0
  0
LINE
  5
1E4
330
21
100
AcDbEntity
  8
0
  6
Continuous
 62
     7
100
AcDbLine
 10
180.0
 20
-6.5
 30
0.0
 11
186.5
 21
-6.5
 31
0.0
  0
LINE
  5
1E5
330
21
100
AcDbEntity
  8
0
  6
Continuous
 62
     7
100
AcDbLine
 10
180.0
 20
-31.5
 30
0.0
 11
186.5
 21
-31.5
 31
0.0
  0
LINE
  5
1E6
330
21
100
AcDbEntity
  8
0
  6
Continuous
 62
     7
100
AcDbLine
 10
7.5
 20
-31.5
 30
0.0
 11
5.5
 21
-31.5
 31
0.0
  0
LINE
  5
1E7
330
21
100
AcDbEntity
  8
0
  6
Continuous
 62
     7
100
AcDbLine
 10
7.5
 20
-6.5
 30
0.0
 11
5.5
 21
-6.5
 31
0.0
  0
LINE
  5
1E8
330
21
100
AcDbEntity
  8
0
  6
Continuous
 62
     7
100
AcDbLine
 10
7.5
 20
-49.0
 30
0.0
 11
7.5
 21
11.0
 31
0.0
  0
LINE
  5
1E9
330
21
100
AcDbEntity
  8
0
  6
Continuous
 62
     7
100
AcDbLine
 10
84.50000000000001
 20
-49.0
 30
0.0
 11
84.50000000000001
 21
11.0
 31
0.0
  0
LINE
  5
1EA
330
21
100
AcDbEntity
  8
0
  6
Continuous
 62
     2
100
AcDbLine
 10
85.0399932861328
 20
4.0
 30
0.0
 11
74.9600067138672
 21
4.0
 31
0.0
  0
LINE
  5
1EB
330
21
100
AcDbEntity
  8
0
  6
Continuous
 62
     2
100
AcDbLine
 10
80.0
 20
-1.039993286132812
 30
0.0
 11
80.0
 21
9.039993286132812
 31
0.0
  0
LINE
  5
1EC
330
21
100
AcDbEntity
  8
0
  6
Continuous
 62
     7
100
AcDbLine
 10
79.5
 20
16.0
 30
0.0
 11
12.5
 21
16.0
 31
0.0
  0
LINE
  5
1ED
330
21
100
AcDbEntity
  8
0
  6
Continuous
 62
     7
100
AcDbLine
 10
74.5
 20
12.5
 30
0.0
 11
17.5
 21
12.5
 31
0.0
  0
LINE
  5
1EE
330
21
100
AcDbEntity
  8
0
  6
Continuous
 62
     7
100
AcDbLine
 10
16.5
 20
-9.0
 30
0.0
 11
17.0
 21
-9.0
 31
0.0
  0
LINE
  5
1EF
330
21
100
AcDbEntity
  8
0
  6
Continuous
 62
     7
100
AcDbLine
 10
74.5
 20
-50.5
 30
0.0
 11
17.5
 21
-50.5
 31
0.0
  0
LINE
  5
1F0
330
21
100
AcDbEntity
  8
0
  6
Continuous
 62
     7
100
AcDbLine
 10
79.5
 20
-54.0
 30
0.0
 11
12.5
 21
-54.0
 31
0.0
  0
LINE
  5
1F1
330
21
100
AcDbEntity
  8
0
  6
Continuous
 62
     7
100
AcDbLine
 10
75.5
 20
11.5
 30
0.0
 11
75.5
 21
-9.0
 31
0.0
  0
LINE
  5
1F2
330
21
100
AcDbEntity
  8
0
  6
Continuous
 62
     7
100
AcDbLine
 10
75.5
 20
-29.0
 30
0.0
 11
75.5
 21
-49.5
 31
0.0
  0
LINE
  5
1F3
330
21
100
AcDbEntity
  8
0
  6
Continuous
 62
     7
100
AcDbLine
 10
16.5
 20
11.5
 30
0.0
 11
16.5
 21
-9.0
 31
0.0
  0
LINE
  5
1F4
330
21
100
AcDbEntity
  8
0
  6
Continuous
 62
     7
100
AcDbLine
 10
16.5
 20
-29.0
 30
0.0
 11
16.5
 21
-49.5
 31
0.0
  0
LINE
  5
1F5
330
21
100
AcDbEntity
  8
0
  6
Continuous
 62
     7
100
AcDbLine
 10
75.5
 20
-9.0
 30
0.0
 11
75.0
 21
-9.0
 31
0.0
  0
LINE
  5
1F6
330
21
100
AcDbEntity
  8
0
  6
Continuous
 62
     7
100
AcDbLine
 10
16.5
 20
-29.0
 30
0.0
 11
17.0
 21
-29.0
 31
0.0
  0
LINE
  5
1F7
330
21
100
AcDbEntity
  8
0
  6
Continuous
 62
     7
100
AcDbLine
 10
75.5
 20
-29.0
 30
0.0
 11
75.0
 21
-29.0
 31
0.0
  0
LINE
  5
1F8
330
21
100
AcDbEntity
  8
0
  6
Continuous
 62
     2
100
AcDbLine
 10
85.0399932861328
 20
-42.0
 30
0.0
 11
74.9600067138672
 21
-42.0
 31
0.0
  0
LINE
  5
1F9
330
21
100
AcDbEntity
  8
0
  6
Continuous
 62
     2
100
AcDbLine
 10
6.960006713867188
 20
4.0
 30
0.0
 11
17.03999328613281
 21
4.0
 31
0.0
  0
LINE
  5
1FA
330
21
100
AcDbEntity
  8
0
  6
Continuous
 62
     2
100
AcDbLine
 10
12.0
 20
-1.039993286132812
 30
0.0
 11
12.0
 21
9.039993286132812
 31
0.0
  0
LINE
  5
1FB
330
21
100
AcDbEntity
  8
0
  6
Continuous
 62
     2
100
AcDbLine
 10
80.0
 20
-36.96000671386719
 30
0.0
 11
80.0
 21
-47.03997802734375
 31
0.0
  0
LINE
  5
1FC
330
21
100
AcDbEntity
  8
0
  6
Continuous
 62
     2
100
AcDbLine
 10
6.960006713867188
 20
-42.0
 30
0.0
 11
17.03999328613281
 21
-42.0
 31
0.0
  0
LINE
  5
1FD
330
21
100
AcDbEntity
  8
0
  6
Continuous
 62
     2
100
AcDbLine
 10
12.0
 20
-36.96000671386719
 30
0.0
 11
12.0
 21
-47.03997802734375
 31
0.0
  0
LINE
  5
1FE
330
21
100
AcDbEntity
  8
0
  6
Continuous
 62
     7
100
AcDbLine
 10
84.50000000000001
 20
-0.4999847412109375
 30
0.0
 11
180.0
 21
-0.4999847412109375
 31
0.0
  0
LINE
  5
1FF
330
21
100
AcDbEntity
  8
0
  6
Continuous
 62
     7
100
AcDbLine
 10
84.50000000000001
 20
-37.50001525878906
 30
0.0
 11
180.0
 21
-37.50001525878906
 31
0.0
  0
ARC
  5
200
330
21
100
AcDbEntity
  8
0
  6
Continuous
 62
     7
100
AcDbCircle
 10
74.89483642578125
 20
-44.41973876953125
 30
0.0
 40
2.5
100
AcDbArc
 50
283.5636671870891
 51
284.008476426597
  0
ARC
  5
201
330
21
100
AcDbEntity
  8
0
  6
Continuous
 62
     7
100
AcDbCircle
 10
74.89483642578125
 20
5.58026123046875
 30
0.0
 40
2.5
100
AcDbArc
 50
283.5636671870891
 51
284.008476426597
  0
ARC
  5
202
330
21
100
AcDbEntity
  8
0
  6
Continuous
 62
     7
100
AcDbCircle
 10
74.89483642578125
 20
6.41973876953125
 30
0.0
 40
2.5
100
AcDbArc
 50
75.99152357340298
 51
76.43560198266968
  0
ARC
  5
203
330
21
100
AcDbEntity
  8
0
  6
Continuous
 62
     7
100
AcDbCircle
 10
74.89483642578125
 20
-43.58026123046875
 30
0.0
 40
2.5
100
AcDbArc
 50
75.99152357340298
 51
76.43633281291086
  0
ARC
  5
204
330
21
100
AcDbEntity
  8
0
  6
Continuous
 62
     7
100
AcDbCircle
 10
17.10516357421875
 20
-44.41973876953125
 30
0.0
 40
2.5
100
AcDbArc
 50
255.9915253946358
 51
256.4363346341437
  0
ARC
  5
205
330
21
100
AcDbEntity
  8
0
  6
Continuous
 62
     7
100
AcDbCircle
 10
17.10516357421875
 20
-43.58026123046875
 30
0.0
 40
2.5
100
AcDbArc
 50
103.5636653658563
 51
104.0084746053642
  0
ARC
  5
206
330
21
100
AcDbEntity
  8
0
  6
Continuous
 62
     7
100
AcDbCircle
 10
17.10516357421875
 20
5.58026123046875
 30
0.0
 40
2.5
100
AcDbArc
 50
255.9915253946358
 51
256.4363346341437
  0
ARC
  5
207
330
21
100
AcDbEntity
  8
0
  6
Continuous
 62
     7
100
AcDbCircle
 10
17.10516357421875
 20
6.41973876953125
 30
0.0
 40
2.5
100
AcDbArc
 50
103.5636653658563
 51
104.0084746053642
  0
CIRCLE
  5
208
330
21
100
AcDbEntity
  8
0
  6
Continuous
 62
     7
100
AcDbCircle
 10
26.0
 20
4.0
 30
0.0
 40
2.0
  0
CIRCLE
  5
209
330
21
100
AcDbEntity
  8
0
  6
Continuous
 62
     2
100
AcDbCircle
 10
26.0
 20
4.0
 30
0.0
 40
2.5
  0
CIRCLE
  5
20A
330
21
100
AcDbEntity
  8
0
  6
Continuous
 62
     2
100
AcDbCircle
 10
66.0
 20
4.0
 30
0.0
 40
2.5
  0
CIRCLE
  5
20B
330
21
100
AcDbEntity
  8
0
  6
Continuous
 62
     7
100
AcDbCircle
 10
66.0
 20
4.0
 30
0.0
 40
2.0
  0
CIRCLE
  5
20C
330
21
100
AcDbEntity
  8
0
  6
Continuous
 62
     7
100
AcDbCircle
 10
26.0
 20
-42.0
 30
0.0
 40
2.0
  0
CIRCLE
  5
20D
330
21
100
AcDbEntity
  8
0
  6
Continuous
 62
     2
100
AcDbCircle
 10
26.0
 20
-42.0
 30
0.0
 40
2.5
  0
CIRCLE
  5
20E
330
21
100
AcDbEntity
  8
0
  6
Continuous
 62
     2
100
AcDbCircle
 10
66.0
 20
-42.0
 30
0.0
 40
2.5
  0
CIRCLE
  5
20F
330
21
100
AcDbEntity
  8
0
  6
Continuous
 62
     7
100
AcDbCircle
 10
66.0
 20
-42.0
 30
0.0
 40
2.0
  0
CIRCLE
  5
210
330
21
100
AcDbEntity
  8
0
  6
Continuous
 62
     7
100
AcDbCircle
 10
192.0
 20
0.0
 30
0.0
 40
4.75
  0
CIRCLE
  5
211
330
21
100
AcDbEntity
  8
0
  6
Continuous
 62
     7
100
AcDbCircle
 10
192.0
 20
0.0
 30
0.0
 40
2.900000095367431
  0
CIRCLE
  5
212
330
21
100
AcDbEntity
  8
0
  6
Continuous
 62
     7
100
AcDbCircle
 10
192.0
 20
-38.0
 30
0.0
 40
4.75
  0
CIRCLE
  5
213
330
21
100
AcDbEntity
  8
0
  6
Continuous
 62
     7
100
AcDbCircle
 10
192.0
 20
-38.0
 30
0.0
 40
2.900000095367431
  0
CIRCLE
  5
214
330
21
100
AcDbEntity
  8
0
  6
Continuous
 62
     7
100
AcDbCircle
 10
0.0
 20
-38.0
 30
0.0
 40
2.900000095367431
  0
CIRCLE
  5
215
330
21
100
AcDbEntity
  8
0
  6
Continuous
 62
     7
100
AcDbCircle
 10
0.0
 20
-38.0
 30
0.0
 40
4.75
  0
CIRCLE
  5
216
330
21
100
AcDbEntity
  8
0
  6
Continuous
 62
     7
100
AcDbCircle
 10
0.0
 20
0.0
 30
0.0
 40
2.900000095367431
  0
CIRCLE
  5
217
330
21
100
AcDbEntity
  8
0
  6
Continuous
 62
     7
100
AcDbCircle
 10
0.0
 20
0.0
 30
0.0
 40
4.75
  0
ARC
  5
218
330
21
100
AcDbEntity
  8
0
  6
Continuous
 62
     7
100
AcDbCircle
 10
17.5
 20
11.5
 30
0.0
 40
1.0
100
AcDbArc
 50
89.99999567428899
 51
180.0000050089563
  0
CIRCLE
  5
219
330
21
100
AcDbEntity
  8
0
  6
Continuous
 62
     7
100
AcDbCircle
 10
80.0
 20
4.0
 30
0.0
 40
2.0
  0
CIRCLE
  5
21A
330
21
100
AcDbEntity
  8
0
  6
Continuous
 62
     2
100
AcDbCircle
 10
80.0
 20
4.0
 30
0.0
 40
2.5
  0
ARC
  5
21B
330
21
100
AcDbEntity
  8
0
  6
Continuous
 62
     7
100
AcDbCircle
 10
17.5
 20
-49.5
 30
0.0
 40
1.0
100
AcDbArc
 50
180.000008651422
 51
270.000004325711
  0
ARC
  5
21C
330
21
100
AcDbEntity
  8
0
  6
Continuous
 62
     7
100
AcDbCircle
 10
74.5
 20
11.5
 30
0.0
 40
1.0
100
AcDbArc
 50
359.9999906653324
 51
90.00000250447817
  0
ARC
  5
21D
330
21
100
AcDbEntity
  8
0
  6
Continuous
 62
     7
100
AcDbCircle
 10
79.5
 20
11.0
 30
0.0
 40
5.0
100
AcDbArc
 50
359.9999906653324
 51
90.00000250447817
  0
ARC
  5
21E
330
21
100
AcDbEntity
  8
0
  6
Continuous
 62
     7
100
AcDbCircle
 10
12.5
 20
11.0
 30
0.0
 40
5.0
100
AcDbArc
 50
89.99999567428899
 51
180.0000050089563
  0
ARC
  5
21F
330
21
100
AcDbEntity
  8
0
  6
Continuous
 62
     7
100
AcDbCircle
 10
74.5
 20
-49.5
 30
0.0
 40
1.0
100
AcDbArc
 50
270.0000111559001
 51
0.0000043257111045
  0
ARC
  5
220
330
21
100
AcDbEntity
  8
0
  6
Continuous
 62
     7
100
AcDbCircle
 10
79.5
 20
-49.0
 30
0.0
 40
5.0
100
AcDbArc
 50
270.0000111559001
 51
0.0000043257111045
  0
ARC
  5
221
330
21
100
AcDbEntity
  8
0
  6
Continuous
 62
     7
100
AcDbCircle
 10
12.5
 20
-49.0
 30
0.0
 40
5.0
100
AcDbArc
 50
180.000008651422
 51
270.000004325711
  0
CIRCLE
  5
222
330
21
100
AcDbEntity
  8
0
  6
Continuous
 62
     7
100
AcDbCircle
 10
12.0
 20
4.0
 30
0.0
 40
2.0
  0
CIRCLE
  5
223
330
21
100
AcDbEntity
  8
0
  6
Continuous
 62
     2
100
AcDbCircle
 10
12.0
 20
4.0
 30
0.0
 40
2.5
  0
CIRCLE
  5
224
330
21
100
AcDbEntity
  8
0
  6
Continuous
 62
     7
100
AcDbCircle
 10
80.0
 20
-42.0
 30
0.0
 40
2.0
  0
CIRCLE
  5
225
330
21
100
AcDbEntity
  8
0
  6
Continuous
 62
     2
100
AcDbCircle
 10
80.0
 20
-42.0
 30
0.0
 40
2.5
  0
CIRCLE
  5
226
330
21
100
AcDbEntity
  8
0
  6
Continuous
 62
     7
100
AcDbCircle
 10
12.0
 20
-42.0
 30
0.0
 40
2.0
  0
CIRCLE
  5
227
330
21
100
AcDbEntity
  8
0
  6
Continuous
 62
     2
100
AcDbCircle
 10
12.0
 20
-42.0
 30
0.0
 40
2.5
  0
LINE
  5
228
330
21
100
AcDbEntity
  8
0
  6
Continuous
 62
     7
100
AcDbLine
 10
193.0
 20
-55.69999694824218
 30
0.0
 11
-1.0
 21
-55.69999694824218
 31
0.0
  0
LINE
  5
229
330
21
100
AcDbEntity
  8
0
  6
Continuous
 62
     7
100
AcDbLine
 10
-1.0
 20
-55.69999694824218
 30
0.0
 11
-1.0
 21
-49.5
 31
0.0
  0
LINE
  5
22A
330
21
100
AcDbEntity
  8
0
  6
Continuous
 62
     7
100
AcDbLine
 10
193.0
 20
-55.69999694824218
 30
0.0
 11
193.0
 21
-49.5
 31
0.0
  0
LINE
  5
22B
330
21
100
AcDbEntity
  8
0
  6
Continuous
 62
     7
100
AcDbLine
 10
180.0
 20
-48.5
 30
0.0
 11
84.50000000000001
 21
-48.5
 31
0.0
  0
LINE
  5
22C
330
21
100
AcDbEntity
  8
0
  6
Continuous
 62
     2
100
AcDbLine
 10
46.0
 20
21.78538833835813
 30
0.0
 11
46.0
 21
-61.75981372980562
 31
0.0
  0
LINE
  5
22D
330
21
100
AcDbEntity
  8
0
  6
PHANTOM
 62
     3
100
AcDbLine
 10
120.5
 20
51.0
 30
0.0
 11
120.5
 21
-73.54210499462327
 31
0.0
  0
ENDBLK
  5
22E
330
21
100
AcDbEntity
  8
0
100
AcDbBlockEnd
  0
BLOCK
  5
22F
330
22
100
AcDbEntity
  8
0
100
AcDbBlockBegin
  2
MRVS22-5
 70
     0
 10
0.0
 20
0.0
 30
0.0
  3
MRVS22-5
  1

  0
LINE
  5
230
330
22
100
AcDbEntity
  8
0
  6
Continuous
 62
     7
100
AcDbLine
 10
12.813059758495
 20
-27.1487039104793
 30
0.0
 11
19.68692484567691
 21
-31.1173318401668
 31
0.0
  0
LINE
  5
231
330
22
100
AcDbEntity
  8
0
  6
Continuous
 62
     7
100
AcDbLine
 10
13.313059758495
 20
-26.28267852223848
 30
0.0
 11
20.18692484567691
 21
-30.25130645192599
 31
0.0
  0
LINE
  5
232
330
22
100
AcDbEntity
  8
0
  6
Continuous
 62
     7
100
AcDbLine
 10
21.7783203125
 20
-17.75
 30
0.0
 11
23.2216796875
 21
-17.75
 31
0.0
  0
LINE
  5
233
330
22
100
AcDbEntity
  8
0
  6
Continuous
 62
     7
100
AcDbLine
 10
21.77833488026772
 20
-17.75003068129217
 30
0.0
 11
21.05665519276772
 21
-19.00001654439757
 31
0.0
  0
LINE
  5
234
330
22
100
AcDbEntity
  8
0
  6
Continuous
 62
     7
100
AcDbLine
 10
21.7783203125
 20
-20.25
 30
0.0
 11
23.2216796875
 21
-20.25
 31
0.0
  0
LINE
  5
235
330
22
100
AcDbEntity
  8
0
  6
Continuous
 62
     7
100
AcDbLine
 10
21.77832372212924
 20
-20.24999265180122
 30
0.0
 11
21.05662877584018
 21
-18.99998035969838
 31
0.0
  0
LINE
  5
236
330
22
100
AcDbEntity
  8
0
  6
Continuous
 62
     7
100
AcDbLine
 10
11.2216796875
 20
-20.25
 30
0.0
 11
9.7783203125
 21
-20.25
 31
0.0
  0
LINE
  5
237
330
22
100
AcDbEntity
  8
0
  6
Continuous
 62
     7
100
AcDbLine
 10
9.77832507758012
 20
-20.24999205575477
 30
0.0
 11
9.056630131291058
 21
-18.99997976365193
 31
0.0
  0
LINE
  5
238
330
22
100
AcDbEntity
  8
0
  6
Continuous
 62
     7
100
AcDbLine
 10
11.2216796875
 20
-17.75
 30
0.0
 11
9.7783203125
 21
-17.75
 31
0.0
  0
LINE
  5
239
330
22
100
AcDbEntity
  8
0
  6
Continuous
 62
     7
100
AcDbLine
 10
11.22169360189309
 20
-17.74997976365193
 30
0.0
 11
11.94338854818215
 21
-18.99999205575477
 31
0.0
  0
LINE
  5
23A
330
22
100
AcDbEntity
  8
0
  6
Continuous
 62
     7
100
AcDbLine
 10
9.778309806721154
 20
-17.75001601854956
 30
0.0
 11
9.056630119221154
 21
-19.00000188165495
 31
0.0
  0
LINE
  5
23B
330
22
100
AcDbEntity
  8
0
  6
Continuous
 62
     7
100
AcDbLine
 10
11.22169358982319
 20
-20.25000188165495
 30
0.0
 11
11.94337327732319
 21
-19.00001601854956
 31
0.0
  0
CIRCLE
  5
23C
330
22
100
AcDbEntity
  8
0
  6
Continuous
 62
     7
100
AcDbCircle
 10
16.5
 20
-28.69998168945313
 30
0.0
 40
4.0
  0
CIRCLE
  5
23D
330
22
100
AcDbEntity
  8
0
  6
Continuous
 62
     7
100
AcDbCircle
 10
16.5
 20
-28.69998168945313
 30
0.0
 40
5.5
  0
CIRCLE
  5
23E
330
22
100
AcDbEntity
  8
0
  6
Continuous
 62
     7
100
AcDbCircle
 10
22.5
 20
-19.0
 30
0.0
 40
3.25
  0
CIRCLE
  5
23F
330
22
100
AcDbEntity
  8
0
  6
Continuous
 62
     7
100
AcDbCircle
 10
10.5
 20
-19.0
 30
0.0
 40
3.25
  0
LINE
  5
240
330
22
100
AcDbEntity
  8
0
  6
Continuous
 62
     7
100
AcDbLine
 10
23.22169224644222
 20
-17.74998035969838
 30
0.0
 11
23.94338719273128
 21
-18.99999265180122
 31
0.0
  0
LINE
  5
241
330
22
100
AcDbEntity
  8
0
  6
Continuous
 62
     7
100
AcDbLine
 10
23.22171866336976
 20
-20.25001654439757
 30
0.0
 11
23.94339835086976
 21
-19.00003068129217
 31
0.0
  0
LINE
  5
242
330
22
100
AcDbEntity
  8
0
  6
Continuous
 62
     2
100
AcDbLine
 10
25.0
 20
-28.69998168945313
 30
0.0
 11
8.0
 21
-28.69998168945313
 31
0.0
  0
CIRCLE
  5
243
330
22
100
AcDbEntity
  8
0
  6
Continuous
 62
     7
100
AcDbCircle
 10
26.0
 20
-46.0
 30
0.0
 40
2.25
  0
CIRCLE
  5
244
330
22
100
AcDbEntity
  8
0
  6
Continuous
 62
     7
100
AcDbCircle
 10
26.0
 20
8.0
 30
0.0
 40
2.25
  0
LINE
  5
245
330
22
100
AcDbEntity
  8
0
  6
Continuous
 62
     2
100
AcDbLine
 10
35.0
 20
-19.0
 30
0.0
 11
-6.14532617772386
 21
-19.0
 31
0.0
  0
LINE
  5
246
330
22
100
AcDbEntity
  8
0
  6
Continuous
 62
     7
100
AcDbLine
 10
24.0
 20
-54.0
 30
0.0
 11
24.0
 21
-49.5
 31
0.0
  0
LINE
  5
247
330
22
100
AcDbEntity
  8
0
  6
Continuous
 62
     7
100
AcDbLine
 10
24.0
 20
16.0
 30
0.0
 11
24.0
 21
11.5
 31
0.0
  0
LINE
  5
248
330
22
100
AcDbEntity
  8
0
  6
Continuous
 62
     7
100
AcDbLine
 10
24.0
 20
-54.0
 30
0.0
 11
32.0
 21
-54.0
 31
0.0
  0
LINE
  5
249
330
22
100
AcDbEntity
  8
0
  6
Continuous
 62
     7
100
AcDbLine
 10
32.0
 20
-54.0
 30
0.0
 11
32.0
 21
16.0
 31
0.0
  0
LINE
  5
24A
330
22
100
AcDbEntity
  8
0
  6
Continuous
 62
     7
100
AcDbLine
 10
24.0
 20
16.0
 30
0.0
 11
32.0
 21
16.0
 31
0.0
  0
LINE
  5
24B
330
22
100
AcDbEntity
  8
0
  6
Continuous
 62
     2
100
AcDbLine
 10
16.5
 20
-52.5
 30
0.0
 11
16.5
 21
14.5
 31
0.0
  0
LINE
  5
24C
330
22
100
AcDbEntity
  8
0
  6
Continuous
 62
     7
100
AcDbLine
 10
0.0
 20
-49.5
 30
0.0
 11
0.0
 21
-29.99997234046896
 31
0.0
  0
LINE
  5
24D
330
22
100
AcDbEntity
  8
0
  6
Continuous
 62
     7
100
AcDbLine
 10
2.5
 20
10.5
 30
0.0
 11
2.5
 21
11.5
 31
0.0
  0
LINE
  5
24E
330
22
100
AcDbEntity
  8
0
  6
Continuous
 62
     7
100
AcDbLine
 10
9.5
 20
10.5
 30
0.0
 11
9.5
 21
11.5
 31
0.0
  0
LINE
  5
24F
330
22
100
AcDbEntity
  8
0
  6
Continuous
 62
     7
100
AcDbLine
 10
9.5
 20
10.5
 30
0.0
 11
2.5
 21
10.5
 31
0.0
  0
LINE
  5
250
330
22
100
AcDbEntity
  8
0
  6
Continuous
 62
     7
100
AcDbLine
 10
2.5
 20
11.5
 30
0.0
 11
0.0
 21
11.5
 31
0.0
  0
LINE
  5
251
330
22
100
AcDbEntity
  8
0
  6
Continuous
 62
     7
100
AcDbLine
 10
2.5
 20
-49.5
 30
0.0
 11
0.0
 21
-49.5
 31
0.0
  0
LINE
  5
252
330
22
100
AcDbEntity
  8
0
  6
Continuous
 62
     7
100
AcDbLine
 10
9.5
 20
-48.5
 30
0.0
 11
2.5
 21
-48.5
 31
0.0
  0
LINE
  5
253
330
22
100
AcDbEntity
  8
0
  6
Continuous
 62
     7
100
AcDbLine
 10
0.29998779296875
 20
-29.69998454750021
 30
0.0
 11
0.29998779296875
 21
-8.299985533980361
 31
0.0
  0
LINE
  5
254
330
22
100
AcDbEntity
  8
0
  6
Continuous
 62
     7
100
AcDbLine
 10
-0.0000000000000001
 20
-7.99999774101161
 30
0.0
 11
0.2999877929687504
 21
-8.299985533980361
 31
0.0
  0
LINE
  5
255
330
22
100
AcDbEntity
  8
0
  6
Continuous
 62
     7
100
AcDbLine
 10
0.0000000000000008
 20
-29.99997234046896
 30
0.0
 11
0.2999877929687496
 21
-29.69998454750021
 31
0.0
  0
LINE
  5
256
330
22
100
AcDbEntity
  8
0
  6
Continuous
 62
     7
100
AcDbLine
 10
0.0
 20
-7.99999774101161
 30
0.0
 11
0.0
 21
11.5
 31
0.0
  0
LINE
  5
257
330
22
100
AcDbEntity
  8
0
  6
Continuous
 62
     7
100
AcDbLine
 10
27.99999991257721
 20
11.5
 30
0.0
 11
9.5
 21
11.5
 31
0.0
  0
LINE
  5
258
330
22
100
AcDbEntity
  8
0
  6
Continuous
 62
     7
100
AcDbLine
 10
27.99999995628855
 20
-49.5
 30
0.0
 11
9.5
 21
-49.5
 31
0.0
  0
ARC
  5
259
330
22
100
AcDbEntity
  8
0
  6
Continuous
 62
     7
100
AcDbCircle
 10
28.0
 20
-48.5
 30
0.0
 40
1.0
100
AcDbArc
 50
269.9999974955219
 51
0.0000025044781673
  0
ARC
  5
25A
330
22
100
AcDbEntity
  8
0
  6
Continuous
 62
     7
100
AcDbCircle
 10
28.0
 20
10.5
 30
0.0
 40
1.0
100
AcDbArc
 50
0.0000025044781673
 51
90.00000500895634
  0
LINE
  5
25B
330
22
100
AcDbEntity
  8
0
  6
Continuous
 62
     7
100
AcDbLine
 10
9.5
 20
-55.20001220703125
 30
0.0
 11
9.5
 21
-48.5
 31
0.0
  0
LINE
  5
25C
330
22
100
AcDbEntity
  8
0
  6
Continuous
 62
     7
100
AcDbLine
 10
2.5
 20
-55.20001220703125
 30
0.0
 11
2.5
 21
-48.5
 31
0.0
  0
LINE
  5
25D
330
22
100
AcDbEntity
  8
0
  6
Continuous
 62
     2
100
AcDbLine
 10
6.0
 20
-47.68200683593749
 30
0.0
 11
6.0
 21
-56.39181518554688
 31
0.0
  0
LINE
  5
25E
330
22
100
AcDbEntity
  8
0
  6
Continuous
 62
     7
100
AcDbLine
 10
7.600006103515625
 20
-55.70001220703125
 30
0.0
 11
7.600006103515625
 21
-55.20001220703125
 31
0.0
  0
LINE
  5
25F
330
22
100
AcDbEntity
  8
0
  6
Continuous
 62
     7
100
AcDbLine
 10
3.900026410571172
 20
-54.69997590922185
 30
0.0
 11
4.400037730958956
 21
-55.19998722960963
 31
0.0
  0
LINE
  5
260
330
22
100
AcDbEntity
  8
0
  6
Continuous
 62
     7
100
AcDbLine
 10
8.100026553409861
 20
-54.69997590922185
 30
0.0
 11
7.600015233022077
 21
-55.19998722960963
 31
0.0
  0
LINE
  5
261
330
22
100
AcDbEntity
  8
0
  6
Continuous
 62
     7
100
AcDbLine
 10
4.399993896484375
 20
-55.70001220703125
 30
0.0
 11
4.399993896484375
 21
-55.19998168945313
 31
0.0
  0
LINE
  5
262
330
22
100
AcDbEntity
  8
0
  6
Continuous
 62
     7
100
AcDbLine
 10
8.100006103515625
 20
-53.10000610351561
 30
0.0
 11
8.100006103515625
 21
-54.70001220703125
 31
0.0
  0
LINE
  5
263
330
22
100
AcDbEntity
  8
0
  6
Continuous
 62
     7
100
AcDbLine
 10
3.0
 20
-55.70001220703125
 30
0.0
 11
4.399993896484375
 21
-55.70001220703125
 31
0.0
  0
LINE
  5
264
330
22
100
AcDbEntity
  8
0
  6
Continuous
 62
     7
100
AcDbLine
 10
9.0
 20
-55.70001220703125
 30
0.0
 11
7.600006103515625
 21
-55.70001220703125
 31
0.0
  0
LINE
  5
265
330
22
100
AcDbEntity
  8
0
  6
Continuous
 62
     7
100
AcDbLine
 10
3.899993896484375
 20
-53.10000610351561
 30
0.0
 11
3.899993896484375
 21
-54.69998168945313
 31
0.0
  0
ARC
  5
266
330
22
100
AcDbEntity
  8
0
  6
Continuous
 62
     7
100
AcDbCircle
 10
3.0
 20
-55.20001220703125
 30
0.0
 40
0.5
100
AcDbArc
 50
179.9999974955218
 51
270.0000086514222
  0
ARC
  5
267
330
22
100
AcDbEntity
  8
0
  6
Continuous
 62
     7
100
AcDbCircle
 10
6.0
 20
-53.10000610351561
 30
0.0
 40
2.099999904632568
100
AcDbArc
 50
359.9999956742889
 51
180.0000006832453
  0
ARC
  5
268
330
22
100
AcDbEntity
  8
0
  6
Continuous
 62
     7
100
AcDbCircle
 10
9.0
 20
-55.20001220703125
 30
0.0
 40
0.5
100
AcDbArc
 50
269.9999949910439
 51
0.0000025044781673
  0
CIRCLE
  5
269
330
22
100
AcDbEntity
  8
0
  6
Continuous
 62
     7
100
AcDbCircle
 10
5.349999997275176
 20
-53.20001268468479
 30
0.0
 40
0.5
  0
CIRCLE
  5
26A
330
22
100
AcDbEntity
  8
0
  6
Continuous
 62
     7
100
AcDbCircle
 10
5.349999997275176
 20
-53.20001268468479
 30
0.0
 40
0.29
  0
CIRCLE
  5
26B
330
22
100
AcDbEntity
  8
0
  6
Continuous
 62
     7
100
AcDbCircle
 10
6.0
 20
-53.20001268468479
 30
0.0
 40
1.300000000000011
  0
LINE
  5
26C
330
22
100
AcDbEntity
  8
0
  6
Continuous
 62
     7
100
AcDbLine
 10
7.5
 20
-55.70001220703125
 30
0.0
 11
4.5
 21
-55.70001220703125
 31
0.0
  0
LINE
  5
26D
330
22
100
AcDbEntity
  8
0
  6
Continuous
 62
     7
100
AcDbLine
 10
7.25
 20
-55.93741160885373
 30
0.0
 11
4.75
 21
-55.93741160885373
 31
0.0
  0
LINE
  5
26E
330
22
100
AcDbEntity
  8
0
  6
Continuous
 62
     7
100
AcDbLine
 10
7.050000000000011
 20
-56.13741160885375
 30
0.0
 11
4.949999999999988
 21
-56.13741160885375
 31
0.0
  0
ARC
  5
26F
330
22
100
AcDbEntity
  8
0
  6
Continuous
 62
     7
100
AcDbCircle
 10
6.0
 20
-53.15001220703125
 30
0.0
 40
2.049999999999996
100
AcDbArc
 50
12.68038349181954
 51
167.3196165081805
  0
LINE
  5
270
330
22
100
AcDbEntity
  8
0
  6
Continuous
 62
     7
100
AcDbLine
 10
4.75
 20
-55.93741160885373
 30
0.0
 11
4.75
 21
-55.70001220703125
 31
0.0
  0
LINE
  5
271
330
22
100
AcDbEntity
  8
0
  6
Continuous
 62
     7
100
AcDbLine
 10
4.949999999999988
 20
-56.13741160885375
 30
0.0
 11
4.75
 21
-55.93741160885373
 31
0.0
  0
LINE
  5
272
330
22
100
AcDbEntity
  8
0
  6
Continuous
 62
     2
100
AcDbLine
 10
4.949999999999988
 20
-55.70001220703125
 30
0.0
 11
4.949999999999988
 21
-56.13741160885375
 31
0.0
  0
CIRCLE
  5
273
330
22
100
AcDbEntity
  8
0
  6
Continuous
 62
     7
100
AcDbCircle
 10
6.650000002724767
 20
-53.2000126846848
 30
0.0
 40
0.5
  0
CIRCLE
  5
274
330
22
100
AcDbEntity
  8
0
  6
Continuous
 62
     7
100
AcDbCircle
 10
6.650000002724767
 20
-53.2000126846848
 30
0.0
 40
0.29
  0
LINE
  5
275
330
22
100
AcDbEntity
  8
0
  6
Continuous
 62
     7
100
AcDbLine
 10
8.0
 20
-54.65027262369792
 30
0.0
 11
7.5
 21
-55.15287679036458
 31
0.0
  0
LINE
  5
276
330
22
100
AcDbEntity
  8
0
  6
Continuous
 62
     7
100
AcDbLine
 10
7.5
 20
-55.15287679036458
 30
0.0
 11
7.5
 21
-55.70001220975601
 31
0.0
  0
LINE
  5
277
330
22
100
AcDbEntity
  8
0
  6
Continuous
 62
     7
100
AcDbLine
 10
7.25
 20
-55.70001220703125
 30
0.0
 11
7.25
 21
-55.93741160885373
 31
0.0
  0
LINE
  5
278
330
22
100
AcDbEntity
  8
0
  6
Continuous
 62
     7
100
AcDbLine
 10
7.25
 20
-55.93741160885373
 30
0.0
 11
7.050000000000011
 21
-56.13741160885375
 31
0.0
  0
LINE
  5
279
330
22
100
AcDbEntity
  8
0
  6
Continuous
 62
     2
100
AcDbLine
 10
7.050000000000011
 20
-55.70001220703125
 30
0.0
 11
7.050000000000011
 21
-56.13741160885375
 31
0.0
  0
LINE
  5
27A
330
22
100
AcDbEntity
  8
0
  6
Continuous
 62
     7
100
AcDbLine
 10
8.0
 20
-52.70001220703125
 30
0.0
 11
8.0
 21
-54.65027262369792
 31
0.0
  0
LINE
  5
27B
330
22
100
AcDbEntity
  8
0
  6
Continuous
 62
     7
100
AcDbLine
 10
4.0
 20
-52.70001220703125
 30
0.0
 11
4.0
 21
-54.65001220703125
 31
0.0
  0
LINE
  5
27C
330
22
100
AcDbEntity
  8
0
  6
Continuous
 62
     7
100
AcDbLine
 10
4.500000006130732
 20
-55.15001221316202
 30
0.0
 11
4.0
 21
-54.65001220703125
 31
0.0
  0
LINE
  5
27D
330
22
100
AcDbEntity
  8
0
  6
Continuous
 62
     7
100
AcDbLine
 10
4.5
 20
-55.15001220703125
 30
0.0
 11
4.5
 21
-55.70001220975601
 31
0.0
  0
LINE
  5
27E
330
22
100
AcDbEntity
  8
0
  6
Continuous
 62
     7
100
AcDbLine
 10
28.5
 20
-7.000012323773263
 30
0.0
 11
28.5
 21
-30.99999101437788
 31
0.0
  0
LINE
  5
27F
330
22
100
AcDbEntity
  8
0
  6
Continuous
 62
     7
100
AcDbLine
 10
29.0
 20
10.5
 30
0.0
 11
29.0
 21
-6.500012323773262
 31
0.0
  0
LINE
  5
280
330
22
100
AcDbEntity
  8
0
  6
Continuous
 62
     7
100
AcDbLine
 10
29.0
 20
-6.500012323773262
 30
0.0
 11
28.5
 21
-7.000012323773263
 31
0.0
  0
LINE
  5
281
330
22
100
AcDbEntity
  8
0
  6
Continuous
 62
     7
100
AcDbLine
 10
29.0
 20
-31.49999101437789
 30
0.0
 11
29.0
 21
-48.5
 31
0.0
  0
LINE
  5
282
330
22
100
AcDbEntity
  8
0
  6
Continuous
 62
     7
100
AcDbLine
 10
29.0
 20
-31.49999101437789
 30
0.0
 11
28.5
 21
-30.99999101437788
 31
0.0
  0
LINE
  5
283
330
22
100
AcDbEntity
  8
0
  6
Continuous
 62
     2
100
AcDbLine
 10
-3.000015258789062
 20
0.0
 30
0.0
 11
2.999984741210937
 21
0.0
 31
0.0
  0
LINE
  5
284
330
22
100
AcDbEntity
  8
0
  6
Continuous
 62
     2
100
AcDbLine
 10
-3.000015258789062
 20
-38.0
 30
0.0
 11
2.999984741210937
 21
-38.0
 31
0.0
  0
LINE
  5
285
330
22
100
AcDbEntity
  8
0
  6
Continuous
 62
     2
100
AcDbLine
 10
28.99998474121094
 20
4.0
 30
0.0
 11
34.99998474121093
 21
4.0
 31
0.0
  0
LINE
  5
286
330
22
100
AcDbEntity
  8
0
  6
Continuous
 62
     2
100
AcDbLine
 10
28.99998474121094
 20
-42.0
 30
0.0
 11
34.99998474121093
 21
-42.0
 31
0.0
  0
ENDBLK
  5
287
330
22
100
AcDbEntity
  8
0
100
AcDbBlockEnd
  0
BLOCK
  5
288
330
23
100
AcDbEntity
  8
0
100
AcDbBlockBegin
  2
MRVS22-6
 70
     0
 10
0.0
 20
0.0
 30
0.0
  3
MRVS22-6
  1

  0
LINE
  5
289
330
23
100
AcDbEntity
  8
0
  6
Continuous
 62
     2
100
AcDbLine
 10
-7.499984741210937
 20
16.5
 30
0.0
 11
202.500015258789
 21
16.5
 31
0.0
  0
LINE
  5
28A
330
23
100
AcDbEntity
  8
0
  6
Continuous
 62
     7
100
AcDbLine
 10
18.50001525878906
 20
13.64999389648437
 30
0.0
 11
18.01887512207031
 21
13.64999389648437
 31
0.0
  0
LINE
  5
28B
330
23
100
AcDbEntity
  8
0
  6
Continuous
 62
     7
100
AcDbLine
 10
18.50001525878906
 20
19.35000610351562
 30
0.0
 11
18.01887512207031
 21
19.35000610351562
 31
0.0
  0
LINE
  5
28C
330
23
100
AcDbEntity
  8
0
  6
Continuous
 62
     7
100
AcDbLine
 10
16.85002136230469
 20
14.30000305175781
 30
0.0
 11
16.85002136230469
 21
18.69999694824219
 31
0.0
  0
LINE
  5
28D
330
23
100
AcDbEntity
  8
0
  6
Continuous
 62
     2
100
AcDbLine
 10
47.50001525878906
 20
37.2263832931345
 30
0.0
 11
47.50001525878906
 21
-4.42364501953125
 31
0.0
  0
LINE
  5
28E
330
23
100
AcDbEntity
  8
0
  6
Continuous
 62
     7
100
AcDbLine
 10
18.50001525878906
 20
2.0
 30
0.0
 11
76.50001525878906
 21
2.0
 31
0.0
  0
LINE
  5
28F
330
23
100
AcDbEntity
  8
0
  6
Continuous
 62
     2
100
AcDbLine
 10
188.000015258789
 20
21.53999328613281
 30
0.0
 11
188.000015258789
 21
11.46000671386719
 31
0.0
  0
LINE
  5
290
330
23
100
AcDbEntity
  8
0
  6
Continuous
 62
     7
100
AcDbLine
 10
7.000015258789063
 20
23.0
 30
0.0
 11
13.50001525878906
 21
23.0
 31
0.0
  0
LINE
  5
291
330
23
100
AcDbEntity
  8
0
  6
Continuous
 62
     7
100
AcDbLine
 10
199.500015258789
 20
29.0
 30
0.0
 11
188.000015258789
 21
29.0
 31
0.0
  0
LINE
  5
292
330
23
100
AcDbEntity
  8
0
  6
Continuous
 62
     7
100
AcDbLine
 10
199.500015258789
 20
29.0
 30
0.0
 11
199.500015258789
 21
0.0
 31
0.0
  0
LINE
  5
293
330
23
100
AcDbEntity
  8
0
  6
Continuous
 62
     7
100
AcDbLine
 10
181.500015258789
 20
26.5
 30
0.0
 11
181.500015258789
 21
9.5
 31
0.0
  0
LINE
  5
294
330
23
100
AcDbEntity
  8
0
  6
Continuous
 62
     2
100
AcDbLine
 10
7.000015258789063
 20
21.53999328613281
 30
0.0
 11
7.000015258789063
 21
11.46000671386719
 31
0.0
  0
LINE
  5
295
330
23
100
AcDbEntity
  8
0
  6
Continuous
 62
     7
100
AcDbLine
 10
-4.499984741210937
 20
29.0
 30
0.0
 11
7.000015258789063
 21
29.0
 31
0.0
  0
LINE
  5
296
330
23
100
AcDbEntity
  8
0
  6
Continuous
 62
     7
100
AcDbLine
 10
-4.499984741210937
 20
29.0
 30
0.0
 11
-4.499984741210937
 21
0.0
 31
0.0
  0
LINE
  5
297
330
23
100
AcDbEntity
  8
0
  6
Continuous
 62
     7
100
AcDbLine
 10
76.50001525878906
 20
13.64999389648437
 30
0.0
 11
76.98115539550781
 21
13.64999389648437
 31
0.0
  0
LINE
  5
298
330
23
100
AcDbEntity
  8
0
  6
Continuous
 62
     7
100
AcDbLine
 10
76.50001525878906
 20
19.35000610351562
 30
0.0
 11
76.98115539550781
 21
19.35000610351562
 31
0.0
  0
LINE
  5
299
330
23
100
AcDbEntity
  8
0
  6
Continuous
 62
     7
100
AcDbLine
 10
78.15000915527342
 20
14.30000305175781
 30
0.0
 11
78.15000915527342
 21
18.69999694824219
 31
0.0
  0
LINE
  5
29A
330
23
100
AcDbEntity
  8
0
  6
Continuous
 62
     7
100
AcDbLine
 10
188.000015258789
 20
23.0
 30
0.0
 11
181.500015258789
 21
23.0
 31
0.0
  0
LINE
  5
29B
330
23
100
AcDbEntity
  8
0
  6
Continuous
 62
     7
100
AcDbLine
 10
188.000015258789
 20
29.0
 30
0.0
 11
188.000015258789
 21
23.0
 31
0.0
  0
LINE
  5
29C
330
23
100
AcDbEntity
  8
0
  6
Continuous
 62
     7
100
AcDbLine
 10
18.50001525878906
 20
11.49998474121094
 30
0.0
 11
21.00001525878907
 21
11.49998474121094
 31
0.0
  0
LINE
  5
29D
330
23
100
AcDbEntity
  8
0
  6
Continuous
 62
     7
100
AcDbLine
 10
18.50001525878906
 20
14.0980224609375
 30
0.0
 11
76.50001525878906
 21
14.0980224609375
 31
0.0
  0
LINE
  5
29E
330
23
100
AcDbEntity
  8
0
  6
Continuous
 62
     7
100
AcDbLine
 10
7.000015258789063
 20
29.0
 30
0.0
 11
7.000015258789063
 21
23.0
 31
0.0
  0
LINE
  5
29F
330
23
100
AcDbEntity
  8
0
  6
Continuous
 62
     7
100
AcDbLine
 10
188.000015258789
 20
26.5
 30
0.0
 11
181.500015258789
 21
26.5
 31
0.0
  0
LINE
  5
2A0
330
23
100
AcDbEntity
  8
0
  6
Continuous
 62
     7
100
AcDbLine
 10
7.000015258789063
 20
26.5
 30
0.0
 11
9.000015258789062
 21
26.5
 31
0.0
  0
LINE
  5
2A1
330
23
100
AcDbEntity
  8
0
  6
Continuous
 62
     7
100
AcDbLine
 10
9.000015258789062
 20
32.0
 30
0.0
 11
86.00001525878907
 21
32.0
 31
0.0
  0
LINE
  5
2A2
330
23
100
AcDbEntity
  8
0
  6
Continuous
 62
     7
100
AcDbLine
 10
9.000015258789062
 20
32.0
 30
0.0
 11
9.000015258789062
 21
24.0
 31
0.0
  0
LINE
  5
2A3
330
23
100
AcDbEntity
  8
0
  6
Continuous
 62
     7
100
AcDbLine
 10
86.00001525878907
 20
32.0
 30
0.0
 11
86.00001525878907
 21
24.0
 31
0.0
  0
LINE
  5
2A4
330
23
100
AcDbEntity
  8
0
  6
Continuous
 62
     7
100
AcDbLine
 10
9.000015258789062
 20
24.0
 30
0.0
 11
86.00001525878907
 21
24.0
 31
0.0
  0
LINE
  5
2A5
330
23
100
AcDbEntity
  8
0
  6
Continuous
 62
     7
100
AcDbLine
 10
18.50001525878906
 20
24.0
 30
0.0
 11
18.50001525878906
 21
9.5
 31
0.0
  0
LINE
  5
2A6
330
23
100
AcDbEntity
  8
0
  6
Continuous
 62
     7
100
AcDbLine
 10
20.10002136230469
 20
24.0
 30
0.0
 11
20.10002136230469
 21
9.5
 31
0.0
  0
LINE
  5
2A7
330
23
100
AcDbEntity
  8
0
  6
Continuous
 62
     7
100
AcDbLine
 10
74.90000915527343
 20
24.0
 30
0.0
 11
74.90000915527343
 21
9.5
 31
0.0
  0
LINE
  5
2A8
330
23
100
AcDbEntity
  8
0
  6
Continuous
 62
     7
100
AcDbLine
 10
76.50001525878906
 20
24.0
 30
0.0
 11
76.50001525878906
 21
9.5
 31
0.0
  0
LINE
  5
2A9
330
23
100
AcDbEntity
  8
0
  6
Continuous
 62
     7
100
AcDbLine
 10
86.00001525878907
 20
25.29998779296875
 30
0.0
 11
181.500015258789
 21
25.29998779296875
 31
0.0
  0
LINE
  5
2AA
330
23
100
AcDbEntity
  8
0
  6
Continuous
 62
     7
100
AcDbLine
 10
13.50001525878906
 20
24.0
 30
0.0
 11
13.50001525878906
 21
9.5
 31
0.0
  0
ARC
  5
2AB
330
23
100
AcDbEntity
  8
0
  6
Continuous
 62
     7
100
AcDbCircle
 10
18.60517883300781
 20
16.91972351074219
 30
0.0
 40
2.5
100
AcDbArc
 50
103.5636653658563
 51
134.5931532935217
  0
ARC
  5
2AC
330
23
100
AcDbEntity
  8
0
  6
Continuous
 62
     7
100
AcDbCircle
 10
18.60517883300781
 20
16.08027648925781
 30
0.0
 40
2.5
100
AcDbArc
 50
225.4068467064783
 51
256.4363346341437
  0
ARC
  5
2AD
330
23
100
AcDbEntity
  8
0
  6
Continuous
 62
     7
100
AcDbCircle
 10
76.3948516845703
 20
16.91972351074219
 30
0.0
 40
2.5
100
AcDbArc
 50
45.40684488524547
 51
76.43633964310002
  0
CIRCLE
  5
2AE
330
23
100
AcDbEntity
  8
0
  6
Continuous
 62
     7
100
AcDbCircle
 10
188.000015258789
 20
16.5
 30
0.0
 40
2.0
  0
CIRCLE
  5
2AF
330
23
100
AcDbEntity
  8
0
  6
Continuous
 62
     2
100
AcDbCircle
 10
188.000015258789
 20
16.5
 30
0.0
 40
2.5
  0
CIRCLE
  5
2B0
330
23
100
AcDbEntity
  8
0
  6
Continuous
 62
     7
100
AcDbCircle
 10
7.000015258789063
 20
16.5
 30
0.0
 40
2.0
  0
CIRCLE
  5
2B1
330
23
100
AcDbEntity
  8
0
  6
Continuous
 62
     2
100
AcDbCircle
 10
7.000015258789063
 20
16.5
 30
0.0
 40
2.5
  0
ARC
  5
2B2
330
23
100
AcDbEntity
  8
0
  6
Continuous
 62
     7
100
AcDbCircle
 10
76.3948516845703
 20
16.08027648925781
 30
0.0
 40
2.5
100
AcDbArc
 50
283.5636603569
 51
314.5931551147545
  0
LINE
  5
2B3
330
23
100
AcDbEntity
  8
0
  6
Continuous
 62
     7
100
AcDbLine
 10
-4.499984741210937
 20
2.5
 30
0.0
 11
199.500015258789
 21
2.5
 31
0.0
  0
LINE
  5
2B4
330
23
100
AcDbEntity
  8
0
  6
Continuous
 62
     7
100
AcDbLine
 10
-4.499984741210937
 20
9.5
 30
0.0
 11
199.500015258789
 21
9.5
 31
0.0
  0
CIRCLE
  5
2B5
330
23
100
AcDbEntity
  8
0
  6
Continuous
 62
     7
100
AcDbCircle
 10
9.500015258789062
 20
6.0
 30
0.0
 40
1.75
  0
CIRCLE
  5
2B6
330
23
100
AcDbEntity
  8
0
  6
Continuous
 62
     7
100
AcDbCircle
 10
9.500015258789062
 20
6.0
 30
0.0
 40
2.25
  0
LINE
  5
2B7
330
23
100
AcDbEntity
  8
0
  6
Continuous
 62
     7
100
AcDbLine
 10
8.616155431893277
 20
5.116105257058734
 30
0.0
 11
10.38392505200386
 21
6.883874877169318
 31
0.0
  0
LINE
  5
2B8
330
23
100
AcDbEntity
  8
0
  6
Continuous
 62
     7
100
AcDbLine
 10
0.5000152587890625
 20
4.399993896484375
 30
0.0
 11
7.9180908203125
 21
4.399993896484375
 31
0.0
  0
LINE
  5
2B9
330
23
100
AcDbEntity
  8
0
  6
Continuous
 62
     7
100
AcDbLine
 10
10.38392505200386
 20
5.116107954456992
 30
0.0
 11
8.616158129291534
 21
6.883874877169318
 31
0.0
  0
LINE
  5
2BA
330
23
100
AcDbEntity
  8
0
  6
Continuous
 62
     7
100
AcDbLine
 10
0.5000152587890625
 20
7.600006103515625
 30
0.0
 11
7.9180908203125
 21
7.600006103515625
 31
0.0
  0
LINE
  5
2BB
330
23
100
AcDbEntity
  8
0
  6
Continuous
 62
     7
100
AcDbLine
 10
0.5000152587890625
 20
9.5
 30
0.0
 11
0.5000152587890625
 21
2.5
 31
0.0
  0
LINE
  5
2BC
330
23
100
AcDbEntity
  8
0
  6
Continuous
 62
     7
100
AcDbLine
 10
33.00001525878907
 20
10.25
 30
0.0
 11
62.00001525878906
 21
10.25
 31
0.0
  0
LINE
  5
2BD
330
23
100
AcDbEntity
  8
0
  6
Continuous
 62
     7
100
AcDbLine
 10
11.08193969726562
 20
4.399993896484375
 30
0.0
 11
183.4180908203125
 21
4.399993896484375
 31
0.0
  0
LINE
  5
2BE
330
23
100
AcDbEntity
  8
0
  6
Continuous
 62
     7
100
AcDbLine
 10
11.08193969726562
 20
7.600006103515625
 30
0.0
 11
183.4180908203125
 21
7.600006103515625
 31
0.0
  0
LINE
  5
2BF
330
23
100
AcDbEntity
  8
0
  6
Continuous
 62
     7
100
AcDbLine
 10
33.00001525878907
 20
10.25
 30
0.0
 11
33.00001525878907
 21
9.5
 31
0.0
  0
LINE
  5
2C0
330
23
100
AcDbEntity
  8
0
  6
Continuous
 62
     7
100
AcDbLine
 10
62.00001525878906
 20
10.25
 30
0.0
 11
62.00001525878906
 21
9.5
 31
0.0
  0
LINE
  5
2C1
330
23
100
AcDbEntity
  8
0
  6
Continuous
 62
     7
100
AcDbLine
 10
194.500015258789
 20
9.5
 30
0.0
 11
194.500015258789
 21
2.5
 31
0.0
  0
ARC
  5
2C2
330
23
100
AcDbEntity
  8
0
  6
Continuous
 62
     7
100
AcDbCircle
 10
186.000015258789
 20
6.0
 30
0.0
 40
2.25
100
AcDbArc
 50
269.9999974955218
 51
90.00000250447817
  0
ARC
  5
2C3
330
23
100
AcDbEntity
  8
0
  6
Continuous
 62
     7
100
AcDbCircle
 10
185.000015258789
 20
6.0
 30
0.0
 40
2.25
100
AcDbArc
 50
90.00000250447817
 51
270.0000006832453
  0
CIRCLE
  5
2C4
330
23
100
AcDbEntity
  8
0
  6
Continuous
 62
     7
100
AcDbCircle
 10
185.500015258789
 20
6.0
 30
0.0
 40
1.75
  0
LINE
  5
2C5
330
23
100
AcDbEntity
  8
0
  6
Continuous
 62
     7
100
AcDbLine
 10
184.6161363283611
 20
5.11611334925351
 30
0.0
 11
186.3839032510734
 21
6.883880271965836
 31
0.0
  0
LINE
  5
2C6
330
23
100
AcDbEntity
  8
0
  6
Continuous
 62
     7
100
AcDbLine
 10
194.500015258789
 20
7.600006103515625
 30
0.0
 11
187.5819396972656
 21
7.600006103515625
 31
0.0
  0
LINE
  5
2C7
330
23
100
AcDbEntity
  8
0
  6
Continuous
 62
     7
100
AcDbLine
 10
186.000015258789
 20
8.25
 30
0.0
 11
185.000015258789
 21
8.25
 31
0.0
  0
LINE
  5
2C8
330
23
100
AcDbEntity
  8
0
  6
Continuous
 62
     7
100
AcDbLine
 10
186.3838924614804
 20
5.116124138846544
 30
0.0
 11
184.6161363283611
 21
6.883880271965836
 31
0.0
  0
LINE
  5
2C9
330
23
100
AcDbEntity
  8
0
  6
Continuous
 62
     7
100
AcDbLine
 10
194.500015258789
 20
4.399993896484375
 30
0.0
 11
187.5819396972656
 21
4.399993896484375
 31
0.0
  0
LINE
  5
2CA
330
23
100
AcDbEntity
  8
0
  6
Continuous
 62
     7
100
AcDbLine
 10
-4.499984741210937
 20
0.0
 30
0.0
 11
13.50001525878906
 21
0.0
 31
0.0
  0
LINE
  5
2CB
330
23
100
AcDbEntity
  8
0
  6
Continuous
 62
     7
100
AcDbLine
 10
199.500015258789
 20
0.0
 30
0.0
 11
181.500015258789
 21
0.0
 31
0.0
  0
LINE
  5
2CC
330
23
100
AcDbEntity
  8
0
  6
Continuous
 62
     7
100
AcDbLine
 10
18.50001525878906
 20
2.5
 30
0.0
 11
18.50001525878906
 21
2.0
 31
0.0
  0
LINE
  5
2CD
330
23
100
AcDbEntity
  8
0
  6
Continuous
 62
     7
100
AcDbLine
 10
20.10002136230469
 20
2.5
 30
0.0
 11
20.10002136230469
 21
2.0
 31
0.0
  0
LINE
  5
2CE
330
23
100
AcDbEntity
  8
0
  6
Continuous
 62
     7
100
AcDbLine
 10
74.90000915527343
 20
2.5
 30
0.0
 11
74.90000915527343
 21
2.0
 31
0.0
  0
LINE
  5
2CF
330
23
100
AcDbEntity
  8
0
  6
Continuous
 62
     7
100
AcDbLine
 10
76.50001525878906
 20
2.5
 30
0.0
 11
76.50001525878906
 21
2.0
 31
0.0
  0
LINE
  5
2D0
330
23
100
AcDbEntity
  8
0
  6
Continuous
 62
     7
100
AcDbLine
 10
13.50001525878906
 20
2.5
 30
0.0
 11
13.50001525878906
 21
0.0
 31
0.0
  0
LINE
  5
2D1
330
23
100
AcDbEntity
  8
0
  6
Continuous
 62
     7
100
AcDbLine
 10
181.500015258789
 20
2.5
 30
0.0
 11
181.500015258789
 21
0.0
 31
0.0
  0
LINE
  5
2D2
330
23
100
AcDbEntity
  8
0
  6
Continuous
 62
     7
100
AcDbLine
 10
186.000015258789
 20
3.75
 30
0.0
 11
185.000015258789
 21
3.75
 31
0.0
  0
LINE
  5
2D3
330
23
100
AcDbEntity
  8
0
  6
Continuous
 62
     7
100
AcDbLine
 10
21.00001525878907
 20
9.5
 30
0.0
 11
21.00001525878907
 21
13.74996948242187
 31
0.0
  0
LINE
  5
2D4
330
23
100
AcDbEntity
  8
0
  6
Continuous
 62
     7
100
AcDbLine
 10
21.00001525878907
 20
13.31695556640625
 30
0.0
 11
74.00001525878906
 21
13.31695556640625
 31
0.0
  0
LINE
  5
2D5
330
23
100
AcDbEntity
  8
0
  6
Continuous
 62
     7
100
AcDbLine
 10
21.00001525878907
 20
13.74996948242187
 30
0.0
 11
74.00001525878906
 21
13.74996948242187
 31
0.0
  0
LINE
  5
2D6
330
23
100
AcDbEntity
  8
0
  6
Continuous
 62
     7
100
AcDbLine
 10
74.00001525878906
 20
9.5
 30
0.0
 11
74.00001525878906
 21
13.74996948242187
 31
0.0
  0
LINE
  5
2D7
330
23
100
AcDbEntity
  8
0
  6
Continuous
 62
     7
100
AcDbLine
 10
21.63037109375
 20
11.21129608154296
 30
0.0
 11
73.23165893554686
 21
11.21129608154296
 31
0.0
  0
LINE
  5
2D8
330
23
100
AcDbEntity
  8
0
  6
Continuous
 62
     7
100
AcDbLine
 10
74.00001525878906
 20
11.49998474121094
 30
0.0
 11
76.50001525878906
 21
11.49998474121094
 31
0.0
  0
LINE
  5
2D9
330
23
100
AcDbEntity
  8
0
  6
Continuous
 62
     2
100
AcDbLine
 10
51.50001525878906
 20
8.94285714285715
 30
0.0
 11
51.50001525878906
 21
2.700015326576532
 31
0.0
  0
LINE
  5
2DA
330
23
100
AcDbEntity
  8
0
  6
CENTER
 62
     2
100
AcDbLine
 10
54.91041701657434
 20
6.0
 30
0.0
 11
31.99712842276137
 21
6.0
 31
0.0
  0
LINE
  5
2DB
330
23
100
AcDbEntity
  8
0
  6
Continuous
 62
     7
100
AcDbLine
 10
52.18926394462585
 20
4.957197927747444
 30
0.0
 11
50.45721315111433
 21
6.689248721258991
 31
0.0
  0
LINE
  5
2DC
330
23
100
AcDbEntity
  8
0
  6
Continuous
 62
     7
100
AcDbLine
 10
52.54281736488213
 20
5.310751302120991
 30
0.0
 11
50.81076656091005
 21
7.042802106093034
 31
0.0
  0
CIRCLE
  5
2DD
330
23
100
AcDbEntity
  8
0
  6
Continuous
 62
     2
100
AcDbCircle
 10
51.50001525878906
 20
6.0
 30
0.0
 40
1.05
  0
CIRCLE
  5
2DE
330
23
100
AcDbEntity
  8
0
  6
Continuous
 62
     7
100
AcDbCircle
 10
51.50001525878906
 20
6.0
 30
0.0
 40
1.25
  0
CIRCLE
  5
2DF
330
23
100
AcDbEntity
  8
0
  6
Continuous
 62
     7
100
AcDbCircle
 10
51.50001525878906
 20
6.0
 30
0.0
 40
1.399999999999999
  0
LINE
  5
2E0
330
23
100
AcDbEntity
  8
0
  6
Continuous
 62
     7
100
AcDbLine
 10
53.50001526355743
 20
4.5
 30
0.0
 11
38.00001525878906
 21
4.5
 31
0.0
  0
LINE
  5
2E1
330
23
100
AcDbEntity
  8
0
  6
Continuous
 62
     7
100
AcDbLine
 10
53.50001526355743
 20
7.5
 30
0.0
 11
38.00001525878906
 21
7.5
 31
0.0
  0
LINE
  5
2E2
330
23
100
AcDbEntity
  8
0
  6
Continuous
 62
     7
100
AcDbLine
 10
38.00001525878906
 20
4.399993896484375
 30
0.0
 11
38.00001525878906
 21
7.600006103515625
 31
0.0
  0
LINE
  5
2E3
330
23
100
AcDbEntity
  8
0
  6
Continuous
 62
     7
100
AcDbLine
 10
53.50001526355743
 20
4.399993896484375
 30
0.0
 11
53.50001526355743
 21
7.600006103515625
 31
0.0
  0
LINE
  5
2E4
330
23
100
AcDbEntity
  8
0
  6
Continuous
 62
     7
100
AcDbLine
 10
43.10001525878909
 20
4.5
 30
0.0
 11
43.10001525878909
 21
7.5
 31
0.0
  0
LINE
  5
2E5
330
23
100
AcDbEntity
  8
0
  6
Continuous
 62
     7
100
AcDbLine
 10
49.60001525878909
 20
4.5
 30
0.0
 11
49.60001525878909
 21
7.5
 31
0.0
  0
LINE
  5
2E6
330
23
100
AcDbEntity
  8
0
  6
Continuous
 62
     7
100
AcDbLine
 10
38.00001525878906
 20
7.300000000000011
 30
0.0
 11
35.74770578996691
 21
7.300000000000011
 31
0.0
  0
LINE
  5
2E7
330
23
100
AcDbEntity
  8
0
  6
Continuous
 62
     7
100
AcDbLine
 10
38.00001525878906
 20
4.700000000000002
 30
0.0
 11
34.24655105555582
 21
4.700000000000002
 31
0.0
  0
LINE
  5
2E8
330
23
100
AcDbEntity
  8
0
  6
Continuous
 62
     2
100
AcDbLine
 10
35.74770578996691
 20
7.300000000000011
 30
0.0
 11
34.24655105555582
 21
4.700000000000002
 31
0.0
  0
LINE
  5
2E9
330
23
100
AcDbEntity
  8
0
  6
Continuous
 62
     2
100
AcDbLine
 10
151.5000152540207
 20
8.94285714285715
 30
0.0
 11
151.5000152540207
 21
2.700015326576532
 31
0.0
  0
LINE
  5
2EA
330
23
100
AcDbEntity
  8
0
  6
CENTER
 62
     2
100
AcDbLine
 10
154.910417011806
 20
6.0
 30
0.0
 11
131.997128417993
 21
6.0
 31
0.0
  0
LINE
  5
2EB
330
23
100
AcDbEntity
  8
0
  6
Continuous
 62
     2
100
AcDbLine
 10
135.7477057851985
 20
7.300000000000011
 30
0.0
 11
134.2465510507874
 21
4.700000000000002
 31
0.0
  0
LINE
  5
2EC
330
23
100
AcDbEntity
  8
0
  6
Continuous
 62
     7
100
AcDbLine
 10
138.0000152540207
 20
4.700000000000002
 30
0.0
 11
134.2465510507874
 21
4.700000000000002
 31
0.0
  0
LINE
  5
2ED
330
23
100
AcDbEntity
  8
0
  6
Continuous
 62
     7
100
AcDbLine
 10
138.0000152540207
 20
7.300000000000011
 30
0.0
 11
135.7477057851985
 21
7.300000000000011
 31
0.0
  0
LINE
  5
2EE
330
23
100
AcDbEntity
  8
0
  6
Continuous
 62
     7
100
AcDbLine
 10
149.6000152540207
 20
4.5
 30
0.0
 11
149.6000152540207
 21
7.5
 31
0.0
  0
LINE
  5
2EF
330
23
100
AcDbEntity
  8
0
  6
Continuous
 62
     7
100
AcDbLine
 10
143.1000152540207
 20
4.5
 30
0.0
 11
143.1000152540207
 21
7.5
 31
0.0
  0
LINE
  5
2F0
330
23
100
AcDbEntity
  8
0
  6
Continuous
 62
     7
100
AcDbLine
 10
153.500015258789
 20
4.399993896484375
 30
0.0
 11
153.500015258789
 21
7.600006103515625
 31
0.0
  0
LINE
  5
2F1
330
23
100
AcDbEntity
  8
0
  6
Continuous
 62
     7
100
AcDbLine
 10
138.0000152540207
 20
4.399993896484375
 30
0.0
 11
138.0000152540207
 21
7.600006103515625
 31
0.0
  0
LINE
  5
2F2
330
23
100
AcDbEntity
  8
0
  6
Continuous
 62
     7
100
AcDbLine
 10
153.500015258789
 20
7.5
 30
0.0
 11
138.0000152540207
 21
7.5
 31
0.0
  0
LINE
  5
2F3
330
23
100
AcDbEntity
  8
0
  6
Continuous
 62
     7
100
AcDbLine
 10
153.500015258789
 20
4.5
 30
0.0
 11
138.0000152540207
 21
4.5
 31
0.0
  0
CIRCLE
  5
2F4
330
23
100
AcDbEntity
  8
0
  6
Continuous
 62
     7
100
AcDbCircle
 10
151.5000152540207
 20
6.0
 30
0.0
 40
1.399999999999999
  0
CIRCLE
  5
2F5
330
23
100
AcDbEntity
  8
0
  6
Continuous
 62
     7
100
AcDbCircle
 10
151.5000152540207
 20
6.0
 30
0.0
 40
1.25
  0
CIRCLE
  5
2F6
330
23
100
AcDbEntity
  8
0
  6
Continuous
 62
     2
100
AcDbCircle
 10
151.5000152540207
 20
6.0
 30
0.0
 40
1.05
  0
LINE
  5
2F7
330
23
100
AcDbEntity
  8
0
  6
Continuous
 62
     7
100
AcDbLine
 10
152.5428173601137
 20
5.310751302120991
 30
0.0
 11
150.8107665561417
 21
7.042802106093034
 31
0.0
  0
LINE
  5
2F8
330
23
100
AcDbEntity
  8
0
  6
Continuous
 62
     7
100
AcDbLine
 10
152.1892639398574
 20
4.957197927747444
 30
0.0
 11
150.4572131463459
 21
6.689248721258991
 31
0.0
  0
LINE
  5
2F9
330
23
100
AcDbEntity
  8
0
  6
Continuous
 62
     2
100
AcDbLine
 10
1.500015
 20
-3.0
 30
0.0
 11
1.500015
 21
3.0
 31
0.0
  0
LINE
  5
2FA
330
23
100
AcDbEntity
  8
0
  6
Continuous
 62
     2
100
AcDbLine
 10
193.500015
 20
-3.0
 30
0.0
 11
193.500015
 21
3.0
 31
0.0
  0
LINE
  5
2FB
330
23
100
AcDbEntity
  8
0
  6
Continuous
 62
     2
100
AcDbLine
 10
13.50001525878906
 20
29.0
 30
0.0
 11
13.50001525878906
 21
35.0
 31
0.0
  0
LINE
  5
2FC
330
23
100
AcDbEntity
  8
0
  6
Continuous
 62
     2
100
AcDbLine
 10
81.50001525878906
 20
29.0
 30
0.0
 11
81.50001525878906
 21
35.0
 31
0.0
  0
LINE
  5
2FD
330
23
100
AcDbEntity
  8
0
  6
PHANTOM
 62
     3
100
AcDbLine
 10
122.000015258789
 20
81.4578950053767
 30
0.0
 11
122.000015258789
 21
-13.95894736842106
 31
0.0
  0
ENDBLK
  5
2FE
330
23
100
AcDbEntity
  8
0
100
AcDbBlockEnd
  0
ENDSEC
  0
SECTION
  2
ENTITIES
  0
LINE
  5
2FF
330
A
100
AcDbEntity
  8
0
  6
Continuous
 62
     7
100
AcDbLine
 10
-182.7
 20
-210.0
 30
0.0
 11
182.7
 21
-210.0
 31
0.0
  0
LINE
  5
300
330
A
100
AcDbEntity
  8
0
  6
Continuous
 62
     7
100
AcDbLine
 10
-182.7
 20
-198.8
 30
0.0
 11
182.7
 21
-198.8
 31
0.0
  0
LINE
  5
301
330
A
100
AcDbEntity
  8
0
  6
Continuous
 62
     7
100
AcDbLine
 10
-182.7
 20
-187.6
 30
0.0
 11
182.7
 21
-187.6
 31
0.0
  0
LINE
  5
302
330
A
100
AcDbEntity
  8
0
  6
Continuous
 62
     7
100
AcDbLine
 10
182.7
 20
-187.6
 30
0.0
 11
182.7
 21
-210.0
 31
0.0
  0
MTEXT
  5
303
330
A
100
AcDbEntity
  8
0
  6
Continuous
 62
     7
100
AcDbMText
 10
127.1812497672625
 20
-193.2
 30
0.0
 40
6.300000190734863
 41
0.0
 71
     4
 72
     5
  1
\W1.125;\A1;700
 73
     1
 44
1.0
1001
ACAD
1000
MTEXTBEGIN
1070
    73
1070
     1
1070
    44
1040
1.0
1070
    74
1070
     0
1000
MTEXTEND
  0
MTEXT
  5
304
330
A
100
AcDbEntity
  8
0
  6
Continuous
 62
     7
100
AcDbMText
 10
127.1812497672625
 20
-204.4
 30
0.0
 40
6.300000190734863
 41
0.0
 71
     4
 72
     5
  1
\W1.125;\A1;600
 73
     1
 44
1.0
1001
ACAD
1000
MTEXTBEGIN
1070
    73
1070
     1
1070
    44
1040
1.0
1070
    74
1070
     0
1000
MTEXTEND
  0
LINE
  5
305
330
A
100
AcDbEntity
  8
0
  6
Continuous
 62
     7
100
AcDbLine
 10
-182.7
 20
-187.6
 30
0.0
 11
-182.7
 21
-210.0
 31
0.0
  0
MTEXT
  5
306
330
A
100
AcDbEntity
  8
0
  6
Continuous
 62
     7
100
AcDbMText
 10
-175.3500005404154
 20
-193.2
 30
0.0
 40
6.300000190734863
 41
0.0
 71
     4
 72
     5
  1
\A1;STROKE
 73
     1
 44
1.0
1001
ACAD
1000
MTEXTBEGIN
1070
    73
1070
     1
1070
    44
1040
1.0
1070
    74
1070
     0
1000
MTEXTEND
  0
MTEXT
  5
307
330
A
100
AcDbEntity
  8
0
  6
Continuous
 62
     7
100
AcDbMText
 10
-178.9500009218851
 20
-204.4
 30
0.0
 40
6.300000190734863
 41
0.0
 71
     4
 72
     5
  1
\A1;STRETCH
 73
     1
 44
1.0
1001
ACAD
1000
MTEXTBEGIN
1070
    73
1070
     1
1070
    44
1040
1.0
1070
    74
1070
     0
1000
MTEXTEND
  0
MTEXT
  5
308
330
A
100
AcDbEntity
  8
0
  6
Continuous
 62
     7
100
AcDbMText
 10
-124.8187502327375
 20
-193.2
 30
0.0
 40
6.300000190734863
 41
0.0
 71
     4
 72
     5
  1
\W1.125;\A1;200
 73
     1
 44
1.0
1001
ACAD
1000
MTEXTBEGIN
1070
    73
1070
     1
1070
    44
1040
1.0
1070
    74
1070
     0
1000
MTEXTEND
  0
MTEXT
  5
309
330
A
100
AcDbEntity
  8
0
  6
Continuous
 62
     7
100
AcDbMText
 10
-124.6500002337353
 20
-204.4
 30
0.0
 40
6.300000190734863
 41
0.0
 71
     4
 72
     5
  1
\W1.286;\A1;100
 73
     1
 44
1.0
1001
ACAD
1000
MTEXTBEGIN
1070
    73
1070
     1
1070
    44
1040
1.0
1070
    74
1070
     0
1000
MTEXTEND
  0
MTEXT
  5
30A
330
A
100
AcDbEntity
  8
0
  6
Continuous
 62
     7
100
AcDbMText
 10
-93.3882355387648
 20
-193.2
 30
0.0
 40
6.300000190734863
 41
0.0
 71
     4
 72
     5
  1
\W1.059;\A1;250
 73
     1
 44
1.0
1001
ACAD
1000
MTEXTBEGIN
1070
    73
1070
     1
1070
    44
1040
1.0
1070
    74
1070
     0
1000
MTEXTEND
  0
MTEXT
  5
30B
330
A
100
AcDbEntity
  8
0
  6
Continuous
 62
     7
100
AcDbMText
 10
-93.2400002479553
 20
-204.4
 30
0.0
 40
6.300000190734863
 41
0.0
 71
     4
 72
     5
  1
\W1.200;\A1;150
 73
     1
 44
1.0
1001
ACAD
1000
MTEXTBEGIN
1070
    73
1070
     1
1070
    44
1040
1.0
1070
    74
1070
     0
1000
MTEXTEND
  0
MTEXT
  5
30C
330
A
100
AcDbEntity
  8
0
  6
Continuous
 62
     7
100
AcDbMText
 10
-61.81875023273752
 20
-193.2
 30
0.0
 40
6.300000190734863
 41
0.0
 71
     4
 72
     5
  1
\W1.125;\A1;300
 73
     1
 44
1.0
1001
ACAD
1000
MTEXTBEGIN
1070
    73
1070
     1
1070
    44
1040
1.0
1070
    74
1070
     0
1000
MTEXTEND
  0
MTEXT
  5
30D
330
A
100
AcDbEntity
  8
0
  6
Continuous
 62
     7
100
AcDbMText
 10
-61.81875023273752
 20
-204.4
 30
0.0
 40
6.300000190734863
 41
0.0
 71
     4
 72
     5
  1
\W1.125;\A1;200
 73
     1
 44
1.0
1001
ACAD
1000
MTEXTBEGIN
1070
    73
1070
     1
1070
    44
1040
1.0
1070
    74
1070
     0
1000
MTEXTEND
  0
MTEXT
  5
30E
330
A
100
AcDbEntity
  8
0
  6
Continuous
 62
     7
100
AcDbMText
 10
-30.38823553876485
 20
-193.2
 30
0.0
 40
6.300000190734863
 41
0.0
 71
     4
 72
     5
  1
\W1.059;\A1;350
 73
     1
 44
1.0
1001
ACAD
1000
MTEXTBEGIN
1070
    73
1070
     1
1070
    44
1040
1.0
1070
    74
1070
     0
1000
MTEXTEND
  0
MTEXT
  5
30F
330
A
100
AcDbEntity
  8
0
  6
Continuous
 62
     7
100
AcDbMText
 10
-30.38823553876482
 20
-204.4
 30
0.0
 40
6.300000190734863
 41
0.0
 71
     4
 72
     5
  1
\W1.059;\A1;250
 73
     1
 44
1.0
1001
ACAD
1000
MTEXTBEGIN
1070
    73
1070
     1
1070
    44
1040
1.0
1070
    74
1070
     0
1000
MTEXTEND
  0
LINE
  5
310
330
A
100
AcDbEntity
  8
0
  6
Continuous
 62
     7
100
AcDbLine
 10
-132.3
 20
-187.6
 30
0.0
 11
-132.3
 21
-210.0
 31
0.0
  0
LINE
  5
311
330
A
100
AcDbEntity
  8
0
  6
Continuous
 62
     7
100
AcDbLine
 10
-132.3
 20
-187.6
 30
0.0
 11
-132.3
 21
-210.0
 31
0.0
  0
LINE
  5
312
330
A
100
AcDbEntity
  8
0
  6
Continuous
 62
     7
100
AcDbLine
 10
-100.8
 20
-187.6
 30
0.0
 11
-100.8
 21
-210.0
 31
0.0
  0
LINE
  5
313
330
A
100
AcDbEntity
  8
0
  6
Continuous
 62
     7
100
AcDbLine
 10
-37.80000000000001
 20
-187.6
 30
0.0
 11
-37.80000000000001
 21
-210.0
 31
0.0
  0
LINE
  5
314
330
A
100
AcDbEntity
  8
0
  6
Continuous
 62
     7
100
AcDbLine
 10
-69.30000000000004
 20
-187.6
 30
0.0
 11
-69.30000000000004
 21
-210.0
 31
0.0
  0
LINE
  5
315
330
A
100
AcDbEntity
  8
0
  6
Continuous
 62
     7
100
AcDbLine
 10
25.2
 20
-187.6
 30
0.0
 11
25.2
 21
-210.0
 31
0.0
  0
LINE
  5
316
330
A
100
AcDbEntity
  8
0
  6
Continuous
 62
     7
100
AcDbLine
 10
-6.300000000000011
 20
-187.6
 30
0.0
 11
-6.300000000000011
 21
-210.0
 31
0.0
  0
LINE
  5
317
330
A
100
AcDbEntity
  8
0
  6
Continuous
 62
     7
100
AcDbLine
 10
88.19999999999994
 20
-187.6
 30
0.0
 11
88.19999999999994
 21
-210.0
 31
0.0
  0
LINE
  5
318
330
A
100
AcDbEntity
  8
0
  6
Continuous
 62
     7
100
AcDbLine
 10
56.69999999999999
 20
-187.6
 30
0.0
 11
56.69999999999999
 21
-210.0
 31
0.0
  0
MTEXT
  5
319
330
A
100
AcDbEntity
  8
0
  6
Continuous
 62
     7
100
AcDbMText
 10
1.181249767262478
 20
-193.2
 30
0.0
 40
6.300000190734863
 41
0.0
 71
     4
 72
     5
  1
\W1.125;\A1;400
 73
     1
 44
1.0
1001
ACAD
1000
MTEXTBEGIN
1070
    73
1070
     1
1070
    44
1040
1.0
1070
    74
1070
     0
1000
MTEXTEND
  0
MTEXT
  5
31A
330
A
100
AcDbEntity
  8
0
  6
Continuous
 62
     7
100
AcDbMText
 10
1.181249767262478
 20
-204.4
 30
0.0
 40
6.300000190734863
 41
0.0
 71
     4
 72
     5
  1
\W1.125;\A1;300
 73
     1
 44
1.0
1001
ACAD
1000
MTEXTBEGIN
1070
    73
1070
     1
1070
    44
1040
1.0
1070
    74
1070
     0
1000
MTEXTEND
  0
MTEXT
  5
31B
330
A
100
AcDbEntity
  8
0
  6
Continuous
 62
     7
100
AcDbMText
 10
32.61176446123518
 20
-193.2
 30
0.0
 40
6.300000190734863
 41
0.0
 71
     4
 72
     5
  1
\W1.059;\A1;450
 73
     1
 44
1.0
1001
ACAD
1000
MTEXTBEGIN
1070
    73
1070
     1
1070
    44
1040
1.0
1070
    74
1070
     0
1000
MTEXTEND
  0
MTEXT
  5
31C
330
A
100
AcDbEntity
  8
0
  6
Continuous
 62
     7
100
AcDbMText
 10
32.61176446123518
 20
-204.4
 30
0.0
 40
6.300000190734863
 41
0.0
 71
     4
 72
     5
  1
\W1.059;\A1;350
 73
     1
 44
1.0
1001
ACAD
1000
MTEXTBEGIN
1070
    73
1070
     1
1070
    44
1040
1.0
1070
    74
1070
     0
1000
MTEXTEND
  0
MTEXT
  5
31D
330
A
100
AcDbEntity
  8
0
  6
Continuous
 62
     7
100
AcDbMText
 10
64.18124976726244
 20
-193.2
 30
0.0
 40
6.300000190734863
 41
0.0
 71
     4
 72
     5
  1
\W1.125;\A1;500
 73
     1
 44
1.0
1001
ACAD
1000
MTEXTBEGIN
1070
    73
1070
     1
1070
    44
1040
1.0
1070
    74
1070
     0
1000
MTEXTEND
  0
MTEXT
  5
31E
330
A
100
AcDbEntity
  8
0
  6
Continuous
 62
     7
100
AcDbMText
 10
64.18124976726244
 20
-204.4
 30
0.0
 40
6.300000190734863
 41
0.0
 71
     4
 72
     5
  1
\W1.125;\A1;400
 73
     1
 44
1.0
1001
ACAD
1000
MTEXTBEGIN
1070
    73
1070
     1
1070
    44
1040
1.0
1070
    74
1070
     0
1000
MTEXTEND
  0
LINE
  5
31F
330
A
100
AcDbEntity
  8
0
  6
Continuous
 62
     7
100
AcDbLine
 10
119.7
 20
-187.6
 30
0.0
 11
119.7
 21
-210.0
 31
0.0
  0
MTEXT
  5
320
330
A
100
AcDbEntity
  8
0
  6
Continuous
 62
     7
100
AcDbMText
 10
95.68124976726251
 20
-193.2
 30
0.0
 40
6.300000190734863
 41
0.0
 71
     4
 72
     5
  1
\W1.125;\A1;600
 73
     1
 44
1.0
1001
ACAD
1000
MTEXTBEGIN
1070
    73
1070
     1
1070
    44
1040
1.0
1070
    74
1070
     0
1000
MTEXTEND
  0
MTEXT
  5
321
330
A
100
AcDbEntity
  8
0
  6
Continuous
 62
     7
100
AcDbMText
 10
95.68124976726251
 20
-204.4
 30
0.0
 40
6.300000190734863
 41
0.0
 71
     4
 72
     5
  1
\W1.125;\A1;500
 73
     1
 44
1.0
1001
ACAD
1000
MTEXTBEGIN
1070
    73
1070
     1
1070
    44
1040
1.0
1070
    74
1070
     0
1000
MTEXTEND
  0
LINE
  5
322
330
A
100
AcDbEntity
  8
0
  6
Continuous
 62
     7
100
AcDbLine
 10
151.2
 20
-187.6
 30
0.0
 11
151.2
 21
-210.0
 31
0.0
  0
MTEXT
  5
323
330
A
100
AcDbEntity
  8
0
  6
Continuous
 62
     7
100
AcDbMText
 10
-36.68165791725679
 20
-179.3770759809664
 30
0.0
 40
6.300000190734863
 41
0.0
 71
     4
 72
     5
  1
\W1.065;\A1;STRETCH LIST
 73
     1
 44
1.0
1001
ACAD
1000
MTEXTBEGIN
1070
    73
1070
     1
1070
    44
1040
1.0
1070
    74
1070
     0
1000
MTEXTEND
  0
MTEXT
  5
324
330
A
100
AcDbEntity
  8
0
  6
Continuous
 62
     7
100
AcDbMText
 10
158.6812497672625
 20
-204.4
 30
0.0
 40
6.300000190734863
 41
0.0
 71
     4
 72
     5
  1
\W1.125;\A1;700
 73
     1
 44
1.0
1001
ACAD
1000
MTEXTBEGIN
1070
    73
1070
     1
1070
    44
1040
1.0
1070
    74
1070
     0
1000
MTEXTEND
  0
MTEXT
  5
325
330
A
100
AcDbEntity
  8
0
  6
Continuous
 62
     7
100
AcDbMText
 10
158.6812497672625
 20
-193.2
 30
0.0
 40
6.300000190734863
 41
0.0
 71
     4
 72
     5
  1
\W1.125;\A1;800
 73
     1
 44
1.0
1001
ACAD
1000
MTEXTBEGIN
1070
    73
1070
     1
1070
    44
1040
1.0
1070
    74
1070
     0
1000
MTEXTEND
  0
LINE
  5
326
330
A
100
AcDbEntity
  8
0
  6
Continuous
 62
     7
100
AcDbLine
 10
182.7
 20
-187.6
 30
0.0
 11
182.7
 21
-210.0
 31
0.0
  0
MTEXT
  5
327
330
A
100
AcDbEntity
  8
0
  6
Continuous
 62
     7
100
AcDbMText
 10
163.6308820052416
 20
-182.5355480780237
 30
0.0
 40
6.300000190734863
 41
0.0
 71
     4
 72
     5
  1
\W0.833;\A1;（ｍｍ）
 73
     1
 44
1.0
1001
ACAD
1000
MTEXTBEGIN
1070
    73
1070
     1
1070
    44
1040
1.0
1070
    74
1070
     0
1000
MTEXTEND
  0
LINE
  5
328
330
A
100
AcDbEntity
  8
0
  6
Continuous
 62
     7
100
AcDbLine
 10
0.0
 20
276.5
 30
0.0
 11
0.0
 21
-160.0
 31
0.0
  0
INSERT
  5
329
330
A
100
AcDbEntity
  8
0
  6
ByBlock
100
AcDbBlockReference
  2
MRVS22-6
 10
138.499985
 20
-50.0
 30
0.0
  0
INSERT
  5
32A
330
A
100
AcDbEntity
  8
0
  6
ByBlock
100
AcDbBlockReference
  2
MRVS22-5
 10
50.0
 20
110.0
 30
0.0
  0
INSERT
  5
32B
330
A
100
AcDbEntity
  8
0
  6
ByBlock
100
AcDbBlockReference
  2
MRVS22-4
 10
140.0
 20
110.0
 30
0.0
  0
INSERT
  5
32C
330
A
100
AcDbEntity
  8
0
  6
ByBlock
100
AcDbBlockReference
  2
MRVS22-3
 10
-250.0
 20
-50.0
 30
0.0
  0
INSERT
  5
32D
330
A
100
AcDbEntity
  8
0
  6
ByBlock
100
AcDbBlockReference
  2
MRVS22-2
 10
-340.0
 20
110.0
 30
0.0
  0
INSERT
  5
32E
330
A
100
AcDbEntity
  8
0
  6
ByBlock
100
AcDbBlockReference
  2
MRVS22-1
 10
-250.0
 20
110.0
 30
0.0
  0
MTEXT
  5
32F
330
A
100
AcDbEntity
  8
0
  6
Continuous
 62
     7
100
AcDbMText
 10
95.47870638813392
 20
217.9999990463257
 30
0.0
 40
9.0
 41
0.0
 71
     4
 72
     5
  1
\W1.079;\A1;(WITH SENSOR SWITCH)
 73
     1
 44
1.0
1001
ACAD
1000
MTEXTBEGIN
1070
    73
1070
     1
1070
    44
1040
1.0
1070
    74
1070
     0
1000
MTEXTEND
  0
MTEXT
  5
330
330
A
100
AcDbEntity
  8
0
  6
Continuous
 62
     7
100
AcDbMText
 10
-325.8712944701729
 20
219.4749999046326
 30
0.0
 40
9.0
 41
0.0
 71
     4
 72
     5
  1
\W1.079;\A1;(WITH SENSOR SWITCH)
 73
     1
 44
1.0
1001
ACAD
1000
MTEXTBEGIN
1070
    73
1070
     1
1070
    44
1040
1.0
1070
    74
1070
     0
1000
MTEXTEND
  0
MTEXT
  5
331
330
A
100
AcDbEntity
  8
0
  6
Continuous
 62
     3
100
AcDbMText
 10
209.5812238277536
 20
169.5637915053012
 30
0.0
 40
6.300000190734863
 41
0.0
 71
     4
 72
     5
  1
\W1.065;\A1;STRETCH LINE
 73
     1
 44
1.0
1001
ACAD
1000
MTEXTBEGIN
1070
    73
1070
     1
1070
    44
1040
1.0
1070
    74
1070
     0
1000
MTEXTEND
  0
MTEXT
  5
332
330
A
100
AcDbEntity
  8
0
  6
Continuous
 62
     7
100
AcDbMText
 10
37.59804786064553
 20
231.5
 30
0.0
 40
9.0
 41
0.0
 71
     4
 72
     5
  1
{\W1.082;MODEL:CS-MRVS22*ST(100)-M}
 73
     1
 44
1.0
1001
ACAD
1000
ACAD_MTEXT_DEFINED_HEIGHT_BEGIN
1070
    46
1040
0.0
1000
ACAD_MTEXT_DEFINED_HEIGHT_END
1000
MTEXTBEGIN
1070
    73
1070
     1
1070
    44
1040
1.0
1070
    74
1070
     0
1000
MTEXTEND
  0
MTEXT
  5
333
330
A
100
AcDbEntity
  8
0
  6
Continuous
 62
     3
100
AcDbMText
 10
-177.9785798506349
 20
172.3294848320352
 30
0.0
 40
6.300000190734863
 41
0.0
 71
     4
 72
     5
  1
\W1.065;\A1;STRETCH LINE
 73
     1
 44
1.0
1001
ACAD
1000
MTEXTBEGIN
1070
    73
1070
     1
1070
    44
1040
1.0
1070
    74
1070
     0
1000
MTEXTEND
  0
LINE
  5
334
330
A
100
AcDbEntity
  8
0
  6
Continuous
 62
     7
100
AcDbLine
 10
0.0
 20
276.5
 30
0.0
 11
0.0
 21
-160.0
 31
0.0
  0
MTEXT
  5
335
330
A
100
AcDbEntity
  8
0
  6
Continuous
 62
     7
100
AcDbMText
 10
-345.1038551419726
 20
257.75
 30
0.0
 40
9.0
 41
0.0
 71
     4
 72
     5
  1
{\W0.947;CS-MRVS22}
 73
     1
 44
1.0
1001
ACAD
1000
ACAD_MTEXT_DEFINED_HEIGHT_BEGIN
1070
    46
1040
0.0
1000
ACAD_MTEXT_DEFINED_HEIGHT_END
1000
MTEXTBEGIN
1070
    73
1070
     1
1070
    44
1040
1.0
1070
    74
1070
     0
1000
MTEXTEND
  0
MTEXT
  5
336
330
A
100
AcDbEntity
  8
0
  6
Continuous
 62
     7
100
AcDbMText
 10
-389.9528648696769
 20
270.25
 30
0.0
 40
9.0
 41
0.0
 71
     4
 72
     5
  1
\W1.048;\A1;RODLESS CYLINDER
 73
     1
 44
1.0
1001
ACAD
1000
MTEXTBEGIN
1070
    73
1070
     1
1070
    44
1040
1.0
1070
    74
1070
     0
1000
MTEXTEND
  0
LINE
  5
337
330
A
100
AcDbEntity
  8
0
  6
Continuous
 62
     7
100
AcDbLine
 10
239.52490234375
 20
-251.5
 30
0.0
 11
239.52490234375
 21
-276.5
 31
0.0
  0
LINE
  5
338
330
A
100
AcDbEntity
  8
0
  6
Continuous
 62
     7
100
AcDbLine
 10
239.52490234375
 20
-251.5
 30
0.0
 11
399.52490234375
 21
-251.5
 31
0.0
  0
LINE
  5
339
330
A
100
AcDbEntity
  8
0
  6
Continuous
 62
     7
100
AcDbLine
 10
239.52490234375
 20
251.5
 30
0.0
 11
239.52490234375
 21
276.5
 31
0.0
  0
LINE
  5
33A
330
A
100
AcDbEntity
  8
0
  6
Continuous
 62
     7
100
AcDbLine
 10
239.52490234375
 20
251.5
 30
0.0
 11
399.52490234375
 21
251.5
 31
0.0
  0
LINE
  5
33B
330
A
100
AcDbEntity
  8
0
  6
Continuous
 62
     7
100
AcDbLine
 10
-239.52490234375
 20
251.5
 30
0.0
 11
-239.52490234375
 21
276.5
 31
0.0
  0
LINE
  5
33C
330
A
100
AcDbEntity
  8
0
  6
Continuous
 62
     7
100
AcDbLine
 10
-239.52490234375
 20
251.5
 30
0.0
 11
-399.52490234375
 21
251.5
 31
0.0
  0
MTEXT
  5
33D
330
A
100
AcDbEntity
  8
0
  6
Continuous
 62
     7
100
AcDbMText
 10
245.6096604111856
 20
-264.0
 30
0.0
 40
12.5
 41
0.0
 71
     4
 72
     5
  1
\W1.121;\A1;KOGANEI CORP.
 73
     1
 44
1.0
1001
ACAD
1000
MTEXTBEGIN
1070
    73
1070
     1
1070
    44
1040
1.0
1070
    74
1070
     0
1000
MTEXTEND
  0
MTEXT
  5
33E
330
A
100
AcDbEntity
  8
0
  6
Continuous
 62
     7
100
AcDbMText
 10
285.4921082267942
 20
264.0
 30
0.0
 40
9.0
 41
0.0
 71
     4
 72
     5
  1
\W1.311;\A1;Ver. 1.0
 73
     1
 44
1.0
1001
ACAD
1000
MTEXTBEGIN
1070
    73
1070
     1
1070
    44
1040
1.0
1070
    74
1070
     0
1000
MTEXTEND
  0
MTEXT
  5
33F
330
A
100
AcDbEntity
  8
0
  6
Continuous
 62
     7
100
AcDbMText
 10
-382.3885393204768
 20
231.5
 30
0.0
 40
9.0
 41
0.0
 71
     4
 72
     5
  1
{\W1.091;MODEL:CS-MRVS22*ST(100)}
 73
     1
 44
1.0
1001
ACAD
1000
ACAD_MTEXT_DEFINED_HEIGHT_BEGIN
1070
    46
1040
0.0
1000
ACAD_MTEXT_DEFINED_HEIGHT_END
1000
MTEXTBEGIN
1070
    73
1070
     1
1070
    44
1040
1.0
1070
    74
1070
     0
1000
MTEXTEND
  0
LINE
  5
340
330
A
100
AcDbEntity
  8
0
  6
Continuous
 62
     7
100
AcDbLine
 10
-399.52490234375
 20
-276.5
 30
0.0
 11
399.52490234375
 21
-276.5
 31
0.0
  0
LINE
  5
341
330
A
100
AcDbEntity
  8
0
  6
Continuous
 62
     7
100
AcDbLine
 10
-399.52490234375
 20
276.5
 30
0.0
 11
399.52490234375
 21
276.5
 31
0.0
  0
LINE
  5
342
330
A
100
AcDbEntity
  8
0
  6
Continuous
 62
     7
100
AcDbLine
 10
-399.52490234375
 20
276.5
 30
0.0
 11
-399.52490234375
 21
-276.5
 31
0.0
  0
LINE
  5
343
330
A
100
AcDbEntity
  8
0
  6
Continuous
 62
     7
100
AcDbLine
 10
399.52490234375
 20
276.5
 30
0.0
 11
399.52490234375
 21
-276.5
 31
0.0
  0
ENDSEC
  0
SECTION
  2
OBJECTS
  0
DICTIONARY
  5
19
330
0
100
AcDbDictionary
281
     1
  3
ACAD_COLOR
350
34C
  3
ACAD_GROUP
350
1A
  3
ACAD_LAYOUT
350
34F
  3
ACAD_MATERIAL
350
34B
  3
ACAD_MLINESTYLE
350
1B
  3
ACAD_PLOTSETTINGS
350
350
  3
ACAD_PLOTSTYLENAME
350
349
  3
ACAD_TABLESTYLE
350
34D
  3
ACDBHEADERROUNDTRIPXREC
350
35B
  3
AcDbVariableDictionary
350
356
  0
DICTIONARY
  5
34C
102
{ACAD_REACTORS
330
19
102
}
330
19
100
AcDbDictionary
281
     1
  0
DICTIONARY
  5
1A
102
{ACAD_REACTORS
330
19
102
}
330
19
100
AcDbDictionary
281
     1
  0
DICTIONARY
  5
34F
102
{ACAD_REACTORS
330
19
102
}
330
19
100
AcDbDictionary
281
     1
  3
Model
350
351
  3
レイアウト1
350
352
  0
DICTIONARY
  5
34B
102
{ACAD_REACTORS
330
19
102
}
330
19
100
AcDbDictionary
281
     1
  0
DICTIONARY
  5
1B
102
{ACAD_REACTORS
330
19
102
}
330
19
100
AcDbDictionary
281
     1
  3
STANDARD
350
1C
  0
DICTIONARY
  5
350
102
{ACAD_REACTORS
330
19
102
}
330
19
100
AcDbDictionary
281
     1
  0
ACDBDICTIONARYWDFLT
  5
349
102
{ACAD_REACTORS
330
19
102
}
330
19
100
AcDbDictionary
281
     1
  3
Normal
350
34A
100
AcDbDictionaryWithDefault
340
34A
  0
DICTIONARY
  5
34D
102
{ACAD_REACTORS
330
19
102
}
330
19
100
AcDbDictionary
281
     1
  3
Standard
350
34E
  0
DICTIONARY
  5
35B
102
{ACAD_REACTORS
330
19
102
}
330
19
100
AcDbDictionary
281
     1
  0
DICTIONARY
  5
356
102
{ACAD_REACTORS
330
19
102
}
330
19
100
AcDbDictionary
281
     1
  3
CTABLESTYLE
350
357
  3
DIMASSOC
350
358
  3
PROJECTNAME
350
359
  0
LAYOUT
  5
351
102
{ACAD_XDICTIONARY
360
35C
102
}
102
{ACAD_REACTORS
330
34F
102
}
330
34F
100
AcDbPlotSettings
  1

  2
\\Tg_salsvr02\DCCF450-41.214
  4

  6

 40
0.0
 41
0.0
 42
0.0
 43
0.0
 44
0.0
 45
0.0
 46
0.0
 47
0.0
 48
0.0
 49
0.0
140
0.0
141
0.0
142
1.0
143
1.0
 70
  1712
 72
     0
 73
     0
 74
     0
  7

 75
     0
147
1.0
148
0.0
149
0.0
100
AcDbLayout
  1
Model
 70
     1
 71
     0
 10
0.0
 20
0.0
 11
12.0
 21
9.0
 12
0.0
 22
0.0
 32
0.0
 14
0.0
 24
0.0
 34
0.0
 15
0.0
 25
0.0
 35
0.0
146
0.0
 13
0.0
 23
0.0
 33
0.0
 16
1.0
 26
0.0
 36
0.0
 17
0.0
 27
1.0
 37
0.0
 76
     0
330
A
  0
LAYOUT
  5
352
102
{ACAD_XDICTIONARY
360
35E
102
}
102
{ACAD_REACTORS
330
34F
102
}
330
34F
100
AcDbPlotSettings
  1

  2
\\Tg_salsvr02\DCCF450-41.214
  4

  6

 40
0.0
 41
0.0
 42
0.0
 43
0.0
 44
0.0
 45
0.0
 46
0.0
 47
0.0
 48
0.0
 49
0.0
140
0.0
141
0.0
142
1.0
143
1.0
 70
   688
 72
     0
 73
     0
 74
     5
  7

 75
    16
147
1.0
148
0.0
149
0.0
100
AcDbLayout
  1
レイアウト1
 70
     0
 71
     1
 10
0.0
 20
0.0
 11
12.0
 21
9.0
 12
0.0
 22
0.0
 32
0.0
 14
1.000000000000000E+20
 24
1.000000000000000E+20
 34
1.000000000000000E+20
 15
-1.000000000000000E+20
 25
-1.000000000000000E+20
 35
-1.000000000000000E+20
146
0.0
 13
0.0
 23
0.0
 33
0.0
 16
1.0
 26
0.0
 36
0.0
 17
0.0
 27
1.0
 37
0.0
 76
     0
330
B
  0
MLINESTYLE
  5
1C
102
{ACAD_REACTORS
330
1B
102
}
330
1B
100
AcDbMlineStyle
  2
STANDARD
 70
     0
  3

 62
     0
 51
90.0
 52
90.0
 71
     2
 49
0.5
 62
   256
  6
BYLAYER
 49
-0.5
 62
   256
  6
BYLAYER
  0
ACDBPLACEHOLDER
  5
34A
102
{ACAD_REACTORS
330
349
102
}
330
349
  0
TABLESTYLE
  5
34E
102
{ACAD_REACTORS
330
34D
102
}
330
34D
100
AcDbTableStyle
  3
Standard
 70
     0
 71
     0
 40
0.06
 41
0.06
280
     0
281
     0
  7
MX_NOTE_STANDARD
140
0.18
170
     2
 62
     0
 63
     7
283
     0
274
    -2
284
     1
 64
     0
275
    -2
285
     1
 65
     0
276
    -2
286
     1
 66
     0
277
    -2
287
     1
 67
     0
278
    -2
288
     1
 68
     0
279
    -2
289
     1
 69
     0
  7
MX_NOTE_STANDARD
140
0.25
170
     5
 62
     0
 63
     7
283
     0
274
    -2
284
     1
 64
     0
275
    -2
285
     1
 65
     0
276
    -2
286
     1
 66
     0
277
    -2
287
     1
 67
     0
278
    -2
288
     1
 68
     0
279
    -2
289
     1
 69
     0
  7
MX_NOTE_STANDARD
140
0.18
170
     5
 62
     0
 63
     7
283
     0
274
    -2
284
     1
 64
     0
275
    -2
285
     1
 65
     0
276
    -2
286
     1
 66
     0
277
    -2
287
     1
 67
     0
278
    -2
288
     1
 68
     0
279
    -2
289
     1
 69
     0
  0
DICTIONARYVAR
  5
357
102
{ACAD_REACTORS
330
356
102
}
330
356
100
DictionaryVariables
280
     0
  1
STANDARD
  0
DICTIONARYVAR
  5
358
102
{ACAD_REACTORS
330
356
102
}
330
356
100
DictionaryVariables
280
     0
  1
1
  0
DICTIONARYVAR
  5
359
102
{ACAD_REACTORS
330
356
102
}
330
356
100
DictionaryVariables
280
     0
  1

  0
DICTIONARY
  5
35C
330
351
100
AcDbDictionary
280
     1
281
     1
  3
ACAD_XREC_ROUNDTRIP
360
35D
  0
DICTIONARY
  5
35E
330
352
100
AcDbDictionary
280
     1
281
     1
  3
ACAD_XREC_ROUNDTRIP
360
35F
  0
XRECORD
  5
35D
102
{ACAD_REACTORS
330
35C
102
}
330
35C
100
AcDbXrecord
280
     1
102
SHADEPLOT
 70
     0
102
SHADEPLOTRESLEVEL
 70
     2
102
SHADEPLOTCUSTOMDPI
 70
   300
  0
XRECORD
  5
35F
102
{ACAD_REACTORS
330
35E
102
}
330
35E
100
AcDbXrecord
280
     1
102
SHADEPLOT
 70
     0
102
SHADEPLOTRESLEVEL
 70
     2
102
SHADEPLOTCUSTOMDPI
 70
   300
  0
ENDSEC
  0
EOF
